  0
SECTION
  2
HEADER
  9
$ACADVER
  1
AC1015
  9
$ACADMAINTVER
 70
     6
  9
$DWGCODEPAGE
  3
ANSI_1252
  9
$INSBASE
 10
0.0
 20
0.0
 30
0.0
  9
$EXTMIN
 10
0.0
 20
0.0
 30
0.0
  9
$EXTMAX
 10
1496.0
 20
2284.0
 30
0.0
  9
$LIMMIN
 10
0.0
 20
0.0
  9
$LIMMAX
 10
1496.0
 20
2284.0
  9
$ORTHOMODE
 70
     0
  9
$REGENMODE
 70
     1
  9
$FILLMODE
 70
     1
  9
$QTEXTMODE
 70
     0
  9
$MIRRTEXT
 70
     1
  9
$LTSCALE
 40
1.0
  9
$ATTMODE
 70
     1
  9
$TEXTSIZE
 40
3.5
  9
$TRACEWID
 40
1.0
  9
$TEXTSTYLE
  7
Standard
  9
$CLAYER
  8
0
  9
$CELTYPE
  6
ByLayer
  9
$CECOLOR
 62
   256
  9
$CELTSCALE
 40
1.0
  9
$DISPSILH
 70
     0
  9
$DIMSCALE
 40
1.0
  9
$DIMASZ
 40
3.302
  9
$DIMEXO
 40
1.0
  9
$DIMDLI
 40
3.75
  9
$DIMRND
 40
0.0
  9
$DIMDLE
 40
0.0
  9
$DIMEXE
 40
1.0
  9
$DIMTP
 40
0.0
  9
$DIMTM
 40
0.0
  9
$DIMTXT
 40
2.8
  9
$DIMCEN
 40
2.5
  9
$DIMTSZ
 40
0.0
  9
$DIMTOL
 70
     0
  9
$DIMLIM
 70
     0
  9
$DIMTIH
 70
     1
  9
$DIMTOH
 70
     1
  9
$DIMSE1
 70
     0
  9
$DIMSE2
 70
     0
  9
$DIMTAD
 70
     1
  9
$DIMZIN
 70
     0
  9
$DIMBLK
  1

  9
$DIMASO
 70
     1
  9
$DIMSHO
 70
     1
  9
$DIMPOST
  1

  9
$DIMAPOST
  1

  9
$DIMALT
 70
     0
  9
$DIMALTD
 70
     3
  9
$DIMALTF
 40
0.0393700787
  9
$DIMLFAC
 40
1.0
  9
$DIMTOFL
 70
     1
  9
$DIMTVP
 40
0.0
  9
$DIMTIX
 70
     0
  9
$DIMSOXD
 70
     0
  9
$DIMSAH
 70
     0
  9
$DIMBLK1
  1

  9
$DIMBLK2
  1

  9
$DIMSTYLE
  2
ISO-25
  9
$DIMCLRD
 70
     0
  9
$DIMCLRE
 70
     0
  9
$DIMCLRT
 70
     0
  9
$DIMTFAC
 40
1.0
  9
$DIMGAP
 40
1.524
  9
$DIMJUST
 70
     0
  9
$DIMSD1
 70
     0
  9
$DIMSD2
 70
     0
  9
$DIMTOLJ
 70
     0
  9
$DIMTZIN
 70
     0
  9
$DIMALTZ
 70
     0
  9
$DIMALTTZ
 70
     0
  9
$DIMUPT
 70
     0
  9
$DIMDEC
 70
     2
  9
$DIMTDEC
 70
     2
  9
$DIMALTU
 70
     2
  9
$DIMALTTD
 70
     3
  9
$DIMTXSTY
  7
Standard
  9
$DIMAUNIT
 70
     0
  9
$DIMADEC
 70
     2
  9
$DIMALTRND
 40
0.0
  9
$DIMAZIN
 70
     0
  9
$DIMDSEP
 70
    44
  9
$DIMATFIT
 70
     3
  9
$DIMFRAC
 70
     0
  9
$DIMLDRBLK
  1

  9
$DIMLUNIT
 70
     2
  9
$DIMLWD
 70
    -2
  9
$DIMLWE
 70
    -2
  9
$DIMTMOVE
 70
     0
  9
$LUNITS
 70
     2
  9
$LUPREC
 70
     2
  9
$SKETCHINC
 40
1.0
  9
$FILLETRAD
 40
10.0
  9
$AUNITS
 70
     0
  9
$AUPREC
 70
     2
  9
$MENU
  1
.
  9
$ELEVATION
 40
0.0
  9
$PELEVATION
 40
0.0
  9
$THICKNESS
 40
0.0
  9
$LIMCHECK
 70
     0
  9
$CHAMFERA
 40
0.0
  9
$CHAMFERB
 40
0.0
  9
$CHAMFERC
 40
0.0
  9
$CHAMFERD
 40
0.0
  9
$SKPOLY
 70
     0
  9
$TDCREATE
 40
2458213.592980173
  9
$TDUCREATE
 40
2458213.467980173
  9
$TDUPDATE
 40
2458213.593069641
  9
$TDUUPDATE
 40
2458213.468069641
  9
$TDINDWG
 40
0.0000000116
  9
$TDUSRTIMER
 40
0.0000000116
  9
$USRTIMER
 70
     1
  9
$ANGBASE
 50
0.0
  9
$ANGDIR
 70
     0
  9
$PDMODE
 70
     0
  9
$PDSIZE
 40
-1.0
  9
$PLINEWID
 40
0.0
  9
$SPLFRAME
 70
     0
  9
$SPLINETYPE
 70
     6
  9
$SPLINESEGS
 70
     8
  9
$HANDSEED
  5
113
  9
$SURFTAB1
 70
     6
  9
$SURFTAB2
 70
     6
  9
$SURFTYPE
 70
     6
  9
$SURFU
 70
     6
  9
$SURFV
 70
     6
  9
$UCSBASE
  2

  9
$UCSNAME
  2

  9
$UCSORG
 10
0.0
 20
0.0
 30
0.0
  9
$UCSXDIR
 10
1.0
 20
0.0
 30
0.0
  9
$UCSYDIR
 10
0.0
 20
1.0
 30
0.0
  9
$UCSORTHOREF
  2

  9
$UCSORTHOVIEW
 70
     0
  9
$UCSORGTOP
 10
0.0
 20
0.0
 30
0.0
  9
$UCSORGBOTTOM
 10
0.0
 20
0.0
 30
0.0
  9
$UCSORGLEFT
 10
0.0
 20
0.0
 30
0.0
  9
$UCSORGRIGHT
 10
0.0
 20
0.0
 30
0.0
  9
$UCSORGFRONT
 10
0.0
 20
0.0
 30
0.0
  9
$UCSORGBACK
 10
0.0
 20
0.0
 30
0.0
  9
$PUCSBASE
  2

  9
$PUCSNAME
  2

  9
$PUCSORG
 10
0.0
 20
0.0
 30
0.0
  9
$PUCSXDIR
 10
1.0
 20
0.0
 30
0.0
  9
$PUCSYDIR
 10
0.0
 20
1.0
 30
0.0
  9
$PUCSORTHOREF
  2

  9
$PUCSORTHOVIEW
 70
     0
  9
$PUCSORGTOP
 10
0.0
 20
0.0
 30
0.0
  9
$PUCSORGBOTTOM
 10
0.0
 20
0.0
 30
0.0
  9
$PUCSORGLEFT
 10
0.0
 20
0.0
 30
0.0
  9
$PUCSORGRIGHT
 10
0.0
 20
0.0
 30
0.0
  9
$PUCSORGFRONT
 10
0.0
 20
0.0
 30
0.0
  9
$PUCSORGBACK
 10
0.0
 20
0.0
 30
0.0
  9
$USERI1
 70
     0
  9
$USERI2
 70
     0
  9
$USERI3
 70
     0
  9
$USERI4
 70
     0
  9
$USERI5
 70
     0
  9
$USERR1
 40
0.0
  9
$USERR2
 40
0.0
  9
$USERR3
 40
0.0
  9
$USERR4
 40
0.0
  9
$USERR5
 40
0.0
  9
$WORLDVIEW
 70
     1
  9
$SHADEDGE
 70
     3
  9
$SHADEDIF
 70
    70
  9
$TILEMODE
 70
     1
  9
$MAXACTVP
 70
    64
  9
$PINSBASE
 10
0.0
 20
0.0
 30
0.0
  9
$PLIMCHECK
 70
     0
  9
$PEXTMIN
 10
1.0000000000E+20
 20
1.0000000000E+20
 30
1.0000000000E+20
  9
$PEXTMAX
 10
-1.0000000000E+20
 20
-1.0000000000E+20
 30
-1.0000000000E+20
  9
$PLIMMIN
 10
0.0
 20
0.0
  9
$PLIMMAX
 10
420.0
 20
297.0
  9
$UNITMODE
 70
     0
  9
$VISRETAIN
 70
     1
  9
$PLINEGEN
 70
     0
  9
$PSLTSCALE
 70
     1
  9
$TREEDEPTH
 70
  3020
  9
$CMLSTYLE
  2
Standard
  9
$CMLJUST
 70
     0
  9
$CMLSCALE
 40
20.0
  9
$PROXYGRAPHICS
 70
     1
  9
$MEASUREMENT
 70
     1
  9
$CELWEIGHT
370
    -1
  9
$ENDCAPS
280
     0
  9
$JOINSTYLE
280
     0
  9
$LWDISPLAY
290
     1
  9
$INSUNITS
 70
     4
  9
$HYPERLINKBASE
  1

  9
$STYLESHEET
  1

  9
$XEDIT
290
     1
  9
$CEPSNTYPE
380
     0
  9
$PSTYLEMODE
290
     1
  9
$FINGERPRINTGUID
  2
{3B2C18F9-195F-4A0D-8EE1-FE1F607E8601}
  9
$VERSIONGUID
  2
{FAEB1C32-E019-11D5-929B-00C0DF256EC4}
  9
$EXTNAMES
290
     1
  9
$PSVPSCALE
 40
0.0
  9
$OLESTARTUP
290
     0
  0
ENDSEC
  0
SECTION
  2
CLASSES
  0
CLASS
  1
ACDBDICTIONARYWDFLT
  2
AcDbDictionaryWithDefault
  3
ObjectDBX Classes
 90
        0
280
     0
281
     0
  0
CLASS
  1
VISUALSTYLE
  2
AcDbVisualStyle
  3
ObjectDBX Classes
 90
     4095
280
     0
281
     0
  0
CLASS
  1
MATERIAL
  2
AcDbMaterial
  3
ObjectDBX Classes
 90
     1153
280
     0
281
     0
  0
CLASS
  1
SCALE
  2
AcDbScale
  3
ObjectDBX Classes
 90
     1153
280
     0
281
     0
  0
CLASS
  1
TABLESTYLE
  2
AcDbTableStyle
  3
ObjectDBX Classes
 90
     4095
280
     0
281
     0
  0
CLASS
  1
MLEADERSTYLE
  2
AcDbMLeaderStyle
  3
ACDB_MLEADERSTYLE_CLASS
 90
     4095
280
     0
281
     0
  0
CLASS
  1
SUN
  2
AcDbSun
  3
SCENEOE
 90
     1153
280
     0
281
     0
  0
CLASS
  1
ACDBPLACEHOLDER
  2
AcDbPlaceHolder
  3
ObjectDBX Classes
 90
        0
280
     0
281
     0
  0
CLASS
  1
LAYOUT
  2
AcDbLayout
  3
ObjectDBX Classes
 90
        0
280
     0
281
     0
  0
ENDSEC
  0
SECTION
  2
TABLES
  0
TABLE
  2
VPORT
  5
8
330
0
100
AcDbSymbolTable
 70
     1
  0
VPORT
  5
29
330
8
100
AcDbSymbolTableRecord
100
AcDbViewportTableRecord
  2
*Active
 70
     0
 10
0.0
 20
0.0
 11
1.0
 21
1.0
 12
748.0
 22
1142.0
 13
0.0
 23
0.0
 14
10.0
 24
10.0
 15
10.0
 25
10.0
 16
0.0
 26
0.0
 36
1.0
 17
0.0
 27
0.0
 37
0.0
 40
2284.0
 41
0.6549912434
 42
50.0
 43
0.0
 44
0.0
 50
0.0
 51
0.0
 71
     0
 72
  2000
 73
     1
 74
     3
 75
     0
 76
     0
 77
     0
 78
     0
281
     0
 65
     1
110
0.0
120
0.0
130
0.0
111
1.0
121
0.0
131
0.0
112
0.0
122
1.0
132
0.0
 79
     0
146
0.0
  0
ENDTAB
  0
TABLE
  2
LTYPE
  5
5
330
0
100
AcDbSymbolTable
 70
     6
  0
LTYPE
  5
14
330
5
100
AcDbSymbolTableRecord
100
AcDbLinetypeTableRecord
  2
ByBlock
 70
     0
  3

 72
    65
 73
     0
 40
0.0
  0
LTYPE
  5
15
330
5
100
AcDbSymbolTableRecord
100
AcDbLinetypeTableRecord
  2
ByLayer
 70
     0
  3

 72
    65
 73
     0
 40
0.0
  0
LTYPE
  5
16
330
5
100
AcDbSymbolTableRecord
100
AcDbLinetypeTableRecord
  2
Continuous
 70
     0
  3
Solid line
 72
    65
 73
     0
 40
0.0
  0
LTYPE
  5
6E
330
5
100
AcDbSymbolTableRecord
100
AcDbLinetypeTableRecord
  2
HIDDEN
 70
     0
  3
Hidden __ __ __ __ __ __ __ __ __ __ __ __ __ __
 72
    65
 73
     2
 40
1.905
 49
1.27
 74
     0
 49
-0.635
 74
     0
  0
LTYPE
  5
6F
330
5
100
AcDbSymbolTableRecord
100
AcDbLinetypeTableRecord
  2
PHANTOM
 70
     0
  3
Phantom ______  __  __  ______  __  __  ______
 72
    65
 73
     6
 40
12.7
 49
6.35
 74
     0
 49
-1.27
 74
     0
 49
1.27
 74
     0
 49
-1.27
 74
     0
 49
1.27
 74
     0
 49
-1.27
 74
     0
  0
LTYPE
  5
70
330
5
100
AcDbSymbolTableRecord
100
AcDbLinetypeTableRecord
  2
CENTER
 70
     0
  3
Center ____ _ ____ _ ____ _ ____ _ ____ _ ____
 72
    65
 73
     4
 40
10.16
 49
6.35
 74
     0
 49
-1.27
 74
     0
 49
1.27
 74
     0
 49
-1.27
 74
     0
  0
LTYPE
  5
71
330
5
100
AcDbSymbolTableRecord
100
AcDbLinetypeTableRecord
  2
CENTERX2
 70
     0
  3
Center (2x) ________  __  ________  __  _____
 72
    65
 73
     4
 40
20.32
 49
12.7
 74
     0
 49
-2.54
 74
     0
 49
2.54
 74
     0
 49
-2.54
 74
     0
  0
LTYPE
  5
72
330
5
100
AcDbSymbolTableRecord
100
AcDbLinetypeTableRecord
  2
DOT2
 70
     0
  3
Dot (.5x) ........................................
 72
    65
 73
     2
 40
0.635
 49
0.0
 74
     0
 49
-0.635
 74
     0
  0
ENDTAB
  0
TABLE
  2
LAYER
  5
2
330
0
100
AcDbSymbolTable
 70
     2
  0
LAYER
  5
10
330
2
100
AcDbSymbolTableRecord
100
AcDbLayerTableRecord
  2
0
 70
     0
 62
     7
  6
Continuous
370
    -3
390
F
  0
LAYER
  5
73
330
2
100
AcDbSymbolTableRecord
100
AcDbLayerTableRecord
  2
FORMAT
 70
     0
 62
     7
  6
Continuous
370
    -3
390
F
  0
ENDTAB
  0
TABLE
  2
STYLE
  5
3
330
0
100
AcDbSymbolTable
 70
     2
  0
STYLE
  5
11
330
3
100
AcDbSymbolTableRecord
100
AcDbTextStyleTableRecord
  2
Standard
 70
     0
 40
0.0
 41
1.0
 50
0.0
 71
     0
 42
3.5
  3
txt
  4

  0
STYLE
  5
74
330
3
100
AcDbSymbolTableRecord
100
AcDbTextStyleTableRecord
  2
SLDTEXTSTYLE0
 70
     0
 40
0.0
 41
0.605
 50
0.0
 71
     0
 42
3.5
  3
TXT
  4

  0
ENDTAB
  0
TABLE
  2
VIEW
  5
6
330
0
100
AcDbSymbolTable
 70
     0
  0
ENDTAB
  0
TABLE
  2
UCS
  5
7
330
0
100
AcDbSymbolTable
 70
     0
  0
ENDTAB
  0
TABLE
  2
APPID
  5
9
330
0
100
AcDbSymbolTable
 70
     1
  0
APPID
  5
12
330
9
100
AcDbSymbolTableRecord
100
AcDbRegAppTableRecord
  2
ACAD
 70
     0
  0
ENDTAB
  0
TABLE
  2
DIMSTYLE
  5
A
330
0
100
AcDbSymbolTable
 70
     1
100
AcDbDimStyleTable
  0
DIMSTYLE
105
27
330
A
100
AcDbSymbolTableRecord
100
AcDbDimStyleTableRecord
  2
ISO-25
 70
     0
 41
2.5
 42
0.625
 43
3.75
 44
1.25
 73
     0
 74
     0
 77
     1
 78
     8
140
2.5
141
2.5
143
0.0393700787
147
0.625
171
     3
172
     1
178
     0
271
     2
272
     2
274
     3
278
    44
283
     0
284
     8
340
11
  0
ENDTAB
  0
TABLE
  2
BLOCK_RECORD
  5
1
330
0
100
AcDbSymbolTable
 70
     1
  0
BLOCK_RECORD
  5
1F
330
1
100
AcDbSymbolTableRecord
100
AcDbBlockTableRecord
  2
*Model_Space
340
22
  0
BLOCK_RECORD
  5
1B
330
1
100
AcDbSymbolTableRecord
100
AcDbBlockTableRecord
  2
*Paper_Space
340
1E
  0
BLOCK_RECORD
  5
23
330
1
100
AcDbSymbolTableRecord
100
AcDbBlockTableRecord
  2
*Paper_Space0
340
26
  0
ENDTAB
  0
ENDSEC
  0
SECTION
  2
BLOCKS
  0
BLOCK
  5
20
330
1F
100
AcDbEntity
  8
0
100
AcDbBlockBegin
  2
*Model_Space
 70
     0
 10
0.0
 20
0.0
 30
0.0
  3
*Model_Space
  1

  0
ENDBLK
  5
21
330
1F
100
AcDbEntity
  8
0
100
AcDbBlockEnd
  0
BLOCK
  5
1C
330
1B
100
AcDbEntity
 67
     1
  8
0
100
AcDbBlockBegin
  2
*Paper_Space
 70
     0
 10
0.0
 20
0.0
 30
0.0
  3
*Paper_Space
  1

  0
ENDBLK
  5
1D
330
1B
100
AcDbEntity
 67
     1
  8
0
100
AcDbBlockEnd
  0
BLOCK
  5
24
330
23
100
AcDbEntity
  8
0
100
AcDbBlockBegin
  2
*Paper_Space0
 70
     0
 10
0.0
 20
0.0
 30
0.0
  3
*Paper_Space0
  1

  0
ENDBLK
  5
25
330
23
100
AcDbEntity
  8
0
100
AcDbBlockEnd
  0
ENDSEC
  0
SECTION
  2
ENTITIES
  0
MTEXT
  5
75
330
1F
100
AcDbEntity
  8
0
  6
Continuous
 62
     7
370
     0
100
AcDbMText
 10
7.2782978723
 20
22.1884790273
 30
0.0
 40
10.0
 41
0.0
 71
     1
 72
     1
  1
1:1
  7
SLDTEXTSTYLE0
 73
     1
 44
1.0
  0
LINE
  5
76
330
1F
100
AcDbEntity
  8
0
  6
Continuous
 62
     7
370
    30
100
AcDbLine
 10
734.4247594654
 20
955.9002284664
 30
0.0
 11
734.4247594654
 21
906.1280019433
 31
0.0
  0
LINE
  5
77
330
1F
100
AcDbEntity
  8
0
  6
Continuous
 62
     7
370
    30
100
AcDbLine
 10
761.5749597826
 20
906.1279981518
 30
0.0
 11
761.5749597826
 21
955.8986949797
 31
0.0
  0
SPLINE
  5
78
330
1F
100
AcDbEntity
  8
0
  6
Continuous
 62
     7
370
    30
100
AcDbSpline
210
0.0
220
0.0
230
1.0
 70
     8
 71
     3
 72
    23
 73
    19
 74
     0
 42
0.000000001
 43
0.00000001
 40
0.0
 40
0.0
 40
0.0
 40
0.0
 40
0.0416240242808403
 40
0.0862524800390391
 40
0.133882576035664
 40
0.1845108019881326
 40
0.2381322809362399
 40
0.2947393599714626
 40
0.3543189639884014
 40
0.4168480815239089
 40
0.4822865885439832
 40
0.5505664624021228
 40
0.6215708548985767
 40
0.6950763866147633
 40
0.7706625014928011
 40
0.847554671308656
 40
0.9244798906244417
 40
1.0
 40
1.0
 40
1.0
 40
1.0
 10
731.2862319378672
 20
963.3605456748355
 30
0.0
 10
731.3691224250707
 20
963.2800136451923
 30
0.0
 10
731.5408864535729
 20
963.1131367658105
 30
0.0
 10
731.795654661132
 20
962.8423255498165
 30
0.0
 10
732.0570567437069
 20
962.543837842853
 30
0.0
 10
732.3215780777018
 20
962.215308751979
 30
0.0
 10
732.5865350767614
 20
961.855648310784
 30
0.0
 10
732.8486201465901
 20
961.4635790191629
 30
0.0
 10
733.1043229608332
 20
961.0381544491224
 30
0.0
 10
733.3498087727721
 20
960.5787204676329
 30
0.0
 10
733.5809686979011
 20
960.0850701446017
 30
0.0
 10
733.7934179531491
 20
959.5575919095955
 30
0.0
 10
733.9825380969236
 20
958.9975764014146
 30
0.0
 10
734.1435760826894
 20
958.4077803929559
 30
0.0
 10
734.2721314614339
 20
957.7932968702418
 30
0.0
 10
734.3635128596312
 20
957.162725390747
 30
0.0
 10
734.4190378354942
 20
956.5279607598337
 30
0.0
 10
734.4248689545009
 20
956.1047559680584
 30
0.0
 10
734.427757640884
 20
955.8951039410827
 30
0.0
  0
SPLINE
  5
79
330
1F
100
AcDbEntity
  8
0
  6
Continuous
 62
     7
370
    30
100
AcDbSpline
210
0.0
220
0.0
230
1.0
 70
     8
 71
     3
 72
    20
 73
    16
 74
     0
 42
0.000000001
 43
0.00000001
 40
0.0
 40
0.0
 40
0.0
 40
0.0
 40
0.0524035173856452
 40
0.1096051752617942
 40
0.1716053151960907
 40
0.2384043172457415
 40
0.3100025425278259
 40
0.3864003283926951
 40
0.4675980451055221
 40
0.5462463386130171
 40
0.6289289560725435
 40
0.7156463012370736
 40
0.8063980577366487
 40
0.9011831127813899
 40
1.0
 40
1.0
 40
1.0
 40
1.0
 10
761.5718018046038
 20
897.5071739673253
 30
0.0
 10
761.5715835634674
 20
897.6578225597107
 30
0.0
 10
761.5711270987263
 20
897.9729133435951
 30
0.0
 10
761.5704536120152
 20
898.4662606965716
 30
0.0
 10
761.569852152761
 20
899.0010025213805
 30
0.0
 10
761.5693998247558
 20
899.5771410883058
 30
0.0
 10
761.569158192509
 20
900.1946761781311
 30
0.0
 10
761.5691552822897
 20
900.8536086176555
 30
0.0
 10
761.5693750903733
 20
901.5328089102918
 30
0.0
 10
761.5697692176437
 20
902.230075567227
 30
0.0
 10
761.5703060561341
 20
902.9432081447678
 30
0.0
 10
761.5708935397964
 20
903.6911356598362
 30
0.0
 10
761.5714217532382
 20
904.473857346565
 30
0.0
 10
761.571820428217
 20
905.2913691653662
 30
0.0
 10
761.5718080336438
 20
905.8479754563941
 30
0.0
 10
761.5718017072967
 20
906.1320743680201
 30
0.0
  0
SPLINE
  5
7A
330
1F
100
AcDbEntity
  8
0
  6
Continuous
 62
     7
370
    30
100
AcDbSpline
210
0.0
220
0.0
230
1.0
 70
     8
 71
     3
 72
    15
 73
    11
 74
     0
 42
0.000000001
 43
0.00000001
 40
0.0
 40
0.0
 40
0.0
 40
0.0
 40
0.13867251204605
 40
0.2734407042349311
 40
0.4043008001603076
 40
0.5312516906224332
 40
0.6542950237180137
 40
0.7734324683844958
 40
0.8886660565985522
 40
1.0
 40
1.0
 40
1.0
 40
1.0
 10
734.4279175406532
 20
906.1320743680201
 30
0.0
 10
734.4279184723142
 20
905.7333899413114
 30
0.0
 10
734.4279203094055
 20
904.9472460343595
 30
0.0
 10
734.4286893930072
 20
903.7848928674022
 30
0.0
 10
734.4296094557558
 20
902.656241200448
 30
0.0
 10
734.4303698530268
 20
901.5612920086724
 30
0.0
 10
734.4307014588234
 20
900.5000376766453
 30
0.0
 10
734.4304246582451
 20
899.4724711788533
 30
0.0
 10
734.4294379312234
 20
898.4785715352374
 30
0.0
 10
734.4284184234359
 20
897.8272362631196
 30
0.0
 10
734.4279174433461
 20
897.5071739673253
 30
0.0
  0
SPLINE
  5
7B
330
1F
100
AcDbEntity
  8
0
  6
Continuous
 62
     7
370
    30
100
AcDbSpline
210
0.0
220
0.0
230
1.0
 70
     8
 71
     3
 72
    28
 73
    24
 74
     0
 42
0.000000001
 43
0.00000001
 40
0.0
 40
0.0
 40
0.0
 40
0.0
 40
0.0410544328272794
 40
0.0849384350830095
 40
0.1316280798634965
 40
0.181107581020939
 40
0.2226993790047876
 40
0.2660735896750228
 40
0.3112341464445232
 40
0.3581876399158724
 40
0.4069432432725345
 40
0.4489619331369152
 40
0.4922538525966021
 40
0.5368372519605144
 40
0.5827301708071028
 40
0.6299511841577858
 40
0.6785211825215943
 40
0.728465123887453
 40
0.7798133193867975
 40
0.832601670639556
 40
0.8868701494158848
 40
0.942658731003625
 40
1.0
 40
1.0
 40
1.0
 40
1.0
 10
756.6247374869426
 20
892.5601119970297
 30
0.0
 10
756.7311015532987
 20
892.5619237554853
 30
0.0
 10
756.9511605511503
 20
892.5656721431103
 30
0.0
 10
757.2908024353045
 20
892.599987623801
 30
0.0
 10
757.6487892861516
 20
892.6604951269902
 30
0.0
 10
757.9954012899295
 20
892.7471233308531
 30
0.0
 10
758.326574838989
 20
892.8556888988466
 30
0.0
 10
758.6393479964607
 20
892.9821279763968
 30
0.0
 10
758.9550250026696
 20
893.1362232126135
 30
0.0
 10
759.2707803376217
 20
893.3198219966703
 30
0.0
 10
759.5651813344934
 20
893.5220083969306
 30
0.0
 10
759.8369801665101
 20
893.7385959438637
 30
0.0
 10
760.085778624582
 20
893.9655323196027
 30
0.0
 10
760.3253942907354
 20
894.2162500916987
 30
0.0
 10
760.5532353454307
 20
894.4911066807108
 30
0.0
 10
760.7664877959764
 20
894.7902441918875
 30
0.0
 10
760.9621243132284
 20
895.1135551028382
 30
0.0
 10
761.1369481706655
 20
895.4606379802336
 30
0.0
 10
761.2875349692434
 20
895.8307482624502
 30
0.0
 10
761.4106390397488
 20
896.2227432363717
 30
0.0
 10
761.501864120462
 20
896.6350154188254
 30
0.0
 10
761.5611747752998
 20
897.0654386239365
 30
0.0
 10
761.5682271814135
 20
897.3585875048318
 30
0.0
 10
761.5718017809905
 20
897.5071736538332
 30
0.0
  0
SPLINE
  5
7C
330
1F
100
AcDbEntity
  8
0
  6
Continuous
 62
     7
370
    30
100
AcDbSpline
210
0.0
220
0.0
230
1.0
 70
     8
 71
     3
 72
    28
 73
    24
 74
     0
 42
0.000000001
 43
0.00000001
 40
0.0
 40
0.0
 40
0.0
 40
0.0
 40
0.0472580723373398
 40
0.0939124083955345
 40
0.139975085375216
 40
0.1854641099486083
 40
0.2304001742993862
 40
0.2748042858353899
 40
0.3186962416262932
 40
0.3620938748793335
 40
0.405012970316169
 40
0.4474677277705998
 40
0.4894716469424206
 40
0.5310387083807672
 40
0.5803611291802426
 40
0.6291031746792913
 40
0.6772826915829284
 40
0.7249156040125755
 40
0.7720176277207313
 40
0.8301647233979736
 40
0.8875339947391468
 40
0.9441443823593867
 40
0.9999999999999999
 40
0.9999999999999999
 40
0.9999999999999999
 40
0.9999999999999999
 10
734.4279174669593
 20
897.5071736538332
 30
0.0
 10
734.4303165929972
 20
897.3847309925432
 30
0.0
 10
734.4350841955065
 20
897.1414099122834
 30
0.0
 10
734.4760370788174
 20
896.7806392958553
 30
0.0
 10
734.5405441081383
 20
896.4282349359177
 30
0.0
 10
734.6297947655138
 20
896.0857730418595
 30
0.0
 10
734.7418394984513
 20
895.7546567442471
 30
0.0
 10
734.8754487060703
 20
895.4361193316906
 30
0.0
 10
735.0291335304212
 20
895.1312404051207
 30
0.0
 10
735.2014348673549
 20
894.8409581051047
 30
0.0
 10
735.3908754136282
 20
894.5660813318423
 30
0.0
 10
735.5959952853534
 20
894.30730214947
 30
0.0
 10
735.8153681114561
 20
894.0652032800348
 30
0.0
 10
736.0628229543397
 20
893.8255342983555
 30
0.0
 10
736.3401181391132
 20
893.5926991936302
 30
0.0
 10
736.6483612917643
 20
893.371822688305
 30
0.0
 10
736.9687357158303
 20
893.1772640687172
 30
0.0
 10
737.2990649944443
 20
893.0093103557925
 30
0.0
 10
737.6648484554646
 20
892.8566122775458
 30
0.0
 10
738.0663394867554
 20
892.7268879280737
 30
0.0
 10
738.502022330221
 20
892.6298174885782
 30
0.0
 10
738.9388250335023
 20
892.5703860823565
 30
0.0
 10
739.2302481077608
 20
892.5635213354839
 30
0.0
 10
739.3749817610071
 20
892.5601119970297
 30
0.0
  0
SPLINE
  5
7D
330
1F
100
AcDbEntity
  8
0
  6
Continuous
 62
     7
370
    30
100
AcDbSpline
210
0.0
220
0.0
230
1.0
 70
     8
 71
     3
 72
    22
 73
    18
 74
     0
 42
0.000000001
 43
0.00000001
 40
0.0
 40
0.0
 40
0.0
 40
0.0
 40
0.0620999453653647
 40
0.1262740584204788
 40
0.191831771474147
 40
0.2579820501080769
 40
0.3241142610428561
 40
0.3898403798013498
 40
0.4549247537644142
 40
0.5192280153164714
 40
0.5916569140041887
 40
0.6628864525509075
 40
0.7328716179046735
 40
0.8015869994829143
 40
0.869018686887639
 40
0.9351584640141928
 40
1.0
 40
1.0
 40
1.0
 40
1.0
 10
761.5719616070656
 20
955.8951039410827
 30
0.0
 10
761.5738618282242
 20
956.0674892618675
 30
0.0
 10
761.5777257388311
 20
956.4180176550817
 30
0.0
 10
761.6157966837591
 20
956.9494712623328
 30
0.0
 10
761.6803168395234
 20
957.4895894819314
 30
0.0
 10
761.7745060147777
 20
958.0309498788309
 30
0.0
 10
761.8974141965924
 20
958.5669911948578
 30
0.0
 10
762.0481164098518
 20
959.0928266979702
 30
0.0
 10
762.2250430402014
 20
959.6050562711346
 30
0.0
 10
762.4359354376718
 20
960.1244014426268
 30
0.0
 10
762.683041175111
 20
960.6465705254959
 30
0.0
 10
762.9682081064501
 20
961.1670202280823
 30
0.0
 10
763.2778019215946
 20
961.6611659916641
 30
0.0
 10
763.609012162114
 20
962.1282433978735
 30
0.0
 10
763.9597479203006
 20
962.5671248052212
 30
0.0
 10
764.325567184333
 20
962.9794916146316
 30
0.0
 10
764.5850378624859
 20
963.2343697425015
 30
0.0
 10
764.7134873100822
 20
963.3605456748355
 30
0.0
  0
SPLINE
  5
7E
330
1F
100
AcDbEntity
  8
0
  6
Continuous
 62
     7
370
    30
100
AcDbSpline
210
0.0
220
0.0
230
1.0
 70
     8
 71
     3
 72
    16
 73
    12
 74
     0
 42
0.000000001
 43
0.00000001
 40
0.0
 40
0.0
 40
0.0
 40
0.0
 40
0.111521267478298
 40
0.2205174157439621
 40
0.3266798938952654
 40
0.4299714816152104
 40
0.5307840209896685
 40
0.6536614112079966
 40
0.7729987781689284
 40
0.8884532002675495
 40
1.0
 40
1.0
 40
1.0
 40
1.0
 10
747.9998595695752
 20
892.560114971822
 30
0.0
 10
748.3204832785096
 20
892.5601031317515
 30
0.0
 10
748.9544709771719
 20
892.560079719699
 30
0.0
 10
749.8936677870939
 20
892.5605834448702
 30
0.0
 10
750.8091994873126
 20
892.561257340218
 30
0.0
 10
751.7012050078995
 20
892.5619716641463
 30
0.0
 10
752.6412697139845
 20
892.5625896086441
 30
0.0
 10
753.627472048799
 20
892.5628919328817
 30
0.0
 10
754.6557691979406
 20
892.5626072905046
 30
0.0
 10
755.6514887341913
 20
892.5616578756475
 30
0.0
 10
756.3040694878146
 20
892.5606234006526
 30
0.0
 10
756.6247430685402
 20
892.5601150669346
 30
0.0
  0
SPLINE
  5
7F
330
1F
100
AcDbEntity
  8
0
  6
Continuous
 62
     7
370
    30
100
AcDbSpline
210
0.0
220
0.0
230
1.0
 70
     8
 71
     3
 72
    21
 73
    17
 74
     0
 42
0.000000001
 43
0.00000001
 40
0.0
 40
0.0
 40
0.0
 40
0.0
 40
0.0466482204183642
 40
0.0971290131892893
 40
0.1514426429754389
 40
0.2095890259560828
 40
0.271568030544718
 40
0.3373621602282724
 40
0.4068677624729438
 40
0.4800190388891744
 40
0.5568509621641125
 40
0.6374669787698913
 40
0.7220331561217797
 40
0.8107787779368629
 40
0.9034702481534139
 40
1.0
 40
1.0
 40
1.0
 40
1.0
 10
739.3749761794096
 20
892.5601150669346
 30
0.0
 10
739.5090790924457
 20
892.5603110171802
 30
0.0
 10
739.7883026832321
 20
892.5607190167526
 30
0.0
 10
740.2236815731477
 20
892.5613298093425
 30
0.0
 10
740.6921241359753
 20
892.5618836176243
 30
0.0
 10
741.193630024721
 20
892.5623303783711
 30
0.0
 10
741.7281458277024
 20
892.5626344992146
 30
0.0
 10
742.2953211713605
 20
892.5627695629319
 30
0.0
 10
742.8946169015677
 20
892.5627173421018
 30
0.0
 10
743.5256449679853
 20
892.56247869916
 30
0.0
 10
744.1886130385121
 20
892.5620755080085
 30
0.0
 10
744.8843959978199
 20
892.5615550973022
 30
0.0
 10
745.6144284745067
 20
892.5609866689675
 30
0.0
 10
746.3791777569718
 20
892.560476080418
 30
0.0
 10
747.1783262057457
 20
892.5600974531058
 30
0.0
 10
747.7223368368547
 20
892.5601090538112
 30
0.0
 10
747.9998596783747
 20
892.560114971822
 30
0.0
  0
LWPOLYLINE
  5
80
330
1F
100
AcDbEntity
  8
0
  6
Continuous
 62
     7
370
    30
100
AcDbPolyline
 90
        3
 70
   128
 43
0.0
 10
730.1069187509
 20
964.5553368094
 10
730.1142166075
 20
875.8002816441
 10
730.1180825984
 20
781.4774541822
  0
LWPOLYLINE
  5
81
330
1F
100
AcDbEntity
  8
0
  6
Continuous
 62
     7
370
    30
100
AcDbPolyline
 90
        3
 70
   128
 43
0.0
 10
765.8816366449
 20
781.4774541822
 10
765.8853119889
 20
872.8982100374
 10
765.8928020247
 20
964.5575189019
  0
SPLINE
  5
82
330
1F
100
AcDbEntity
  8
0
  6
Continuous
 62
     7
370
    30
100
AcDbSpline
210
0.0
220
0.0
230
1.0
 70
     8
 71
     3
 72
    44
 73
    40
 74
     0
 42
0.000000001
 43
0.00000001
 40
0.0
 40
0.0
 40
0.0
 40
0.0
 40
0.0387821545628068
 40
0.0753759936045817
 40
0.1101732802728953
 40
0.1436747329474011
 40
0.1760524481169078
 40
0.2074643943759059
 40
0.2375193019225551
 40
0.2686420894459058
 40
0.2978889882450887
 40
0.3255497746681935
 40
0.3516616151739257
 40
0.3762089556393404
 40
0.3991581842659732
 40
0.4204741546009145
 40
0.4401285262016623
 40
0.4583793145203906
 40
0.4762183759268123
 40
0.5102953878731136
 40
0.5430867318859172
 40
0.5756724851132802
 40
0.6070403280254191
 40
0.6378860324738916
 40
0.6687605957673485
 40
0.699663208889904
 40
0.710708954676963
 40
0.7227018263712436
 40
0.7364067185988504
 40
0.7518234434948861
 40
0.7689517213309378
 40
0.7877911562716818
 40
0.8083412091253216
 40
0.83447734023197
 40
0.8629393493944824
 40
0.8937253100325678
 40
0.9268327987016882
 40
0.962258859004618
 40
1.0
 40
1.0
 40
1.0
 40
1.0
 10
730.1079234964935
 20
781.4774537715643
 30
0.0
 10
730.1078478350639
 20
781.2518437959055
 30
0.0
 10
730.107700781464
 20
780.8133540762369
 30
0.0
 10
730.1067887181237
 20
780.172436254998
 30
0.0
 10
730.1055890936973
 20
779.5622390651909
 30
0.0
 10
730.1041751695066
 20
778.9765693106414
 30
0.0
 10
730.1026296766602
 20
778.4105938670835
 30
0.0
 10
730.1010230921911
 20
777.8646685611164
 30
0.0
 10
730.0993628248451
 20
777.3260438574001
 30
0.0
 10
730.0976927191434
 20
776.8000141100432
 30
0.0
 10
730.0960502346367
 20
776.2879117725543
 30
0.0
 10
730.0945237752638
 20
775.804959621479
 30
0.0
 10
730.0931311402584
 20
775.3493461224401
 30
0.0
 10
730.0918833752389
 20
774.921141062971
 30
0.0
 10
730.0907844889152
 20
774.5208349388527
 30
0.0
 10
730.0898329242614
 20
774.1489926518043
 30
0.0
 10
730.089019092231
 20
773.8044826162367
 30
0.0
 10
730.088319124472
 20
773.48019881065
 30
0.0
 10
730.0875291014452
 20
773.0720132300269
 30
0.0
 10
730.0867478142881
 20
772.5792397420857
 30
0.0
 10
730.0861409038644
 20
772.0006790623881
 30
0.0
 10
730.085898830234
 20
771.4378783983486
 30
0.0
 10
730.0860426940355
 20
770.8863963172223
 30
0.0
 10
730.0865732539709
 20
770.3448692272734
 30
0.0
 10
730.0875171121619
 20
769.8060493228669
 30
0.0
 10
730.088616469048
 20
769.3824137096587
 30
0.0
 10
730.0896254289501
 20
769.0686201688297
 30
0.0
 10
730.0903934784623
 20
768.8548714681739
 30
0.0
 10
730.0913579192021
 20
768.6156956418599
 30
0.0
 10
730.0925774113504
 20
768.3466461143532
 30
0.0
 10
730.0941055026715
 20
768.0477282889024
 30
0.0
 10
730.096006235105
 20
767.718949786945
 30
0.0
 10
730.0985048857362
 20
767.3377724150957
 30
0.0
 10
730.1017964932394
 20
766.9006219962181
 30
0.0
 10
730.1061525216161
 20
766.4039339622899
 30
0.0
 10
730.1116456080883
 20
765.8667026681461
 30
0.0
 10
730.1185896578096
 20
765.288977822814
 30
0.0
 10
730.1271787614812
 20
764.6708163929324
 30
0.0
 10
730.1344659657008
 20
764.2452613756232
 30
0.0
 10
730.1382248548891
 20
764.0257513817384
 30
0.0
  0
SPLINE
  5
83
330
1F
100
AcDbEntity
  8
0
  6
Continuous
 62
     7
370
    30
100
AcDbSpline
210
0.0
220
0.0
230
1.0
 70
     8
 71
     3
 72
    59
 73
    55
 74
     0
 42
0.000000001
 43
0.00000001
 40
0.0
 40
0.0
 40
0.0
 40
0.0
 40
0.0298785929794864
 40
0.0576292052635995
 40
0.0832495119860115
 40
0.1067375503195712
 40
0.1280916999748786
 40
0.1473106514535522
 40
0.1643933683040412
 40
0.1793390479176062
 40
0.1921470842068247
 40
0.2028170349438868
 40
0.2116953379627597
 40
0.2191970991590573
 40
0.2253230261826802
 40
0.2300811577969094
 40
0.235160923765161
 40
0.2427450418884776
 40
0.2523312835424216
 40
0.2639197402105155
 40
0.2775045212489231
 40
0.2919373045068708
 40
0.3063614536929585
 40
0.3207768746144873
 40
0.3999017977895573
 40
0.4277201112836372
 40
0.4541106199677209
 40
0.479059102938917
 40
0.5025820916125012
 40
0.5249160315131327
 40
0.5825511202834458
 40
0.6428786959972471
 40
0.704476200320507
 40
0.7660601143598903
 40
0.7800625639327442
 40
0.7945865882461294
 40
0.8095853321029194
 40
0.8250043928993422
 40
0.840528748305223
 40
0.8544485578662657
 40
0.866520949455013
 40
0.8768364871131742
 40
0.8826670797170256
 40
0.8886625940928552
 40
0.894820120693729
 40
0.9013144327483114
 40
0.9096202776459422
 40
0.9200535753277793
 40
0.9297474037135338
 40
0.9408139745535077
 40
0.9533907463622453
 40
0.9675739788648103
 40
0.9832554265823965
 40
1.0
 40
1.0
 40
1.0
 40
1.0
 10
765.8618008074063
 20
764.0257457989819
 30
0.0
 10
765.8648585487834
 20
764.1995312058915
 30
0.0
 10
765.8707562564025
 20
764.5347248642237
 30
0.0
 10
765.8780122295972
 20
765.0189606231755
 30
0.0
 10
765.8840138121506
 20
765.4660351130121
 30
0.0
 10
765.8888984365354
 20
765.8759109481861
 30
0.0
 10
765.8928774953614
 20
766.2485557612431
 30
0.0
 10
765.8961020865978
 20
766.583944281197
 30
0.0
 10
765.8987016250395
 20
766.8820566108667
 30
0.0
 10
765.9007805747027
 20
767.1428774617499
 30
0.0
 10
765.9024238138841
 20
767.3663953074455
 30
0.0
 10
765.9037130325707
 20
767.5546186694429
 30
0.0
 10
765.9047271351493
 20
767.7119744865765
 30
0.0
 10
765.9055276123147
 20
767.8428970756745
 30
0.0
 10
765.9061528563506
 20
767.9498518150616
 30
0.0
 10
765.9066762149404
 20
768.0427172849733
 30
0.0
 10
765.9072283790388
 20
768.1440653368379
 30
0.0
 10
765.9079028040721
 20
768.2734997753198
 30
0.0
 10
765.9087219079952
 20
768.4407971525218
 30
0.0
 10
765.9096359141437
 20
768.643002384266
 30
0.0
 10
765.9105782328542
 20
768.8734018588572
 30
0.0
 10
765.9114748119682
 20
769.1202979550055
 30
0.0
 10
765.9122753835629
 20
769.372026631442
 30
0.0
 10
765.9140014707912
 20
770.0000905447607
 30
0.0
 10
765.9150025896798
 20
770.7060758921382
 30
0.0
 10
765.9151499441939
 20
771.4817246666153
 30
0.0
 10
765.9149647169753
 20
771.9422102940184
 30
0.0
 10
765.9145713740329
 20
772.3777083308523
 30
0.0
 10
765.9140268096077
 20
772.7896076735136
 30
0.0
 10
765.9130185468489
 20
773.3916558318908
 30
0.0
 10
765.9112050948072
 20
774.2078079928716
 30
0.0
 10
765.9082715731683
 20
775.2523677601706
 30
0.0
 10
765.9048510884787
 20
776.3198976571533
 30
0.0
 10
765.9022193241243
 20
777.1179393562625
 30
0.0
 10
765.900560697311
 20
777.6421400626756
 30
0.0
 10
765.8997736227897
 20
777.8953401021051
 30
0.0
 10
765.8989795514719
 20
778.1567810812837
 30
0.0
 10
765.8981912406374
 20
778.4240413835486
 30
0.0
 10
765.8974495530042
 20
778.6850252710556
 30
0.0
 10
765.8967930104042
 20
778.926540593865
 30
0.0
 10
765.8962457785952
 20
779.1377546061884
 30
0.0
 10
765.8958407562594
 20
779.3019110497547
 30
0.0
 10
765.8955353673581
 20
779.4307163218102
 30
0.0
 10
765.8952950215698
 20
779.5353330831896
 30
0.0
 10
765.8950543762094
 20
779.6438109381321
 30
0.0
 10
765.8947944519534
 20
779.765728776727
 30
0.0
 10
765.8944971911144
 20
779.9125202191874
 30
0.0
 10
765.8941864529603
 20
780.077924367315
 30
0.0
 10
765.8938770515227
 20
780.2593886534128
 30
0.0
 10
765.8935842468542
 20
780.4533223307242
 30
0.0
 10
765.8933030525651
 20
780.6733724936203
 30
0.0
 10
765.8930594782785
 20
780.9202690792316
 30
0.0
 10
765.8928765333326
 20
781.191411304784
 30
0.0
 10
765.8928533552981
 20
781.3800447460899
 30
0.0
 10
765.8928413863212
 20
781.477453752696
 30
0.0
  0
SPLINE
  5
84
330
1F
100
AcDbEntity
  8
0
  6
Continuous
 62
     7
370
    30
100
AcDbSpline
210
0.0
220
0.0
230
1.0
 70
     8
 71
     3
 72
    34
 73
    30
 74
     0
 42
0.000000001
 43
0.00000001
 40
0.0
 40
0.0
 40
0.0
 40
0.0
 40
0.0348781104351684
 40
0.0695276099666176
 40
0.10395087654544
 40
0.1381492071477703
 40
0.1721230518297578
 40
0.2058722034567403
 40
0.239395951501052
 40
0.2726932068802303
 40
0.3104668784946987
 40
0.3479406280266795
 40
0.3851119103804114
 40
0.4219780843244459
 40
0.4585364964801079
 40
0.4947845484674695
 40
0.5307197500756449
 40
0.5722438065968094
 40
0.6133355080502907
 40
0.6539918261611898
 40
0.6942101358515076
 40
0.7339882218695147
 40
0.7733242700844916
 40
0.812216846428658
 40
0.8506648668754155
 40
0.8886675622675322
 40
0.9262244421849901
 40
0.9633352623227066
 40
1.0
 40
1.0
 40
1.0
 40
1.0
 10
730.1456790473264
 20
764.0258814518527
 30
0.0
 10
730.1513397671363
 20
763.8475265204439
 30
0.0
 10
730.1626241031901
 20
763.4919856969335
 30
0.0
 10
730.2170442267907
 20
762.9626637635505
 30
0.0
 10
730.297716429578
 20
762.440434775344
 30
0.0
 10
730.4063405089121
 20
761.9267456124736
 30
0.0
 10
730.5411568610394
 20
761.4229020907835
 30
0.0
 10
730.7012864453076
 20
760.9301396332369
 30
0.0
 10
730.8855851730484
 20
760.4496028950092
 30
0.0
 10
731.1027108002087
 20
759.9603607722648
 30
0.0
 10
731.3554047529959
 20
759.465594397754
 30
0.0
 10
731.6461300445105
 20
758.9690641977315
 30
0.0
 10
731.9620380028641
 20
758.493727116689
 30
0.0
 10
732.3013751257544
 20
758.0406635934326
 30
0.0
 10
732.6623808714213
 20
757.6108247874878
 30
0.0
 10
733.0432963154119
 20
757.20503723595
 30
0.0
 10
733.4642084017557
 20
756.8031515369381
 30
0.0
 10
733.9269873598632
 20
756.4105574226138
 30
0.0
 10
734.4328234670226
 20
756.033312474972
 30
0.0
 10
734.9555243689701
 20
755.6918880387293
 30
0.0
 10
735.4924198463949
 20
755.3866551747403
 30
0.0
 10
736.040899272388
 20
755.1178002669138
 30
0.0
 10
736.598414359838
 20
754.8853473864118
 30
0.0
 10
737.1624874284634
 20
754.6891390630836
 30
0.0
 10
737.7307183736964
 20
754.5289474766378
 30
0.0
 10
738.3007867111702
 20
754.4041139481645
 30
0.0
 10
738.8704696148008
 20
754.3149172938998
 30
0.0
 10
739.4375973375195
 20
754.2576038573965
 30
0.0
 10
739.8149701364699
 20
754.2475759036054
 30
0.0
 10
740.0025156473391
 20
754.2425922436225
 30
0.0
  0
SPLINE
  5
85
330
1F
100
AcDbEntity
  8
0
  6
Continuous
 62
     7
370
    30
100
AcDbSpline
210
0.0
220
0.0
230
1.0
 70
     8
 71
     3
 72
    31
 73
    27
 74
     0
 42
0.000000001
 43
0.00000001
 40
0.0
 40
0.0
 40
0.0
 40
0.0
 40
0.0628387800553199
 40
0.1210590848639019
 40
0.1749177900909243
 40
0.2245309180282856
 40
0.2699354812299632
 40
0.3111274471553947
 40
0.3405234196652251
 40
0.3672928944533509
 40
0.3914241925228286
 40
0.4129076505555866
 40
0.4320678118330439
 40
0.4527970438117531
 40
0.483069115433247
 40
0.5176853510394384
 40
0.5566257961955269
 40
0.5998800397104821
 40
0.6474577349220869
 40
0.699376287022381
 40
0.7431998121703216
 40
0.7896064494032856
 40
0.8384709236962554
 40
0.8898932500202087
 40
0.9436010174361127
 40
1.0
 40
1.0
 40
1.0
 40
1.0
 10
740.0025082419312
 20
754.2400901109202
 30
0.0
 10
740.1700216977127
 20
754.2391314701356
 30
0.0
 10
740.4927368370178
 20
754.2372846459929
 30
0.0
 10
740.959032196081
 20
754.2397756065652
 30
0.0
 10
741.3900617397062
 20
754.2421030280234
 30
0.0
 10
741.7869333688446
 20
754.2437893993348
 30
0.0
 10
742.1500413627622
 20
754.244471131651
 30
0.0
 10
742.4592548773069
 20
754.2443646460353
 30
0.0
 10
742.7187899863793
 20
754.2438536250324
 30
0.0
 10
742.93284409766
 20
754.2432015566798
 30
0.0
 10
743.1258045760745
 20
754.2424642072252
 30
0.0
 10
743.2984799785755
 20
754.241714154213
 30
0.0
 10
743.462086124463
 20
754.2409494192412
 30
0.0
 10
743.6491204618286
 20
754.2400315427053
 30
0.0
 10
743.8773568890739
 20
754.2388716227475
 30
0.0
 10
744.154140053381
 20
754.237443590834
 30
0.0
 10
744.4655305449393
 20
754.2358170409
 30
0.0
 10
744.8114732812166
 20
754.2340138349495
 30
0.0
 10
745.1920130561231
 20
754.232102731634
 30
0.0
 10
745.5740714059086
 20
754.2303599409581
 30
0.0
 10
745.9530091832416
 20
754.2288860112986
 30
0.0
 10
746.3238064785061
 20
754.2277198331486
 30
0.0
 10
746.7148614089677
 20
754.2267846136554
 30
0.0
 10
747.1253803059914
 20
754.2261670609419
 30
0.0
 10
747.555984889122
 20
754.2258532983784
 30
0.0
 10
747.8495076920216
 20
754.2257745448362
 30
0.0
 10
747.9998562169383
 20
754.2257342056229
 30
0.0
  0
SPLINE
  5
86
330
1F
100
AcDbEntity
  8
0
  6
Continuous
 62
     7
370
    30
100
AcDbSpline
210
0.0
220
0.0
230
1.0
 70
     8
 71
     3
 72
    34
 73
    30
 74
     0
 42
0.000000001
 43
0.00000001
 40
0.0
 40
0.0
 40
0.0
 40
0.0
 40
0.0350256673707304
 40
0.069818164640727
 40
0.1043768811921498
 40
0.1387010955111817
 40
0.1727899843958173
 40
0.2066426276019231
 40
0.2402580109696372
 40
0.273635030104536
 40
0.311485549043701
 40
0.3490213212500564
 40
0.386240339672263
 40
0.4231405163397049
 40
0.4597197152265662
 40
0.4959757891583993
 40
0.5319066194915292
 40
0.5734103015024489
 40
0.6144655047498825
 40
0.6550694659521507
 40
0.6952198050388245
 40
0.7349146098127115
 40
0.7741525188019315
 40
0.8129328039425932
 40
0.851255455526249
 40
0.8891212724433043
 40
0.9265319611269263
 40
0.9634902467359345
 40
1.0
 40
1.0
 40
1.0
 40
1.0
 10
755.9972072571794
 20
754.2422555500457
 30
0.0
 10
756.1763669320326
 20
754.2468741463424
 30
0.0
 10
756.5334935941308
 20
754.2560805923821
 30
0.0
 10
757.0653758323048
 20
754.3073700814671
 30
0.0
 10
757.590217239163
 20
754.3849823021309
 30
0.0
 10
758.1065432185303
 20
754.4906433909055
 30
0.0
 10
758.6130088784893
 20
754.6226163053267
 30
0.0
 10
759.1083534810195
 20
754.7800312884661
 30
0.0
 10
759.591413028603
 20
754.961745997623
 30
0.0
 10
760.0832098053589
 20
755.1762923033045
 30
0.0
 10
760.5805562967104
 20
755.4264236814598
 30
0.0
 10
761.0796875877694
 20
755.7146115459548
 30
0.0
 10
761.5575254045418
 20
756.0280897928566
 30
0.0
 10
762.0129995752172
 20
756.3650794760557
 30
0.0
 10
762.4451736659887
 20
756.7237944672133
 30
0.0
 10
762.853239118435
 20
757.1024513953071
 30
0.0
 10
763.2574766868182
 20
757.5209800930926
 30
0.0
 10
763.652529443116
 20
757.9812370445833
 30
0.0
 10
764.0323811977744
 20
758.4843998974799
 30
0.0
 10
764.376455749218
 20
759.0043735971802
 30
0.0
 10
764.6844100595567
 20
759.5384794984832
 30
0.0
 10
764.9560802481303
 20
760.0841071696201
 30
0.0
 10
765.1914575190057
 20
760.6387173893145
 30
0.0
 10
765.3907059676177
 20
761.1998502334243
 30
0.0
 10
765.55404955675
 20
761.7651325426341
 30
0.0
 10
765.6821324730901
 20
762.3322774786849
 30
0.0
 10
765.7746457428283
 20
762.8991105997076
 30
0.0
 10
765.8353078202431
 20
763.4634944930996
 30
0.0
 10
765.8475500242995
 20
763.8391886609257
 30
0.0
 10
765.8536337561693
 20
764.0258889129058
 30
0.0
  0
SPLINE
  5
87
330
1F
100
AcDbEntity
  8
0
  6
Continuous
 62
     7
370
    30
100
AcDbSpline
210
0.0
220
0.0
230
1.0
 70
     8
 71
     3
 72
    30
 73
    26
 74
     0
 42
0.000000001
 43
0.00000001
 40
0.0
 40
0.0
 40
0.0
 40
0.0
 40
0.0621257810816441
 40
0.1202046763508264
 40
0.1741447553021205
 40
0.2238854387897195
 40
0.2693853875108098
 40
0.3106153254667955
 40
0.3400006747680749
 40
0.3667289954827362
 40
0.3907943935040882
 40
0.4121925354218549
 40
0.4313005807978848
 40
0.452043745579392
 40
0.4823045714792835
 40
0.5168807089521129
 40
0.5557545135258116
 40
0.5989048848522585
 40
0.6463488723579727
 40
0.698103175104347
 40
0.7508397974705763
 40
0.8073733700476675
 40
0.8676836009436095
 40
0.9318160135778617
 40
1.0
 40
1.0
 40
1.0
 40
1.0
 10
747.9998709571208
 20
754.2257341614563
 30
0.0
 10
748.1654859330108
 20
754.2257889469707
 30
0.0
 10
748.4859276921178
 20
754.2258949492602
 30
0.0
 10
748.9501628902153
 20
754.2263407393295
 30
0.0
 10
749.3813815232934
 20
754.2270699690843
 30
0.0
 10
749.7790665635781
 20
754.2280593066424
 30
0.0
 10
750.1428681562537
 20
754.2292377903741
 30
0.0
 10
750.4524059590127
 20
754.2304442957228
 30
0.0
 10
750.7119021457411
 20
754.231581117583
 30
0.0
 10
750.9256411798257
 20
754.2325899434971
 30
0.0
 10
751.1180879067706
 20
754.2335483731397
 30
0.0
 10
751.2902205967519
 20
754.2344381015247
 30
0.0
 10
751.4534969286349
 20
754.2353024282257
 30
0.0
 10
751.640398919748
 20
754.2363093903235
 30
0.0
 10
751.8685349430651
 20
754.2375520940136
 30
0.0
 10
752.1450027593108
 20
754.2390448118372
 30
0.0
 10
752.4558311919693
 20
754.2406490256815
 30
0.0
 10
752.8009629902396
 20
754.2422513640682
 30
0.0
 10
753.180432864221
 20
754.2436596778539
 30
0.0
 10
753.585460362942
 20
754.2444845548351
 30
0.0
 10
754.0147204048556
 20
754.2443267001129
 30
0.0
 10
754.4667862503653
 20
754.2428591224196
 30
0.0
 10
754.9492218327249
 20
754.2403629907997
 30
0.0
 10
755.462720555735
 20
754.2372461513748
 30
0.0
 10
755.8154472984068
 20
754.2391229501364
 30
0.0
 10
755.9972109770179
 20
754.2400900836299
 30
0.0
  0
LINE
  5
88
330
1F
100
AcDbEntity
  8
0
  6
Continuous
 62
     7
370
    30
100
AcDbLine
 10
761.249859624
 20
1001.2277057693
 30
0.0
 11
761.249859624
 21
1013.7176097643
 31
0.0
  0
LINE
  5
89
330
1F
100
AcDbEntity
  8
0
  6
Continuous
 62
     7
370
    30
100
AcDbLine
 10
734.749859624
 20
1013.7176097643
 30
0.0
 11
734.749859624
 21
1001.2277057693
 31
0.0
  0
LINE
  5
8A
330
1F
100
AcDbEntity
  8
0
  6
Continuous
 62
     7
370
    30
100
AcDbLine
 10
736.749859624
 20
1027.3286880955
 30
0.0
 11
736.749859624
 21
1013.7176097643
 31
0.0
  0
LINE
  5
8B
330
1F
100
AcDbEntity
  8
0
  6
Continuous
 62
     7
370
    30
100
AcDbLine
 10
759.249859624
 20
1013.7176097643
 30
0.0
 11
759.249859624
 21
1027.3286880955
 31
0.0
  0
ARC
  5
8C
330
1F
100
AcDbEntity
  8
0
  6
Continuous
 62
     7
370
    30
100
AcDbCircle
 10
738.749859624
 20
1027.3286880955
 30
0.0
 40
2.000000000000014
100
AcDbArc
 50
101.1108818001
 51
180.0
  0
ARC
  5
8D
330
1F
100
AcDbEntity
  8
0
  6
Continuous
 62
     7
370
    30
100
AcDbCircle
 10
757.249859624
 20
1027.3286880955
 30
0.0
 40
2.000000000000014
100
AcDbArc
 50
0.0
 51
78.8891181999
  0
ARC
  5
8E
330
1F
100
AcDbEntity
  8
0
  6
Continuous
 62
     7
370
    30
100
AcDbCircle
 10
747.999859624
 20
980.2283961643
 30
0.0
 40
50.0
100
AcDbArc
 50
78.8891182
 51
90.0
  0
ARC
  5
8F
330
1F
100
AcDbEntity
  8
0
  6
Continuous
 62
     7
370
    30
100
AcDbCircle
 10
747.999859624
 20
980.2283961643
 30
0.0
 40
50.0
100
AcDbArc
 50
90.0
 51
101.1108818
  0
LINE
  5
90
330
1F
100
AcDbEntity
  8
0
  6
Continuous
 62
     7
370
    30
100
AcDbLine
 10
644.999859624
 20
967.6676097643
 30
0.0
 11
727.6897636081
 21
967.6676097643
 31
0.0
  0
LINE
  5
91
330
1F
100
AcDbEntity
  8
0
  6
Continuous
 62
     7
370
    30
100
AcDbLine
 10
727.6897636167
 20
994.1676097643
 30
0.0
 11
644.999859624
 21
994.1676097643
 31
0.0
  0
ARC
  5
92
330
1F
100
AcDbEntity
  8
0
  6
Continuous
 62
     7
370
    30
100
AcDbCircle
 10
644.999859624
 20
993.1676097643
 30
0.0
 40
1.0
100
AcDbArc
 50
90.0
 51
180.0
  0
ARC
  5
93
330
1F
100
AcDbEntity
  8
0
  6
Continuous
 62
     7
370
    30
100
AcDbCircle
 10
644.999859624
 20
968.6676097643
 30
0.0
 40
1.000000000000114
100
AcDbArc
 50
180.0
 51
270.0
  0
LINE
  5
94
330
1F
100
AcDbEntity
  8
0
  6
Continuous
 62
     7
370
    30
100
AcDbLine
 10
650.399859624
 20
969.3176097643
 30
0.0
 11
650.399859624
 21
969.7469190712
 31
0.0
  0
LINE
  5
95
330
1F
100
AcDbEntity
  8
0
  6
Continuous
 62
     7
370
    30
100
AcDbLine
 10
647.899859624
 20
971.4033369615
 30
0.0
 11
647.899859624
 21
969.3176097643
 31
0.0
  0
LINE
  5
96
330
1F
100
AcDbEntity
  8
0
  6
Continuous
 62
     7
370
    30
100
AcDbLine
 10
664.099859624
 20
969.3176097643
 30
0.0
 11
664.099859624
 21
971.4032149851
 31
0.0
  0
LINE
  5
97
330
1F
100
AcDbEntity
  8
0
  6
Continuous
 62
     7
370
    30
100
AcDbLine
 10
661.599859624
 20
969.7468878986
 30
0.0
 11
661.599859624
 21
969.3176097643
 31
0.0
  0
LINE
  5
98
330
1F
100
AcDbEntity
  8
0
  6
Continuous
 62
     7
370
    30
100
AcDbLine
 10
659.599859624
 20
967.8176097643
 30
0.0
 11
659.599859624
 21
968.9472675835
 31
0.0
  0
LINE
  5
99
330
1F
100
AcDbEntity
  8
0
  6
Continuous
 62
     7
370
    30
100
AcDbLine
 10
657.099859624
 20
968.4708891248
 30
0.0
 11
657.099859624
 21
967.8176097643
 31
0.0
  0
LINE
  5
9A
330
1F
100
AcDbEntity
  8
0
  6
Continuous
 62
     7
370
    30
100
AcDbLine
 10
654.899859624
 20
967.8176097643
 30
0.0
 11
654.899859624
 21
968.4708814117
 31
0.0
  0
LINE
  5
9B
330
1F
100
AcDbEntity
  8
0
  6
Continuous
 62
     7
370
    30
100
AcDbLine
 10
652.399859624
 20
968.9508421907
 30
0.0
 11
652.399859624
 21
967.8176097643
 31
0.0
  0
ARC
  5
9C
330
1F
100
AcDbEntity
  8
0
  6
Continuous
 62
     7
370
    30
100
AcDbCircle
 10
851.999859624
 20
993.1676097643
 30
0.0
 40
1.0
100
AcDbArc
 50
0.0
 51
90.0
  0
ARC
  5
9D
330
1F
100
AcDbEntity
  8
0
  6
Continuous
 62
     7
370
    30
100
AcDbCircle
 10
851.999859624
 20
968.6676097643
 30
0.0
 40
1.0
100
AcDbArc
 50
270.0
 51
360.0
  0
LINE
  5
9E
330
1F
100
AcDbEntity
  8
0
  6
Continuous
 62
     7
370
    30
100
AcDbLine
 10
851.999859624
 20
994.1676097643
 30
0.0
 11
768.3099556313
 21
994.1676097643
 31
0.0
  0
LINE
  5
9F
330
1F
100
AcDbEntity
  8
0
  6
Continuous
 62
     7
370
    30
100
AcDbLine
 10
768.3099556398
 20
967.6676097643
 30
0.0
 11
851.999859624
 21
967.6676097643
 31
0.0
  0
SPLINE
  5
A0
330
1F
100
AcDbEntity
  8
0
  6
Continuous
 62
     7
370
    30
100
AcDbSpline
210
0.0
220
0.0
230
1.0
 70
     8
 71
     3
 72
   207
 73
   203
 74
     0
 42
0.000000001
 43
0.00000001
 40
0.0
 40
0.0
 40
0.0
 40
0.0
 40
0.0049088650872052
 40
0.0098140995062487
 40
0.0147168627789578
 40
0.0196183161809346
 40
0.0245196219188315
 40
0.0294219423043226
 40
0.0343245151447748
 40
0.0392242776157208
 40
0.044355617176176
 40
0.049486493081639
 40
0.0546182427374075
 40
0.059752202865939
 40
0.0648881515293899
 40
0.0700213017148525
 40
0.0751526469199982
 40
0.0802835224679507
 40
0.0854152640484606
 40
0.0905492066753355
 40
0.0956859831005969
 40
0.1008206541586677
 40
0.105659845769803
 40
0.1104981646232943
 40
0.1153367304227519
 40
0.1201766627003951
 40
0.1250190800406837
 40
0.1299213797880696
 40
0.1348211484525343
 40
0.1397195480647463
 40
0.1446177416297418
 40
0.1495168922992972
 40
0.1544181625437795
 40
0.1593207691798224
 40
0.1642207582588266
 40
0.1693523307668682
 40
0.1744834348142967
 40
0.1796154075564023
 40
0.1847495854697423
 40
0.1898858709191652
 40
0.1950194234447812
 40
0.2001510639719037
 40
0.2052821284516598
 40
0.2104139532850585
 40
0.2155478742793302
 40
0.220684277481291
 40
0.2258182402306361
 40
0.230656914722718
 40
0.2354948628870996
 40
0.2403332044704947
 40
0.2451730589465536
 40
0.2500155447396865
 40
0.2549174940322417
 40
0.2598169875618995
 40
0.2647151862186862
 40
0.2696132518133207
 40
0.2745123462511886
 40
0.2794136307059785
 40
0.2843165466369625
 40
0.2892169023120399
 40
0.2943487355799051
 40
0.2994799734372206
 40
0.3046119523389407
 40
0.3097460081613121
 40
0.3148823699159248
 40
0.3200162747468802
 40
0.3251481697233537
 40
0.3302793911913837
 40
0.3354112760231544
 40
0.3405451605726273
 40
0.34568151571442
 40
0.3508155417946832
 40
0.3556542765771455
 40
0.3604922863196044
 40
0.3653306914836925
 40
0.370170612256417
 40
0.3750131677730066
 40
0.3799149704584616
 40
0.3848143719772166
 40
0.389712533691718
 40
0.394610617846305
 40
0.3995097867405163
 40
0.4044112019022001
 40
0.4093140732439366
 40
0.41421429748586
 40
0.4193460499704046
 40
0.4244772651613867
 40
0.4296092793523325
 40
0.434743428212888
 40
0.4398798637764255
 40
0.4450137599476565
 40
0.4501456346357069
 40
0.4552768237510434
 40
0.4604086637395329
 40
0.465542490538734
 40
0.4706788527167592
 40
0.4758129687621756
 40
0.4806517297310392
 40
0.4854897086860975
 40
0.49032802606927
 40
0.4951678020874311
 40
0.5000101559351542
 40
0.5049119425529635
 40
0.5098113169294904
 40
0.5147094407694538
 40
0.5196074766673693
 40
0.5245065872803614
 40
0.5294079345007489
 40
0.534310685649473
 40
0.5392108022882921
 40
0.5443424956538403
 40
0.5494737068213899
 40
0.5546057722853982
 40
0.5597400278731787
 40
0.5648764845159425
 40
0.5700102998799453
 40
0.575142159540532
 40
0.5802733991008141
 40
0.5854053546480508
 40
0.5905393617105102
 40
0.5956758806416145
 40
0.6008100393098091
 40
0.6056488574130172
 40
0.6104869093101295
 40
0.6153253148002273
 40
0.6201651934369604
 40
0.6250076637522276
 40
0.6299096716870985
 40
0.6348091991471938
 40
0.6397074072853635
 40
0.6446054581927503
 40
0.6495045140723855
 40
0.654405736412388
 40
0.6593085768764071
 40
0.6642088576254074
 40
0.6693406112904866
 40
0.67447176881404
 40
0.6796036670599822
 40
0.6847376423135851
 40
0.6898738896083484
 40
0.6950076556144605
 40
0.7001394334458585
 40
0.705270559758163
 40
0.7104023717160879
 40
0.7155362059485949
 40
0.72067248268238
 40
0.7258063761061484
 40
0.7306450178822526
 40
0.7354829658054877
 40
0.7403213403753335
 40
0.7451612617949486
 40
0.7500038491940243
 40
0.7549055709507015
 40
0.759804921636081
 40
0.7647030624311877
 40
0.7696011553775252
 40
0.7745003625506451
 40
0.7794018452335946
 40
0.7843047493062107
 40
0.7892049852159605
 40
0.7943367656596357
 40
0.7994680244762642
 40
0.804600097506972
 40
0.8097343199573493
 40
0.8148708418225187
 40
0.8200048176451721
 40
0.8251367598141159
 40
0.8302680037671756
 40
0.835399885487254
 40
0.8405337404593556
 40
0.8456701735383761
 40
0.8508044190530724
 40
0.8556432589820514
 40
0.8604812748480039
 40
0.8653195869190452
 40
0.8701593152576006
 40
0.875001578943306
 40
0.879903542984749
 40
0.8848030235300948
 40
0.8897011825278126
 40
0.8945991828669013
 40
0.8994981875493429
 40
0.9043993588621559
 40
0.9093020361511861
 40
0.914202159287363
 40
0.9193338461290652
 40
0.924465038011163
 40
0.9295970723273692
 40
0.9347312858130683
 40
0.9398674850562836
 40
0.9450009439523954
 40
0.950132643900746
 40
0.9552639208300177
 40
0.9603961109992324
 40
0.9655305499543897
 40
0.9706670038760041
 40
0.9758003087236827
 40
0.9806387393025746
 40
0.9854768067056959
 40
0.9903156282853243
 40
0.9951563208714892
 40
1.0
 40
1.0
 40
1.0
 40
1.0
 10
877.0376596688616
 20
906.4176355389553
 30
0.0
 10
877.4176256132738
 20
907.0826951558248
 30
0.0
 10
878.1772764737477
 20
908.4123225017789
 30
0.0
 10
879.277422607684
 20
910.4280681979374
 30
0.0
 10
880.3480909026198
 20
912.4582414896325
 30
0.0
 10
881.3865067485738
 20
914.5044434773495
 30
0.0
 10
882.3934137640141
 20
916.5662446299707
 30
0.0
 10
883.3684817037141
 20
918.6434891920923
 30
0.0
 10
884.3113974914405
 20
920.7352594249518
 30
0.0
 10
885.2361934254844
 20
922.8740927707443
 30
0.0
 10
886.1407642074056
 20
925.0601734781767
 30
0.0
 10
887.0232186802756
 20
927.2942409208554
 30
0.0
 10
887.869634643552
 20
929.5426468223505
 30
0.0
 10
888.6799252563137
 20
931.805163213385
 30
0.0
 10
889.4537354488444
 20
934.0806452514737
 30
0.0
 10
890.1906700229562
 20
936.3679073125055
 30
0.0
 10
890.8903844309506
 20
938.666001596442
 30
0.0
 10
891.5528664611825
 20
940.9748755944321
 30
0.0
 10
892.1781160482675
 20
943.2945289230959
 30
0.0
 10
892.7661018449899
 20
945.6248562572742
 30
0.0
 10
893.3165986553863
 20
947.9647922790596
 30
0.0
 10
893.819547297112
 20
950.2683544393327
 30
0.0
 10
894.2771244339635
 20
952.5338515758764
 30
0.0
 10
894.6917297119369
 20
954.7606256119576
 30
0.0
 10
895.0724280017535
 20
956.9935633511641
 30
0.0
 10
895.4192187850427
 20
959.2326649956523
 30
0.0
 10
895.7333174445843
 20
961.4866269621724
 30
0.0
 10
896.014107816348
 20
963.7543911677781
 30
0.0
 10
896.2608911774606
 20
966.0348941779146
 30
0.0
 10
896.4724521859187
 20
968.3182906829318
 30
0.0
 10
896.6487895088593
 20
970.6045803655901
 30
0.0
 10
896.7899045858923
 20
972.8937628214505
 30
0.0
 10
896.8957788450889
 20
975.1855346289937
 30
0.0
 10
896.9664115672954
 20
977.4787941954829
 30
0.0
 10
897.0023061793922
 20
979.8087996652336
 30
0.0
 10
897.0014366244066
 20
982.174746443149
 30
0.0
 10
896.9617734402493
 20
984.5765630039036
 30
0.0
 10
896.8833307353516
 20
986.9778329457159
 30
0.0
 10
896.7661143246748
 20
989.3783317909149
 30
0.0
 10
896.610233643528
 20
991.7768771197453
 30
0.0
 10
896.4157677646887
 20
994.1722057633931
 30
0.0
 10
896.1827621668484
 20
996.5632747427566
 30
0.0
 10
895.9112277685151
 20
998.9500039528024
 30
0.0
 10
895.6011646433117
 20
1001.332393007011
 30
0.0
 10
895.2525898605719
 20
1003.710294399429
 30
0.0
 10
894.8657105709897
 20
1006.08260224851
 30
0.0
 10
894.4488293258753
 20
1008.403031069338
 30
0.0
 10
894.004597012366
 20
1010.670928922307
 30
0.0
 10
893.5354689924447
 20
1012.886680054361
 30
0.0
 10
893.0326428548559
 20
1015.095216329514
 30
0.0
 10
892.4961182694599
 20
1017.296537796434
 30
0.0
 10
891.9237112085851
 20
1019.499058407058
 30
0.0
 10
891.315268207394
 20
1021.701556349217
 30
0.0
 10
890.6705608941625
 20
1023.90277338389
 30
0.0
 10
889.9922128167515
 20
1026.09322284909
 30
0.0
 10
889.2802230961446
 20
1028.272904005396
 30
0.0
 10
888.5345931807644
 20
1030.441817025372
 30
0.0
 10
887.7554099648872
 20
1032.599707603378
 30
0.0
 10
886.9430934687456
 20
1034.74555569965
 30
0.0
 10
886.0846194554166
 20
1036.912100679532
 30
0.0
 10
885.1784467480609
 20
1039.097762509779
 30
0.0
 10
884.2227385924288
 20
1041.301672221518
 30
0.0
 10
883.2314439165904
 20
1043.490187389029
 30
0.0
 10
882.2046321382801
 20
1045.663148976116
 30
0.0
 10
881.1428263888358
 20
1047.819561948861
 30
0.0
 10
880.0465739543686
 20
1049.958290375038
 30
0.0
 10
878.9163336173876
 20
1052.078345088018
 30
0.0
 10
877.7521727045428
 20
1054.179604281517
 30
0.0
 10
876.5540914301622
 20
1056.262067622764
 30
0.0
 10
875.3221553140567
 20
1058.325616671383
 30
0.0
 10
874.0569611363729
 20
1060.369335881877
 30
0.0
 10
872.783881837544
 20
1062.353650596879
 30
0.0
 10
871.5056152174058
 20
1064.278974280794
 30
0.0
 10
870.2242927519947
 20
1066.146587261211
 30
0.0
 10
868.9145881500915
 20
1067.994633808071
 30
0.0
 10
867.5765011003396
 20
1069.823113848998
 30
0.0
 10
866.2048146835915
 20
1071.638937626298
 30
0.0
 10
864.7998514696143
 20
1073.440924916949
 30
0.0
 10
863.3618791514623
 20
1075.22783355974
 30
0.0
 10
861.8969259243268
 20
1076.991936214463
 30
0.0
 10
860.4049912749192
 20
1078.73323187378
 30
0.0
 10
858.886076472992
 20
1080.451721248792
 30
0.0
 10
857.3403834915106
 20
1082.147175911034
 30
0.0
 10
855.7687075389697
 20
1083.81879920252
 30
0.0
 10
854.1464900504627
 20
1085.491855813071
 30
0.0
 10
852.4728876670596
 20
1087.164323512956
 30
0.0
 10
850.7465203471482
 20
1088.834712933552
 30
0.0
 10
848.9931490459762
 20
1090.477281651929
 30
0.0
 10
847.2129076166938
 20
1092.091901250223
 30
0.0
 10
845.4066770276468
 20
1093.677838806571
 30
0.0
 10
843.5754069391262
 20
1095.234248784049
 30
0.0
 10
841.7198990298748
 20
1096.760394086509
 30
0.0
 10
839.840253673114
 20
1098.256195183909
 30
0.0
 10
837.9364711947793
 20
1099.721651855591
 30
0.0
 10
836.0086476383443
 20
1101.156686971262
 30
0.0
 10
834.0576722182719
 20
1102.56069151319
 30
0.0
 10
832.1221354079408
 20
1103.906805784772
 30
0.0
 10
830.2043859182103
 20
1105.196431806793
 30
0.0
 10
828.3059209373057
 20
1106.431555654663
 30
0.0
 10
826.3887442587604
 20
1107.637727138233
 30
0.0
 10
824.452855606484
 20
1108.814946043704
 30
0.0
 10
822.4907582364663
 20
1109.967619521791
 30
0.0
 10
820.5031943483477
 20
1111.09478194441
 30
0.0
 10
818.49087943891
 20
1112.195389811406
 30
0.0
 10
816.4623667162429
 20
1113.264595749088
 30
0.0
 10
814.4176560763572
 20
1114.302398602737
 30
0.0
 10
812.356748421108
 20
1115.308799514187
 30
0.0
 10
810.2799238464132
 20
1116.28366191741
 30
0.0
 10
808.1882189420995
 20
1117.226555702168
 30
0.0
 10
806.0492684831127
 20
1118.151428870639
 30
0.0
 10
803.8630520774394
 20
1119.056097314757
 30
0.0
 10
801.6288586321608
 20
1119.938659361648
 30
0.0
 10
799.3803385746006
 20
1120.785191090227
 30
0.0
 10
797.117685465395
 20
1121.595617678623
 30
0.0
 10
794.8420173479948
 20
1122.369592307295
 30
0.0
 10
792.5545346873556
 20
1123.106700896533
 30
0.0
 10
790.2562382339937
 20
1123.806578281392
 30
0.0
 10
787.9472262195372
 20
1124.469197440049
 30
0.0
 10
785.6274990287499
 20
1125.094558292125
 30
0.0
 10
783.2971881883639
 20
1125.68262298909
 30
0.0
 10
780.9573754829886
 20
1126.233163533298
 30
0.0
 10
778.6540005298774
 20
1126.736133365063
 30
0.0
 10
776.3886905230266
 20
1127.193728465021
 30
0.0
 10
774.1620485326187
 20
1127.608360387477
 30
0.0
 10
771.929192941742
 20
1127.989094039887
 30
0.0
 10
769.6901235783251
 20
1128.335929131027
 30
0.0
 10
767.4362136730321
 20
1128.650070634104
 30
0.0
 10
765.1685308730866
 20
1128.930908397976
 30
0.0
 10
762.8881478604361
 20
1129.177749258739
 30
0.0
 10
760.6048484442709
 20
1129.389384334082
 30
0.0
 10
758.3186329711453
 20
1129.565812525081
 30
0.0
 10
756.0295018361302
 20
1129.70703523334
 30
0.0
 10
753.7377217009309
 20
1129.813035493423
 30
0.0
 10
751.4443920372075
 20
1129.883810947993
 30
0.0
 10
749.1142786906994
 20
1129.9198587455
 30
0.0
 10
746.748249771263
 20
1129.919150131139
 30
0.0
 10
744.3464054687532
 20
1129.879655312472
 30
0.0
 10
741.9451648045316
 20
1129.801385953435
 30
0.0
 10
739.5447066325075
 20
1129.684345597284
 30
0.0
 10
737.1461543613648
 20
1129.528637259624
 30
0.0
 10
734.7507636607097
 20
1129.334332387472
 30
0.0
 10
732.3596153894579
 20
1129.101476168099
 30
0.0
 10
729.9728407375023
 20
1128.830083601331
 30
0.0
 10
727.5904400947886
 20
1128.520154758116
 30
0.0
 10
725.2125558167182
 20
1128.171706007006
 30
0.0
 10
722.8402739803845
 20
1127.78494067219
 30
0.0
 10
720.5198639053137
 20
1127.36815631219
 30
0.0
 10
718.2519667800456
 20
1126.924002998852
 30
0.0
 10
716.0362023271507
 20
1126.454937591787
 30
0.0
 10
713.8276391388935
 20
1125.952159342275
 30
0.0
 10
711.6262771618516
 20
1125.415667939913
 30
0.0
 10
709.4237574789181
 20
1124.843293691883
 30
0.0
 10
707.22129374628
 20
1124.234884240306
 30
0.0
 10
705.0201358009078
 20
1123.590212821836
 30
0.0
 10
702.8297081672654
 20
1122.911885622156
 30
0.0
 10
700.6500115779247
 20
1122.19990178634
 30
0.0
 10
698.4810458613309
 20
1121.454262760683
 30
0.0
 10
696.3231087115051
 20
1120.675071096882
 30
0.0
 10
694.1772475303571
 20
1119.86275986559
 30
0.0
 10
692.0107238308296
 20
1119.004310364463
 30
0.0
 10
689.8250754056066
 20
1118.098167210833
 30
0.0
 10
687.6211445143948
 20
1117.142483598005
 30
0.0
 10
685.4325726467898
 20
1116.151207693464
 30
0.0
 10
683.2595298951992
 20
1115.124414108849
 30
0.0
 10
681.1030333786592
 20
1114.062637698523
 30
0.0
 10
678.9642312287148
 20
1112.966434063423
 30
0.0
 10
676.8441146305481
 20
1111.836263305131
 30
0.0
 10
674.742796166255
 20
1110.672188090503
 30
0.0
 10
672.6602761644104
 20
1109.474208634623
 30
0.0
 10
670.5966550465567
 20
1108.242379601707
 30
0.0
 10
668.552826337301
 20
1106.977283030657
 30
0.0
 10
666.5683797903614
 20
1105.704292973675
 30
0.0
 10
664.6429308787824
 20
1104.426121727193
 30
0.0
 10
662.7752310200716
 20
1103.144920915177
 30
0.0
 10
660.9271322976155
 20
1101.8353653574
 30
0.0
 10
659.0986348063988
 20
1100.497454712066
 30
0.0
 10
657.2827590652452
 20
1099.125920676802
 30
0.0
 10
655.4806863855183
 20
1097.721079981185
 30
0.0
 10
653.6936600804513
 20
1096.283194661448
 30
0.0
 10
651.929473756673
 20
1094.818343949452
 30
0.0
 10
650.1881284447188
 20
1093.326527303389
 30
0.0
 10
648.4696234404959
 20
1091.807745986987
 30
0.0
 10
646.7741723054542
 20
1090.262188492183
 30
0.0
 10
645.1025532040422
 20
1088.690630751428
 30
0.0
 10
643.4294894664262
 20
1087.068501370673
 30
0.0
 10
641.7570051977527
 20
1085.394957346496
 30
0.0
 10
640.0865963108448
 20
1083.668623685292
 30
0.0
 10
638.444005173118
 20
1081.915260137448
 30
0.0
 10
636.8293964563492
 20
1080.135040659177
 30
0.0
 10
635.2435265479045
 20
1078.328877042848
 30
0.0
 10
633.6872142357521
 20
1076.497697633351
 30
0.0
 10
632.1611351804933
 20
1074.642241142163
 30
0.0
 10
630.6653221161266
 20
1072.762552820446
 30
0.0
 10
629.1997755737838
 20
1070.8586328185
 30
0.0
 10
627.7646442422873
 20
1068.930675794911
 30
0.0
 10
626.3606424409999
 20
1066.979719530463
 30
0.0
 10
625.0145780700167
 20
1065.044346724741
 30
0.0
 10
623.7250083471866
 20
1063.126760772819
 30
0.0
 10
622.4896364694014
 20
1061.228399819011
 30
0.0
 10
621.2836410483868
 20
1059.310857733435
 30
0.0
 10
620.1043175776322
 20
1057.375696315529
 30
0.0
 10
619.3429103562802
 20
1056.070456637997
 30
0.0
 10
618.9620893412452
 20
1055.417635539218
 30
0.0
  0
SPLINE
  5
A1
330
1F
100
AcDbEntity
  8
0
  6
Continuous
 62
     7
370
    30
100
AcDbSpline
210
0.0
220
0.0
230
1.0
 70
     8
 71
     3
 72
   207
 73
   203
 74
     0
 42
0.000000001
 43
0.00000001
 40
0.0
 40
0.0
 40
0.0
 40
0.0
 40
0.0049000020967824
 40
0.0098000041935647
 40
0.0147000062903471
 40
0.0196000083871294
 40
0.0245000104839118
 40
0.0294000125806942
 40
0.0343000146774765
 40
0.0392000167742586
 40
0.0443333473621183
 40
0.049466677949978
 40
0.0546000085378377
 40
0.0597333391256974
 40
0.064866669713557
 40
0.0700000003014168
 40
0.0751333308892765
 40
0.0802666614771362
 40
0.0853999920649959
 40
0.0905333226528555
 40
0.0956666532407152
 40
0.100799983828575
 40
0.10563998706286
 40
0.1104799902971449
 40
0.1153199935314299
 40
0.1201599967657148
 40
0.1249999999999999
 40
0.1299000020967823
 40
0.1348000041935647
 40
0.139700006290347
 40
0.1446000083871294
 40
0.1495000104839118
 40
0.1544000125806941
 40
0.1593000146774765
 40
0.1642000167742587
 40
0.1693333473621184
 40
0.174466677949978
 40
0.1796000085378377
 40
0.1847333391256974
 40
0.1898666697135571
 40
0.1950000003014168
 40
0.2001333308892765
 40
0.2052666614771362
 40
0.2103999920649958
 40
0.2155333226528556
 40
0.2206666532407152
 40
0.225799983828575
 40
0.23063998706286
 40
0.2354799902971449
 40
0.2403199935314298
 40
0.2451599967657148
 40
0.25
 40
0.2549000020967823
 40
0.2598000041935646
 40
0.2647000062903471
 40
0.2696000083871294
 40
0.2745000104839117
 40
0.2794000125806941
 40
0.2843000146774765
 40
0.2892000167742587
 40
0.2943333473621184
 40
0.2994666779499781
 40
0.3046000085378377
 40
0.3097333391256974
 40
0.314866669713557
 40
0.3200000003014168
 40
0.3251333308892766
 40
0.3302666614771363
 40
0.3353999920649959
 40
0.3405333226528556
 40
0.3456666532407153
 40
0.3507999838285751
 40
0.35563998706286
 40
0.360479990297145
 40
0.36531999353143
 40
0.3701599967657149
 40
0.3750000000000001
 40
0.3799000020967824
 40
0.3848000041935649
 40
0.3897000062903473
 40
0.3946000083871296
 40
0.3995000104839119
 40
0.4044000125806944
 40
0.4093000146774766
 40
0.4142000167742589
 40
0.4193333473621185
 40
0.4244666779499782
 40
0.4296000085378379
 40
0.4347333391256975
 40
0.4398666697135572
 40
0.445000000301417
 40
0.4501333308892767
 40
0.4552666614771363
 40
0.460399992064996
 40
0.4655333226528556
 40
0.4706666532407153
 40
0.4757999838285751
 40
0.4806399870628601
 40
0.485479990297145
 40
0.49031999353143
 40
0.4951599967657149
 40
0.5
 40
0.5049000020967823
 40
0.5098000041935647
 40
0.5147000062903471
 40
0.5196000083871295
 40
0.5245000104839118
 40
0.5294000125806941
 40
0.5343000146774765
 40
0.5392000167742586
 40
0.5443333473621182
 40
0.5494666779499779
 40
0.5546000085378378
 40
0.5597333391256973
 40
0.564866669713557
 40
0.5700000003014167
 40
0.5751333308892763
 40
0.5802666614771361
 40
0.5853999920649958
 40
0.5905333226528554
 40
0.5956666532407151
 40
0.6007999838285749
 40
0.6056399870628599
 40
0.6104799902971448
 40
0.61531999353143
 40
0.620159996765715
 40
0.625
 40
0.6299000020967823
 40
0.6348000041935647
 40
0.6397000062903471
 40
0.6446000083871295
 40
0.6495000104839118
 40
0.6544000125806942
 40
0.6593000146774766
 40
0.6642000167742588
 40
0.6693333473621185
 40
0.674466677949978
 40
0.679600008537838
 40
0.6847333391256974
 40
0.6898666697135574
 40
0.6950000003014168
 40
0.7001333308892767
 40
0.7052666614771363
 40
0.7103999920649959
 40
0.7155333226528557
 40
0.7206666532407153
 40
0.7257999838285751
 40
0.73063998706286
 40
0.7354799902971451
 40
0.7403199935314303
 40
0.7451599967657152
 40
0.7500000000000002
 40
0.7549000020967825
 40
0.7598000041935647
 40
0.7647000062903472
 40
0.7696000083871297
 40
0.7745000104839119
 40
0.7794000125806944
 40
0.7843000146774766
 40
0.7892000167742588
 40
0.7943333473621185
 40
0.7994666779499783
 40
0.8046000085378379
 40
0.8097333391256977
 40
0.8148666697135573
 40
0.8200000003014171
 40
0.8251333308892765
 40
0.8302666614771363
 40
0.8353999920649959
 40
0.8405333226528557
 40
0.8456666532407153
 40
0.8507999838285751
 40
0.8556399870628599
 40
0.8604799902971452
 40
0.8653199935314303
 40
0.8701599967657152
 40
0.8750000000000003
 40
0.8799000020967827
 40
0.8848000041935651
 40
0.8897000062903473
 40
0.8946000083871296
 40
0.8995000104839118
 40
0.9044000125806942
 40
0.9093000146774766
 40
0.9142000167742589
 40
0.9193333473621185
 40
0.9244666779499782
 40
0.9296000085378379
 40
0.9347333391256976
 40
0.9398666697135573
 40
0.945000000301417
 40
0.9501333308892767
 40
0.9552666614771363
 40
0.960399992064996
 40
0.9655333226528559
 40
0.9706666532407154
 40
0.9757999838285752
 40
0.9806399870628602
 40
0.9854799902971451
 40
0.99031999353143
 40
0.995159996765715
 40
1.0
 40
1.0
 40
1.0
 40
1.0
 10
877.9036701916248
 20
905.9176097642729
 30
0.0
 10
878.2855531180609
 20
906.585891242115
 30
0.0
 10
879.0493189709331
 20
907.9224541977993
 30
0.0
 10
880.155665506289
 20
909.9493579770892
 30
0.0
 10
881.2329058956018
 20
911.9918027190004
 30
0.0
 10
882.2779825858025
 20
914.0509223292521
 30
0.0
 10
883.2913988092663
 20
916.1257953777591
 30
0.0
 10
884.272713193721
 20
918.2160462677227
 30
0.0
 10
885.221747238323
 20
920.3211488776232
 30
0.0
 10
886.1528086724453
 20
922.4742530748466
 30
0.0
 10
887.06384280952
 20
924.6756392863127
 30
0.0
 10
887.9527255970647
 20
926.9255182234681
 30
0.0
 10
888.8052111092504
 20
929.189439086245
 30
0.0
 10
889.621077408249
 20
931.4668128008351
 30
0.0
 10
890.4001123744456
 20
933.7570471714997
 30
0.0
 10
891.1421133881138
 20
936.0595465576434
 30
0.0
 10
891.8468874815044
 20
938.373712152946
 30
0.0
 10
892.5142513649505
 20
940.6989421211324
 30
0.0
 10
893.1440314714591
 20
943.0346317081174
 30
0.0
 10
893.7360640382375
 20
945.3801735967388
 30
0.0
 10
894.2901950068118
 20
947.7349573192595
 30
0.0
 10
894.7964505900145
 20
950.0533556677656
 30
0.0
 10
895.2571991138119
 20
952.3342222523332
 30
0.0
 10
895.6747789219299
 20
954.5765336956865
 30
0.0
 10
896.0582166629362
 20
956.8249347746357
 30
0.0
 10
896.4074237908109
 20
959.0789061603881
 30
0.0
 10
896.7236207050149
 20
961.3472609242095
 30
0.0
 10
897.0062357025921
 20
963.6295437197925
 30
0.0
 10
897.254699672386
 20
965.9252763512633
 30
0.0
 10
897.4677955506855
 20
968.2245617043773
 30
0.0
 10
897.6454728282446
 20
970.5268548358423
 30
0.0
 10
897.7876894051094
 20
972.8316102319338
 30
0.0
 10
897.8944115810499
 20
975.1382816493586
 30
0.0
 10
897.965614063227
 20
977.4463228328875
 30
0.0
 10
898.001846106882
 20
979.7918334192393
 30
0.0
 10
898.0010976592578
 20
982.1742867812538
 30
0.0
 10
897.9613269362378
 20
984.593064590543
 30
0.0
 10
897.882555831108
 20
987.010886822738
 30
0.0
 10
897.7648048202229
 20
989.4271243006416
 30
0.0
 10
897.6081045296231
 20
991.8411487352931
 30
0.0
 10
897.4124957114395
 20
994.2523322864614
 30
0.0
 10
897.1780292382177
 20
996.6600478839144
 30
0.0
 10
896.9047660856288
 20
999.0636693614546
 30
0.0
 10
896.592777327923
 20
1001.462571577965
 30
0.0
 10
896.2421440782579
 20
1003.856130776236
 30
0.0
 10
895.8529576210432
 20
1006.243724001998
 30
0.0
 10
895.4334641549884
 20
1008.579380408625
 30
0.0
 10
894.9862904324111
 20
1010.86294718904
 30
0.0
 10
894.5139884307478
 20
1013.094373711327
 30
0.0
 10
894.007812869431
 20
1015.318360719871
 30
0.0
 10
893.4678806811295
 20
1017.534394532335
 30
0.0
 10
892.8919467515655
 20
1019.751084391535
 30
0.0
 10
892.2796571495668
 20
1021.967790831088
 30
0.0
 10
891.6306690826228
 20
1024.183854266202
 30
0.0
 10
890.9476455921304
 20
1026.389665205478
 30
0.0
 10
890.2307485544005
 20
1028.584700857909
 30
0.0
 10
889.4801478332121
 20
1030.768441123577
 30
0.0
 10
888.6960213318703
 20
1032.940368442964
 30
0.0
 10
887.8785547256658
 20
1035.099968462892
 30
0.0
 10
887.0144407273864
 20
1037.280803089738
 30
0.0
 10
886.1020238219202
 20
1039.481616569561
 30
0.0
 10
885.1396542707421
 20
1041.701056284463
 30
0.0
 10
884.141618748295
 20
1043.904688361157
 30
0.0
 10
883.108176947953
 20
1046.091939351669
 30
0.0
 10
882.0395976002642
 20
1048.262240512766
 30
0.0
 10
880.9361586193429
 20
1050.415027390875
 30
0.0
 10
879.7981469746813
 20
1052.549740116724
 30
0.0
 10
878.6258586238841
 20
1054.665823522556
 30
0.0
 10
877.4195984621443
 20
1056.762727252228
 30
0.0
 10
876.1796801297977
 20
1058.839906069882
 30
0.0
 10
874.9064263569209
 20
1060.896819373849
 30
0.0
 10
873.6250479190977
 20
1062.894151323467
 30
0.0
 10
872.3380300957681
 20
1064.832765957996
 30
0.0
 10
871.0477499826485
 20
1066.71359309913
 30
0.0
 10
869.7290217597258
 20
1068.574584175712
 30
0.0
 10
868.3821500364195
 20
1070.415309355337
 30
0.0
 10
867.0017659830095
 20
1072.242863373197
 30
0.0
 10
865.5877873229201
 20
1074.056519995791
 30
0.0
 10
864.1401497693386
 20
1075.855538665218
 30
0.0
 10
862.6649910448583
 20
1077.632060470877
 30
0.0
 10
861.1626607671458
 20
1079.385664364241
 30
0.0
 10
859.6335149034924
 20
1081.115934839692
 30
0.0
 10
858.0779158765735
 20
1082.822461815234
 30
0.0
 10
856.496232062428
 20
1084.504841145351
 30
0.0
 10
854.8633255452394
 20
1086.188987510071
 30
0.0
 10
853.1781473847084
 20
1087.873107205822
 30
0.0
 10
851.4396910456373
 20
1089.555319249015
 30
0.0
 10
849.6743329669507
 20
1091.209278162506
 30
0.0
 10
847.8825325230804
 20
1092.834553529801
 30
0.0
 10
846.0647556372921
 20
1094.430722739397
 30
0.0
 10
844.2214750757788
 20
1095.997370657317
 30
0.0
 10
842.353170216476
 20
1097.53408985027
 30
0.0
 10
840.4603269420585
 20
1099.040480668201
 30
0.0
 10
838.5434375511338
 20
1100.516151326671
 30
0.0
 10
836.6030004623175
 20
1101.960718118394
 30
0.0
 10
834.6395207186247
 20
1103.373805096004
 30
0.0
 10
832.691335560467
 20
1104.728736905142
 30
0.0
 10
830.7604104331409
 20
1106.027262889264
 30
0.0
 10
828.848585659369
 20
1107.271151766749
 30
0.0
 10
826.918069192479
 20
1108.485827889884
 30
0.0
 10
824.9693069446186
 20
1109.671010714289
 30
0.0
 10
822.9946237262812
 20
1110.831200358408
 30
0.0
 10
820.994221441351
 20
1111.965694384093
 30
0.0
 10
818.9683240957976
 20
1113.073784003557
 30
0.0
 10
816.9256096807839
 20
1114.150557334899
 30
0.0
 10
814.8665623292123
 20
1115.195759172889
 30
0.0
 10
812.7916699190931
 20
1116.209141863178
 30
0.0
 10
810.7014242169046
 20
1117.190465232555
 30
0.0
 10
808.5963202175225
 20
1118.139496870657
 30
0.0
 10
806.4432163963316
 20
1119.070558956046
 30
0.0
 10
804.2418300794985
 20
1119.981592910632
 30
0.0
 10
801.9919511710117
 20
1120.87047574783
 30
0.0
 10
799.7280303005542
 20
1121.722961246714
 30
0.0
 10
797.4506565880233
 20
1122.53882754928
 30
0.0
 10
795.1604222168077
 20
1123.317862514523
 30
0.0
 10
792.8579228308128
 20
1124.05986352845
 30
0.0
 10
790.543757235471
 20
1124.764637621774
 30
0.0
 10
788.2185272672963
 20
1125.432001505241
 30
0.0
 10
785.882837680309
 20
1126.061781611747
 30
0.0
 10
783.5372957916887
 20
1126.653814178529
 30
0.0
 10
781.1825120691686
 20
1127.207945147106
 30
0.0
 10
778.864113720663
 20
1127.714200730311
 30
0.0
 10
776.5832471360959
 20
1128.174949254111
 30
0.0
 10
774.3409356927431
 20
1128.592529062231
 30
0.0
 10
772.0925346137942
 20
1128.975966803239
 30
0.0
 10
769.8385632280422
 20
1129.325173931116
 30
0.0
 10
767.5702084642212
 20
1129.641370845323
 30
0.0
 10
765.2879256686384
 20
1129.923985842902
 30
0.0
 10
762.9921930371679
 20
1130.172449812699
 30
0.0
 10
760.6929076840541
 20
1130.385545691
 30
0.0
 10
758.3906145525893
 20
1130.563222968562
 30
0.0
 10
756.0858591564978
 20
1130.705439545429
 30
0.0
 10
753.7791877390731
 20
1130.812161721372
 30
0.0
 10
751.4711465555444
 20
1130.883364203551
 30
0.0
 10
749.1256359691926
 20
1130.919596247209
 30
0.0
 10
746.7431826071781
 20
1130.918847799587
 30
0.0
 10
744.3244047978889
 20
1130.879077076569
 30
0.0
 10
741.9065825656937
 20
1130.800305971442
 30
0.0
 10
739.49034508779
 20
1130.682554960559
 30
0.0
 10
737.0763206531384
 20
1130.525854669962
 30
0.0
 10
734.6651371019699
 20
1130.330245851781
 30
0.0
 10
732.2574215045166
 20
1130.095779378562
 30
0.0
 10
729.8538000269763
 20
1129.822516225976
 30
0.0
 10
727.4548978104659
 20
1129.510527468272
 30
0.0
 10
725.0613386121939
 20
1129.159894218609
 30
0.0
 10
722.6737453864318
 20
1128.770707761397
 30
0.0
 10
720.3380889798046
 20
1128.351214295345
 30
0.0
 10
718.0545221993891
 20
1127.90404057277
 30
0.0
 10
715.8230956771016
 20
1127.431738571109
 30
0.0
 10
713.5991086685569
 20
1126.925563009794
 30
0.0
 10
711.383074856092
 20
1126.385630821495
 30
0.0
 10
709.1663849968913
 20
1125.809696891933
 30
0.0
 10
706.9496785573382
 20
1125.197407289937
 30
0.0
 10
704.7336151222233
 20
1124.548419222995
 30
0.0
 10
702.527804182947
 20
1123.865395732505
 30
0.0
 10
700.3327685305147
 20
1123.148498694777
 30
0.0
 10
698.1490282648459
 20
1122.397897973591
 30
0.0
 10
695.9771009454589
 20
1121.613771472252
 30
0.0
 10
693.8175009255299
 20
1120.796304866049
 30
0.0
 10
691.6366662986824
 20
1119.932190867772
 30
0.0
 10
689.435852818859
 20
1119.019773962308
 30
0.0
 10
687.2164131039563
 20
1118.057404411132
 30
0.0
 10
685.0127810272611
 20
1117.059368888687
 30
0.0
 10
682.8255300367482
 20
1116.025927088348
 30
0.0
 10
680.6552288756493
 20
1114.957347740661
 30
0.0
 10
678.5024419975392
 20
1113.853908759742
 30
0.0
 10
676.3677292716898
 20
1112.715897115083
 30
0.0
 10
674.251645865856
 20
1111.543608764288
 30
0.0
 10
672.154742136183
 20
1110.33734860255
 30
0.0
 10
670.0775633185272
 20
1109.097430270205
 30
0.0
 10
668.0206500145588
 20
1107.824176497331
 30
0.0
 10
666.0233180649404
 20
1106.54279805951
 30
0.0
 10
664.0847034304098
 20
1105.255780236182
 30
0.0
 10
662.2038762892739
 20
1103.965500123064
 30
0.0
 10
660.3428852126913
 20
1102.646771900144
 30
0.0
 10
658.5021600330643
 20
1101.299900176839
 30
0.0
 10
656.6746060152034
 20
1099.919516123431
 30
0.0
 10
654.8609493926073
 20
1098.505537463343
 30
0.0
 10
653.061930723179
 20
1097.057899909764
 30
0.0
 10
651.2854089175185
 20
1095.582741185285
 30
0.0
 10
649.5318050241532
 20
1094.080410907575
 30
0.0
 10
647.8015345486999
 20
1092.551265043923
 30
0.0
 10
646.0950075731569
 20
1090.995666017006
 30
0.0
 10
644.4126282430386
 20
1089.413982202862
 30
0.0
 10
642.7284818783161
 20
1087.781075685676
 30
0.0
 10
641.0443621825676
 20
1086.095897525144
 30
0.0
 10
639.3621501393551
 20
1084.357441186085
 30
0.0
 10
637.7081912259305
 20
1082.592083107361
 30
0.0
 10
636.0829158583791
 20
1080.800282663639
 30
0.0
 10
634.4867466497303
 20
1078.982505777304
 30
0.0
 10
632.9200987282662
 20
1077.139225217838
 30
0.0
 10
631.3833795485317
 20
1075.270920350904
 30
0.0
 10
629.8769886812609
 20
1073.378077104975
 30
0.0
 10
628.4013182069189
 20
1071.461187607737
 30
0.0
 10
626.9567507280082
 20
1069.520750915694
 30
0.0
 10
625.5436663150097
 20
1067.557269691229
 30
0.0
 10
624.1887251169097
 20
1065.609089954134
 30
0.0
 10
622.8902322477578
 20
1063.678145706662
 30
0.0
 10
621.6462213375627
 20
1061.766391392965
 30
0.0
 10
620.4320008860126
 20
1059.835611827321
 30
0.0
 10
619.2451174079656
 20
1057.887831514407
 30
0.0
 10
618.4790718403082
 20
1056.574350347869
 30
0.0
 10
618.0960490564794
 20
1055.9176097646
 30
0.0
  0
SPLINE
  5
A2
330
1F
100
AcDbEntity
  8
0
  6
Continuous
 62
     7
370
    30
100
AcDbSpline
210
0.0
220
0.0
230
1.0
 70
     8
 71
     3
 72
   133
 73
   129
 74
     0
 42
0.000000001
 43
0.00000001
 40
0.0
 40
0.0
 40
0.0
 40
0.0
 40
0.0078113769386147
 40
0.015617188402002
 40
0.0234192810579843
 40
0.0312195042156175
 40
0.0390197085136456
 40
0.0468217446042332
 40
0.0546235204556602
 40
0.062420465041357
 40
0.0705860914952704
 40
0.078751158482813
 40
0.0869177928260489
 40
0.0950881201230449
 40
0.1032623031539145
 40
0.1114324153948129
 40
0.119599286420328
 40
0.1277650409209243
 40
0.1359318044585021
 40
0.1441017018073988
 40
0.1522761665184129
 40
0.1604477416032121
 40
0.1681488924995405
 40
0.1758484788835143
 40
0.1835482851062636
 40
0.1912500953661215
 40
0.1989556924693429
 40
0.2067535911591963
 40
0.2145485531560523
 40
0.2223424269169764
 40
0.2301370616732421
 40
0.2379343061146797
 40
0.2457360070759478
 40
0.2535398115036181
 40
0.2613386324920108
 40
0.269505573294922
 40
0.277671286061633
 40
0.2858378960938021
 40
0.2940075279928252
 40
0.3021811582499289
 40
0.3103514552635996
 40
0.3185184672220447
 40
0.3266843208990398
 40
0.3348511439732658
 40
0.3430210633660283
 40
0.3511949308110497
 40
0.3593652289434259
 40
0.367065590591351
 40
0.374764789778895
 40
0.3824646100968037
 40
0.3901668347043205
 40
0.3978732450917284
 40
0.4056737799730729
 40
0.4134705384878763
 40
0.4212653691470524
 40
0.4290601218330772
 40
0.4368566464839286
 40
0.4446567917768297
 40
0.4524590593804993
 40
0.4602570322975216
 40
0.4684235207810826
 40
0.4765892287552497
 40
0.4847562824374711
 40
0.4929268069946133
 40
0.5011008638390061
 40
0.5092707278520406
 40
0.5174374277327537
 40
0.5256030884820773
 40
0.5337698359120938
 40
0.5419397949866277
 40
0.5501138024722902
 40
0.5582841777721192
 40
0.5659845089767954
 40
0.5736835759366208
 40
0.581383160718467
 40
0.5890850450297636
 40
0.5967910089829072
 40
0.6045919492975662
 40
0.6123889272386045
 40
0.6201837909953494
 40
0.6279783902610208
 40
0.6357745749170947
 40
0.6435741937169985
 40
0.6513764572428283
 40
0.6591747227032211
 40
0.667341389191265
 40
0.6755071452911913
 40
0.6836741189182196
 40
0.6918444370362747
 40
0.7000183505045995
 40
0.7081883263787405
 40
0.716355234800435
 40
0.7245212029850552
 40
0.7326883588826552
 40
0.7408588295152906
 40
0.7490329710881503
 40
0.7572030069071523
 40
0.7649034225732553
 40
0.772602966859971
 40
0.7803034217759314
 40
0.7880065686977876
 40
0.7957141871356698
 40
0.8035164002712379
 40
0.8113144213623132
 40
0.8191100974252007
 40
0.8269052771431213
 40
0.8347018095523713
 40
0.8425015427272227
 40
0.8503041343486928
 40
0.8581029267226351
 40
0.8662701075455991
 40
0.8744363394676545
 40
0.8826037504672392
 40
0.8907744676015549
 40
0.8989487243035049
 40
0.907118975558233
 40
0.915286108656356
 40
0.9234522508704528
 40
0.9316195302473668
 40
0.9397900739454078
 40
0.9479644944347877
 40
0.956135028139213
 40
0.9638356536270247
 40
0.9715351566631063
 40
0.9792353203241179
 40
0.9869379272279346
 40
0.9946447582970401
 40
0.9999999999999999
 40
0.9999999999999999
 40
0.9999999999999999
 40
0.9999999999999999
 10
618.9620595790885
 20
1055.417583989651
 30
0.0
 10
618.5821181804168
 20
1054.752590532033
 30
0.0
 10
617.8225060849561
 20
1053.423077413499
 30
0.0
 10
616.72241721529
 20
1051.407466981189
 30
0.0
 10
615.6517856008301
 20
1049.377368576796
 30
0.0
 10
614.6133871119343
 20
1047.33118030987
 30
0.0
 10
613.6064777551973
 20
1045.269331947466
 30
0.0
 10
612.631424552498
 20
1043.192057252387
 30
0.0
 10
611.6885594988736
 20
1041.100327600225
 30
0.0
 10
610.7638406032504
 20
1038.961617615332
 30
0.0
 10
609.8593371649869
 20
1036.775668487717
 30
0.0
 10
608.9769183423564
 20
1034.541692706001
 30
0.0
 10
608.1305048673394
 20
1032.293335391313
 30
0.0
 10
607.3201666443656
 20
1030.030776658095
 30
0.0
 10
606.5462540415285
 20
1027.755141017861
 30
0.0
 10
605.809186211483
 20
1025.467661785505
 30
0.0
 10
605.1093457762651
 20
1023.169383448411
 30
0.0
 10
604.4467673636029
 20
1020.860428643141
 30
0.0
 10
603.821451008739
 20
1018.540797753059
 30
0.0
 10
603.2334181469579
 20
1016.210555531504
 30
0.0
 10
602.682876505336
 20
1013.870687895379
 30
0.0
 10
602.1798962652796
 20
1011.56715733439
 30
0.0
 10
601.7223081969325
 20
1009.301677612002
 30
0.0
 10
601.3077245049936
 20
1007.074968540475
 30
0.0
 10
600.9270797967029
 20
1004.842142111755
 30
0.0
 10
600.5803745303049
 20
1002.603198137898
 30
0.0
 10
600.2664322129765
 20
1000.349715073116
 30
0.0
 10
599.9858386017107
 20
998.0826311489855
 30
0.0
 10
599.7392533632759
 20
995.8028905050408
 30
0.0
 10
599.5278423507242
 20
993.5199406791759
 30
0.0
 10
599.3516068604085
 20
991.2337819990481
 30
0.0
 10
599.2105453086288
 20
988.9444148629358
 30
0.0
 10
599.1046818024536
 20
986.6522507139209
 30
0.0
 10
599.0340148742197
 20
984.35857679555
 30
0.0
 10
598.9980639956328
 20
982.0282812818475
 30
0.0
 10
598.9988504478114
 20
979.6622130461898
 30
0.0
 10
599.0384025114854
 20
977.2604100099593
 30
0.0
 10
599.1167072023666
 20
974.8592936633333
 30
0.0
 10
599.2337640945132
 20
972.458977441539
 30
0.0
 10
599.3894800123361
 20
970.0604966980143
 30
0.0
 10
599.583790759593
 20
967.6650912897866
 30
0.0
 10
599.8166518763624
 20
965.2738915317404
 30
0.0
 10
600.0880425631825
 20
962.8871005484388
 30
0.0
 10
600.3979627476882
 20
960.5047187305104
 30
0.0
 10
600.7463986425958
 20
958.1268706663169
 30
0.0
 10
601.1331534797498
 20
955.7546091517108
 30
0.0
 10
601.5499331615064
 20
953.4341985318604
 30
0.0
 10
601.9940870137949
 20
951.1662918721979
 30
0.0
 10
602.463153037512
 20
948.950536110457
 30
0.0
 10
602.9659320892897
 20
946.7419991379032
 30
0.0
 10
603.502424473894
 20
944.5406808996331
 30
0.0
 10
604.074801775251
 20
942.3382155699907
 30
0.0
 10
604.683218055829
 20
940.1358119018613
 30
0.0
 10
605.3279014517043
 20
937.9347147492253
 30
0.0
 10
606.0062451857666
 20
935.7443505277157
 30
0.0
 10
606.7182501040634
 20
933.5647199678004
 30
0.0
 10
607.4639147663021
 20
931.3958229004065
 30
0.0
 10
608.2431319479984
 20
929.237969888951
 30
0.0
 10
609.0554662125844
 20
927.0922125870474
 30
0.0
 10
609.9139366420623
 20
924.9258096047531
 30
0.0
 10
610.8201048124962
 20
922.7402813971999
 30
0.0
 10
611.775821133552
 20
920.5364614484008
 30
0.0
 10
612.7671371837404
 20
918.3479890964275
 30
0.0
 10
613.7939708879666
 20
916.1750501595648
 30
0.0
 10
614.8557782418492
 20
914.0186782128227
 30
0.0
 10
615.952002235373
 20
911.880018302483
 30
0.0
 10
617.0821903262076
 20
909.7600435014939
 30
0.0
 10
618.246289388666
 20
907.6588477642069
 30
0.0
 10
619.4442992110698
 20
905.5764314210903
 30
0.0
 10
620.6761588082359
 20
903.5129054388067
 30
0.0
 10
621.9412741561839
 20
901.4691814525714
 30
0.0
 10
623.2142682567192
 20
899.4848471437631
 30
0.0
 10
624.4924336847001
 20
897.5595089159909
 30
0.0
 10
625.7736298735206
 20
895.6919019801054
 30
0.0
 10
627.0831816577588
 20
893.8438809695325
 30
0.0
 10
628.4210893642243
 20
892.0154459677299
 30
0.0
 10
629.7926169278676
 20
890.1996235598477
 30
0.0
 10
631.1974437954395
 20
888.3975987017645
 30
0.0
 10
632.6353043858957
 20
886.6106185331942
 30
0.0
 10
634.1001208522085
 20
884.8464748650634
 30
0.0
 10
635.5918937239871
 20
883.1051687180488
 30
0.0
 10
637.1106217346581
 20
881.386699384114
 30
0.0
 10
638.6561337849137
 20
879.6912614019393
 30
0.0
 10
640.2276604102242
 20
878.0196279100666
 30
0.0
 10
641.8497674145473
 20
876.3465302803997
 30
0.0
 10
643.5232736122342
 20
874.6740195020406
 30
0.0
 10
645.2495409761779
 20
873.0036045092437
 30
0.0
 10
647.0028097647504
 20
871.3610286577781
 30
0.0
 10
648.7829466392186
 20
869.7464198341286
 30
0.0
 10
650.5890821226247
 20
868.1605012343931
 30
0.0
 10
652.4202813593288
 20
866.6041058533286
 30
0.0
 10
654.2757563565931
 20
865.0779580554653
 30
0.0
 10
656.1554101256171
 20
863.5821345977115
 30
0.0
 10
658.0592423357605
 20
862.1166356995698
 30
0.0
 10
659.9871161882089
 20
860.6815687393607
 30
0.0
 10
661.9380863662344
 20
859.2775799187917
 30
0.0
 10
663.8735787248434
 20
857.931507778141
 30
0.0
 10
665.7913002429806
 20
856.6419035301728
 30
0.0
 10
667.6898270911319
 20
855.4067310381316
 30
0.0
 10
669.607152142189
 20
854.200442763679
 30
0.0
 10
671.5432756653441
 20
853.0230389027322
 30
0.0
 10
673.5056642944957
 20
851.8701298391444
 30
0.0
 10
675.4935133827731
 20
850.7427138084645
 30
0.0
 10
677.506047409539
 20
849.6418710440685
 30
0.0
 10
679.5346824082452
 20
848.5724668633608
 30
0.0
 10
681.5794184733596
 20
847.5345023979781
 30
0.0
 10
683.6402547161554
 20
846.5279765326754
 30
0.0
 10
685.716998313439
 20
845.5529848024526
 30
0.0
 10
687.8086823217383
 20
844.6099320051156
 30
0.0
 10
689.9476928457065
 20
843.6848663144965
 30
0.0
 10
692.1339794971466
 20
842.7800072955747
 30
0.0
 10
694.368201823663
 20
841.8972795305972
 30
0.0
 10
696.6167071937349
 20
841.0506103513374
 30
0.0
 10
698.8793218454715
 20
840.2400674204938
 30
0.0
 10
701.1549629922142
 20
839.4659871811117
 30
0.0
 10
703.4424464324503
 20
838.7287801925039
 30
0.0
 10
705.7407674463908
 20
838.0288139982312
 30
0.0
 10
708.0498086470477
 20
837.3661218993547
 30
0.0
 10
710.3695696260714
 20
836.7407038013204
 30
0.0
 10
712.6999073353422
 20
836.1526010861331
 30
0.0
 10
715.0397268245478
 20
835.6020418489112
 30
0.0
 10
717.3430985278236
 20
835.0990771691726
 30
0.0
 10
719.6084111466407
 20
834.641471332184
 30
0.0
 10
721.8350975306925
 20
834.2269259682571
 30
0.0
 10
724.0679849077956
 20
833.8459368795715
 30
0.0
 10
726.3072736640303
 20
833.5001450675668
 30
0.0
 10
728.3233162482828
 20
833.215714183374
 30
0.0
 10
729.5947169009154
 20
833.061760586655
 30
0.0
 10
730.1159709097515
 20
832.9986420651267
 30
0.0
  0
SPLINE
  5
A3
330
1F
100
AcDbEntity
  8
0
  6
Continuous
 62
     7
370
    30
100
AcDbSpline
210
0.0
220
0.0
230
1.0
 70
     8
 71
     3
 72
    67
 73
    63
 74
     0
 42
0.000000001
 43
0.00000001
 40
0.0
 40
0.0
 40
0.0
 40
0.0
 40
0.0010297364240245
 40
0.0184240902079787
 40
0.0358251385702121
 40
0.0532347795984639
 40
0.0706368658726999
 40
0.0870378542712542
 40
0.1034362000583475
 40
0.1198357010759795
 40
0.1362401543637977
 40
0.152653353524467
 40
0.1692679586433724
 40
0.1858744008399396
 40
0.2024766176020589
 40
0.2190785494240655
 40
0.2356841370031428
 40
0.2522973184350046
 40
0.2689153619914426
 40
0.2855244801123488
 40
0.3029184654261606
 40
0.3203107444101805
 40
0.3377058472349195
 40
0.3551083018656011
 40
0.3725183683734852
 40
0.3899196552263821
 40
0.4073142203702279
 40
0.4247065916464962
 40
0.4421012986098535
 40
0.4595028689910568
 40
0.4769130225592235
 40
0.4943153821238783
 40
0.5107166359355424
 40
0.5271152536329545
 40
0.543515032053718
 40
0.5599197672294962
 40
0.5763332517528298
 40
0.5929485203721554
 40
0.6095554342680766
 40
0.6261579304982261
 40
0.6427599492630955
 40
0.6593654311030609
 40
0.6759783140941956
 40
0.6925962833927175
 40
0.7092054542702321
 40
0.7265993775356392
 40
0.7439914756311241
 40
0.7613862800389757
 40
0.7787883201273157
 40
0.7961974015415024
 40
0.8135973712894234
 40
0.8309909369632377
 40
0.8483826268573541
 40
0.8657769707311551
 40
0.8831784962714653
 40
0.9005873745963139
 40
0.9179865172644022
 40
0.9343854778225771
 40
0.950782515603434
 40
0.9671814222891878
 40
0.9835859882661406
 40
1.0
 40
1.0
 40
1.0
 40
1.0
 10
765.8837078146486
 20
832.9958709899381
 30
0.0
 10
765.9308101987374
 20
833.0012064082335
 30
0.0
 10
766.7735681639964
 20
833.0966679512841
 30
0.0
 10
768.4080492510841
 20
833.3180876344798
 30
0.0
 10
770.7864014356157
 20
833.6630773730653
 30
0.0
 10
773.1586836962364
 20
834.0506903553788
 30
0.0
 10
775.4792511861436
 20
834.4671719041903
 30
0.0
 10
777.7472657558203
 20
834.911324698731
 30
0.0
 10
779.9631148025813
 20
835.3803059695839
 30
0.0
 10
782.1717220853596
 20
835.8830128078758
 30
0.0
 10
784.3730906473011
 20
836.4194197826345
 30
0.0
 10
786.5756350142697
 20
836.9917177962138
 30
0.0
 10
788.7781481142043
 20
837.6000625715698
 30
0.0
 10
790.9793864469419
 20
838.2446861155961
 30
0.0
 10
793.1698765057846
 20
838.9229688727521
 30
0.0
 10
795.3496175509854
 20
839.6349117418367
 30
0.0
 10
797.518609752692
 20
840.380513272005
 30
0.0
 10
799.6765624028322
 20
841.1596734123025
 30
0.0
 10
801.8224379343158
 20
841.971963365205
 30
0.0
 10
803.9889825071128
 20
842.8304045225807
 30
0.0
 10
806.1746585250451
 20
843.7365531278443
 30
0.0
 10
808.3786208917992
 20
844.6922554734715
 30
0.0
 10
810.5672278623072
 20
845.6835633858409
 30
0.0
 10
812.7402989260248
 20
846.7103972925611
 30
0.0
 10
814.8968080650676
 20
847.7722173461552
 30
0.0
 10
817.0356120919228
 20
848.8684681787054
 30
0.0
 10
819.1557346576433
 20
849.9986960203521
 30
0.0
 10
821.2570762730902
 20
851.1628449184037
 30
0.0
 10
823.3396366074924
 20
852.360914660436
 30
0.0
 10
825.4033021536128
 20
853.592842739035
 30
0.0
 10
827.4471580123356
 20
854.8580329404851
 30
0.0
 10
829.4316155427721
 20
856.1311070301983
 30
0.0
 10
831.3570723726419
 20
857.4093590141516
 30
0.0
 10
833.2247979174555
 20
858.6906506620682
 30
0.0
 10
835.0729397002231
 20
860.0003083933976
 30
0.0
 10
836.901497637584
 20
861.3383325343414
 30
0.0
 10
838.7174245531015
 20
862.7099715939106
 30
0.0
 10
840.5195370776064
 20
864.1149045536035
 30
0.0
 10
842.3065897362862
 20
865.5528653301143
 30
0.0
 10
844.0708118773392
 20
867.0177924115314
 30
0.0
 10
845.8122024809818
 20
868.5096863265753
 30
0.0
 10
847.5307622545756
 20
870.028545808852
 30
0.0
 10
849.22627509346
 20
871.5741800887139
 30
0.0
 10
850.89795647283
 20
873.1458068293207
 30
0.0
 10
852.5710777611023
 20
874.7679917583315
 30
0.0
 10
854.2436108327063
 20
876.4415737773965
 30
0.0
 10
855.9140599435831
 20
878.1679275271133
 30
0.0
 10
857.5566816485845
 20
879.9212923525389
 30
0.0
 10
859.1713255543833
 20
881.701510090012
 30
0.0
 10
860.7572444642253
 20
883.5076810731368
 30
0.0
 10
862.3136090999052
 20
885.3388684491815
 30
0.0
 10
863.8397195427096
 20
887.1943086884958
 30
0.0
 10
865.3355246547021
 20
889.07393479915
 30
0.0
 10
866.8010238980635
 20
890.9777466376718
 30
0.0
 10
868.2360950088848
 20
892.9055851028095
 30
0.0
 10
869.640058737104
 20
894.856465211378
 30
0.0
 10
870.9860941513979
 20
896.7917969386032
 30
0.0
 10
872.2756079167904
 20
898.7093332216484
 30
0.0
 10
873.5108551690457
 20
900.6075731513738
 30
0.0
 10
874.7166571276512
 20
902.5249246290964
 30
0.0
 10
875.8957206257119
 20
904.4598247202438
 30
0.0
 10
876.6569204509412
 20
905.7648723613481
 30
0.0
 10
877.0376299068239
 20
906.4175839895938
 30
0.0
  0
SPLINE
  5
A4
330
1F
100
AcDbEntity
  8
0
  6
Continuous
 62
     7
370
    30
100
AcDbSpline
210
0.0
220
0.0
230
1.0
 70
     8
 71
     3
 72
   133
 73
   129
 74
     0
 42
0.000000001
 43
0.00000001
 40
0.0
 40
0.0
 40
0.0
 40
0.0
 40
0.0077947986928165
 40
0.0155895973856328
 40
0.0233843960784493
 40
0.0311791947712655
 40
0.0389739934640821
 40
0.0467687921568985
 40
0.0545635908497149
 40
0.0623583895425309
 40
0.07052436126371
 40
0.0786903329848891
 40
0.086856304706068
 40
0.0950222764272474
 40
0.1031882481484265
 40
0.1113542198696059
 40
0.1195201915907848
 40
0.1276861633119639
 40
0.1358521350331431
 40
0.1440181067543222
 40
0.1521840784755014
 40
0.1603500501966805
 40
0.1680494042252442
 40
0.1757487582538078
 40
0.1834481122823716
 40
0.1911474663109351
 40
0.198846820339499
 40
0.2066416190323154
 40
0.2144364177251319
 40
0.2222312164179484
 40
0.2300260151107646
 40
0.2378208138035812
 40
0.2456156124963975
 40
0.253410411189214
 40
0.2612052098820301
 40
0.2693711816032092
 40
0.2775371533243886
 40
0.2857031250455673
 40
0.2938690967667466
 40
0.3020350684879257
 40
0.3102010402091051
 40
0.318367011930284
 40
0.3265329836514634
 40
0.3346989553726425
 40
0.3428649270938214
 40
0.3510308988150005
 40
0.3591968705361798
 40
0.3668962245647434
 40
0.374595578593307
 40
0.3822949326218707
 40
0.3899942866504344
 40
0.3976936406789985
 40
0.4054884393718148
 40
0.413283238064631
 40
0.4210780367574478
 40
0.428872835450264
 40
0.4366676341430803
 40
0.4444624328358966
 40
0.4522572315287133
 40
0.4600520302215291
 40
0.4682180019427082
 40
0.4763839736638874
 40
0.4845499453850666
 40
0.4927159171062456
 40
0.5008818888274247
 40
0.5090478605486038
 40
0.517213832269783
 40
0.5253798039909626
 40
0.5335457757121412
 40
0.5417117474333204
 40
0.5498777191544995
 40
0.5580436908756791
 40
0.5657430449042425
 40
0.5734423989328062
 40
0.5811417529613697
 40
0.5888411069899332
 40
0.5965404610184972
 40
0.6043352597113134
 40
0.6121300584041302
 40
0.6199248570969464
 40
0.6277196557897632
 40
0.6355144544825794
 40
0.6433092531753958
 40
0.651104051868212
 40
0.6588988505610283
 40
0.6670648222822073
 40
0.6752307940033865
 40
0.6833967657245651
 40
0.6915627374457443
 40
0.6997287091669238
 40
0.7078946808881028
 40
0.716060652609282
 40
0.7242266243304611
 40
0.7323925960516402
 40
0.7405585677728194
 40
0.7487245394939981
 40
0.7568905112151777
 40
0.7645898652437412
 40
0.7722892192723047
 40
0.7799885733008688
 40
0.7876879273294323
 40
0.7953872813579963
 40
0.8031820800508126
 40
0.8109768787436289
 40
0.8187716774364455
 40
0.8265664761292618
 40
0.8343612748220781
 40
0.8421560735148944
 40
0.8499508722077111
 40
0.8577456709005269
 40
0.8659116426217065
 40
0.8740776143428852
 40
0.8822435860640648
 40
0.8904095577852434
 40
0.898575529506423
 40
0.9067415012276018
 40
0.9149074729487814
 40
0.9230734446699601
 40
0.9312394163911392
 40
0.9394053881123182
 40
0.9475713598334973
 40
0.9557373315546769
 40
0.9634366855832404
 40
0.9711360396118037
 40
0.9788353936403674
 40
0.9865347476689313
 40
0.994234101697495
 40
1.0
 40
1.0
 40
1.0
 40
1.0
 10
618.0960490563597
 20
1055.917609764392
 30
0.0
 10
617.714166129923
 20
1055.24932828655
 30
0.0
 10
616.9504002770494
 20
1053.912765330865
 30
0.0
 10
615.844053741692
 20
1051.885861551574
 30
0.0
 10
614.7668133523774
 20
1049.843416809661
 30
0.0
 10
613.721736662175
 20
1047.784297199409
 30
0.0
 10
612.7083204387096
 20
1045.7094241509
 30
0.0
 10
611.7270060542533
 20
1043.619173260935
 30
0.0
 10
610.7779720096496
 20
1041.514070651034
 30
0.0
 10
609.8469105755258
 20
1039.360966453809
 30
0.0
 10
608.9358764384496
 20
1037.159580242341
 30
0.0
 10
608.0469936509035
 20
1034.909701305184
 30
0.0
 10
607.1945081387163
 20
1032.645780442406
 30
0.0
 10
606.3786418397162
 20
1030.368406727814
 30
0.0
 10
605.5996068735184
 20
1028.078172357148
 30
0.0
 10
604.857605859849
 20
1025.775672971003
 30
0.0
 10
604.1528317664572
 20
1023.461507375698
 30
0.0
 10
603.48546788301
 20
1021.136277407511
 30
0.0
 10
602.8556877765001
 20
1018.800587820524
 30
0.0
 10
602.2636552097209
 20
1016.455045931901
 30
0.0
 10
601.7095242411455
 20
1014.100262209378
 30
0.0
 10
601.2032686579421
 20
1011.78186386087
 30
0.0
 10
600.7425201341437
 20
1009.500997276301
 30
0.0
 10
600.324940326025
 20
1007.258685832946
 30
0.0
 10
599.941502585018
 20
1005.010284753995
 30
0.0
 10
599.5922954571427
 20
1002.756313368241
 30
0.0
 10
599.2760985429381
 20
1000.487958604418
 30
0.0
 10
598.9934835453603
 20
998.2056758088329
 30
0.0
 10
598.745019575566
 20
995.9099431773603
 30
0.0
 10
598.5319236972659
 20
993.6106578242445
 30
0.0
 10
598.3542464197064
 20
991.3083646927777
 30
0.0
 10
598.2120298428413
 20
989.0036092966843
 30
0.0
 10
598.1053076669007
 20
986.6969378792576
 30
0.0
 10
598.0341051847231
 20
984.3888966957268
 30
0.0
 10
597.9978731410681
 20
982.0433861093732
 30
0.0
 10
597.9986215886923
 20
979.6609327473568
 30
0.0
 10
598.0383923117123
 20
977.2421549380657
 30
0.0
 10
598.1171634168421
 20
974.8243327058686
 30
0.0
 10
598.2349144277273
 20
972.4080952279633
 30
0.0
 10
598.3916147183272
 20
969.9940707933098
 30
0.0
 10
598.587223536511
 20
967.5828872421396
 30
0.0
 10
598.821690009733
 20
965.1751716446846
 30
0.0
 10
599.0949531623224
 20
962.7715501671425
 30
0.0
 10
599.4069419200285
 20
960.3726479506306
 30
0.0
 10
599.7575751696942
 20
957.979088752357
 30
0.0
 10
600.1467616269094
 20
955.5914955265936
 30
0.0
 10
600.5662550929646
 20
953.2558391199649
 30
0.0
 10
601.0134288155426
 20
950.9722723395482
 30
0.0
 10
601.4857308172064
 20
948.7408458172595
 30
0.0
 10
601.9919063785242
 20
946.5168588087136
 30
0.0
 10
602.5318385668264
 20
944.3008249962476
 30
0.0
 10
603.1077724963912
 20
942.0841351370457
 30
0.0
 10
603.7200620983908
 20
939.8674286974915
 30
0.0
 10
604.3690501653358
 20
937.6513652623757
 30
0.0
 10
605.0520736558293
 20
935.4455543230983
 30
0.0
 10
605.7689706935602
 20
933.2505186706651
 30
0.0
 10
606.5195714147497
 20
931.0667784049956
 30
0.0
 10
607.3036979160923
 20
928.8948510856079
 30
0.0
 10
608.1211645222984
 20
926.7352510656782
 30
0.0
 10
608.985278520579
 20
924.55441643883
 30
0.0
 10
609.8976954260464
 20
922.3536029590061
 30
0.0
 10
610.8600649772259
 20
920.1341632441026
 30
0.0
 10
611.8581004996746
 20
917.9305311674074
 30
0.0
 10
612.8915423000179
 20
915.743280176894
 30
0.0
 10
613.9601216477084
 20
913.5729790157949
 30
0.0
 10
615.0635606286312
 20
911.4201921376845
 30
0.0
 10
616.2015722732946
 20
909.2854794118348
 30
0.0
 10
617.3738606240935
 20
907.169396006001
 30
0.0
 10
618.580120785835
 20
905.072492276328
 30
0.0
 10
619.8200391181834
 20
902.9953134586724
 30
0.0
 10
621.0932928910622
 20
900.9384001547041
 30
0.0
 10
622.3746713288871
 20
898.9410682050859
 30
0.0
 10
623.6616891522186
 20
897.0024535705558
 30
0.0
 10
624.9519692653402
 20
895.1216264294202
 30
0.0
 10
626.2706974882648
 20
893.2606353528381
 30
0.0
 10
627.6175692115729
 20
891.4199101732119
 30
0.0
 10
628.997953264985
 20
889.5923561553514
 30
0.0
 10
630.4119319250764
 20
887.778699532756
 30
0.0
 10
631.8595694786599
 20
885.9796808633283
 30
0.0
 10
633.3347282031424
 20
884.2031590576687
 30
0.0
 10
634.837058480857
 20
882.4495551643043
 30
0.0
 10
636.3662043445127
 20
880.7192846888521
 30
0.0
 10
637.9218033714337
 20
879.01275771331
 30
0.0
 10
639.5034871855813
 20
877.3303783831929
 30
0.0
 10
641.1363937027722
 20
875.6462320184727
 30
0.0
 10
642.8215718633056
 20
873.962112322721
 30
0.0
 10
644.5600282023789
 20
872.2799002795281
 30
0.0
 10
646.3253862810682
 20
870.625941366037
 30
0.0
 10
648.1171867249407
 20
869.0006659987416
 30
0.0
 10
649.9349636107316
 20
867.4044967891455
 30
0.0
 10
651.7782441722474
 20
865.8378488712254
 30
0.0
 10
653.6465490315527
 20
864.3011296782728
 30
0.0
 10
655.5393923059728
 20
862.7947388603418
 30
0.0
 10
657.4562816969001
 20
861.319068201871
 30
0.0
 10
659.3967187857188
 20
859.8745014101484
 30
0.0
 10
661.3601985294144
 20
858.4614144325392
 30
0.0
 10
663.3083836875745
 20
857.1064826234016
 30
0.0
 10
665.239308814903
 20
855.80795663928
 30
0.0
 10
667.1511335886776
 20
854.5640677617951
 30
0.0
 10
669.0816500555699
 20
853.3493916386602
 30
0.0
 10
671.030412303433
 20
852.1642088142564
 30
0.0
 10
673.0050955217728
 20
851.0040191701383
 30
0.0
 10
675.0054978067055
 20
849.8695251444537
 30
0.0
 10
677.0313951522616
 20
848.76143552499
 30
0.0
 10
679.0741095672777
 20
847.6846621936494
 30
0.0
 10
681.1331569188517
 20
846.6394603556599
 30
0.0
 10
683.2080493289734
 20
845.6260776653718
 30
0.0
 10
685.2982950311646
 20
844.6447542959963
 30
0.0
 10
687.4033990305492
 20
843.6957226578952
 30
0.0
 10
689.5565028517427
 20
842.7646605725078
 30
0.0
 10
691.7578891685779
 20
841.8536266179206
 30
0.0
 10
694.0077680770688
 20
840.9647437807341
 30
0.0
 10
696.2716889475242
 20
840.1122582818142
 30
0.0
 10
698.5490626600748
 20
839.2963919793889
 30
0.0
 10
700.8392970312299
 20
838.5173570136282
 30
0.0
 10
703.1417964174623
 20
837.7753560016387
 30
0.0
 10
705.4559620119297
 20
837.0705819010933
 30
0.0
 10
707.7811919833789
 20
836.4032180445838
 30
0.0
 10
710.1168815581586
 20
835.7734378374795
 30
0.0
 10
712.4624234923494
 20
835.181405646144
 30
0.0
 10
714.8172070448095
 20
834.6272732763917
 30
0.0
 10
717.1356060159112
 20
834.1210228228517
 30
0.0
 10
719.4164704045847
 20
833.6602562066724
 30
0.0
 10
721.6587899400839
 20
833.2427430711849
 30
0.0
 10
723.9071608028727
 20
832.8590563737793
 30
0.0
 10
726.1612449611317
 20
832.5107783988708
 30
0.0
 10
728.2307850156237
 20
832.2190640789062
 30
0.0
 10
729.5507819500813
 20
832.0593634259731
 30
0.0
 10
730.116012210649
 20
831.9909786901347
 30
0.0
  0
SPLINE
  5
A5
330
1F
100
AcDbEntity
  8
0
  6
Continuous
 62
     7
370
    30
100
AcDbSpline
210
0.0
220
0.0
230
1.0
 70
     8
 71
     3
 72
    67
 73
    63
 74
     0
 42
0.000000001
 43
0.00000001
 40
0.0
 40
0.0
 40
0.0
 40
0.0
 40
0.0018911011059783
 40
0.0192750284430963
 40
0.0366589557802132
 40
0.0540428831173319
 40
0.0714268104544499
 40
0.0878173902342152
 40
0.1042079700139817
 40
0.120598549793748
 40
0.1369891295735123
 40
0.1533797093532789
 40
0.1699734741506682
 40
0.1865672389480585
 40
0.2031610037454472
 40
0.2197547685428375
 40
0.2363485333402268
 40
0.2529422981376173
 40
0.2695360629350065
 40
0.2861298277323961
 40
0.303513755069513
 40
0.3208976824066319
 40
0.3382816097437498
 40
0.3556655370808667
 40
0.3730494644179854
 40
0.3904333917551036
 40
0.4078173190922204
 40
0.4252012464293394
 40
0.4425851737664563
 40
0.4599691011035752
 40
0.4773530284406928
 40
0.494736955777811
 40
0.5111275355575754
 40
0.5275181153373427
 40
0.543908695117109
 40
0.5602992748968734
 40
0.5766898546766388
 40
0.5932836194740292
 40
0.6098773842714186
 40
0.6264711490688091
 40
0.6430649138661971
 40
0.6596586786635867
 40
0.6762524434609772
 40
0.6928462082583665
 40
0.7094399730557569
 40
0.7268239003928738
 40
0.7442078277299917
 40
0.7615917550671096
 40
0.7789756824042275
 40
0.7963596097413455
 40
0.8137435370784634
 40
0.8311274644155814
 40
0.8485113917526993
 40
0.8658953190898181
 40
0.8832792464269352
 40
0.900663173764053
 40
0.918047101101172
 40
0.9344376808809366
 40
0.9508282606607029
 40
0.9672188404404684
 40
0.9836094202202347
 40
1.0
 40
1.0
 40
1.0
 40
1.0
 10
765.8836673532757
 20
831.9894320749717
 30
0.0
 10
765.9708297812906
 20
831.9992787535631
 30
0.0
 10
766.8592319263938
 20
832.0996409231572
 30
0.0
 10
768.5445349734173
 20
832.3271618802565
 30
0.0
 10
770.938457404625
 20
832.6746634306534
 30
0.0
 10
773.3259532513038
 20
833.0646894648432
 30
0.0
 10
775.6616354407099
 20
833.4839606385409
 30
0.0
 10
777.945195697447
 20
833.9311906065769
 30
0.0
 10
780.1766239331359
 20
834.4034778357528
 30
0.0
 10
782.4006104825811
 20
834.9096573553162
 30
0.0
 10
784.6166444180491
 20
835.4495884831271
 30
0.0
 10
786.8333342442069
 20
836.0255226975872
 30
0.0
 10
789.050040692721
 20
836.6378122223362
 30
0.0
 10
791.266104125426
 20
837.2868003100658
 30
0.0
 10
793.4719150653491
 20
837.9698237949906
 30
0.0
 10
795.6669507176091
 20
838.6867208342144
 30
0.0
 10
797.8506909833249
 20
839.4373215550045
 30
0.0
 10
800.0226183026999
 20
840.221448056455
 30
0.0
 10
802.1822183226328
 20
841.0389146626326
 30
0.0
 10
804.3630529494799
 20
841.9030286609214
 30
0.0
 10
806.5638664293037
 20
842.8154455663874
 30
0.0
 10
808.7833061442069
 20
843.777815117568
 30
0.0
 10
810.9869382209021
 20
844.7758506400169
 30
0.0
 10
813.1741892114153
 20
845.8092924403609
 30
0.0
 10
815.344490372514
 20
846.8778717880518
 30
0.0
 10
817.4972772506243
 20
847.9813107689752
 30
0.0
 10
819.6319899764737
 20
849.1193224136389
 30
0.0
 10
821.7480733823071
 20
850.2916107644384
 30
0.0
 10
823.8449771119798
 20
851.4978709261803
 30
0.0
 10
825.9221559296352
 20
852.7377892585293
 30
0.0
 10
827.9790692336031
 20
854.0110430314085
 30
0.0
 10
829.976401183221
 20
855.2924214692339
 30
0.0
 10
831.9150158177508
 20
856.579439292566
 30
0.0
 10
833.7958429588862
 20
857.8697194056879
 30
0.0
 10
835.6568340354681
 20
859.188447628613
 30
0.0
 10
837.497559215094
 20
860.5353193519215
 30
0.0
 10
839.3251132329541
 20
861.9157034053339
 30
0.0
 10
841.1387698555493
 20
863.3296820654257
 30
0.0
 10
842.9377885249764
 20
864.7773196190097
 30
0.0
 10
844.7143103306358
 20
866.2524783434925
 30
0.0
 10
846.4679142239997
 20
867.7548086212074
 30
0.0
 10
848.1981846994515
 20
869.2839544848636
 30
0.0
 10
849.9047116749933
 20
870.839553511785
 30
0.0
 10
851.58709100511
 20
872.4212373259332
 30
0.0
 10
853.2712373698308
 20
874.0541438431238
 30
0.0
 10
854.9553570655775
 20
875.7393220036604
 30
0.0
 10
856.6375691087882
 20
877.4777783427236
 30
0.0
 10
858.2915280222107
 20
879.2431364214526
 30
0.0
 10
859.9168033897599
 20
881.0349368651787
 30
0.0
 10
861.5129725984067
 20
882.8527137515179
 30
0.0
 10
863.0796205198685
 20
884.6959943109888
 30
0.0
 10
864.6163396996006
 20
886.5642991779275
 30
0.0
 10
866.1227305668691
 20
888.457142423861
 30
0.0
 10
867.5984010412085
 20
890.3740319211033
 30
0.0
 10
869.0429685201166
 20
892.3144686131504
 30
0.0
 10
870.4560529331122
 20
894.2779498376199
 30
0.0
 10
871.8109941312094
 20
896.2261295747189
 30
0.0
 10
873.1094870003585
 20
898.1570738221951
 30
0.0
 10
874.3534979105508
 20
900.0688281358966
 30
0.0
 10
875.567718362098
 20
901.9996077015439
 30
0.0
 10
876.7546018401417
 20
903.9473880144623
 30
0.0
 10
877.5206474077972
 20
905.2608691810032
 30
0.0
 10
877.903670191625
 20
905.9176097642735
 30
0.0
  0
SPLINE
  5
A6
330
1F
100
AcDbEntity
  8
0
  6
Continuous
 62
     7
370
    30
100
AcDbSpline
210
0.0
220
0.0
230
1.0
 70
    24
 71
     3
 72
     9
 73
     5
 74
     0
 42
0.000000001
 43
0.00000001
 40
0.0
 40
0.0
 40
0.0
 40
0.0
 40
0.2224437369627666
 40
0.9999999999999999
 40
0.9999999999999999
 40
0.9999999999999999
 40
0.9999999999999999
 10
734.4259429775241
 20
906.1320743671544
 30
0.0
 10
734.4254988714629
 20
906.1320743671544
 30
0.0
 10
734.4235023843188
 20
906.1320743671544
 30
0.0
 10
734.427469591024
 20
906.1320743671544
 30
0.0
 10
734.4305543174444
 20
906.1320743671544
 30
0.0
  0
SPLINE
  5
A7
330
1F
100
AcDbEntity
  8
0
  6
Continuous
 62
     7
370
    30
100
AcDbSpline
210
0.0
220
0.0
230
1.0
 70
    24
 71
     3
 72
     9
 73
     5
 74
     0
 42
0.000000001
 43
0.00000001
 40
0.0
 40
0.0
 40
0.0
 40
0.0
 40
0.7780423752886289
 40
1.0
 40
1.0
 40
1.0
 40
1.0
 10
734.4305702275472
 20
955.8951028555551
 30
0.0
 10
734.4274760589948
 20
955.8951028555551
 30
0.0
 10
734.4234991952012
 20
955.8951028555551
 30
0.0
 10
734.4254990864197
 20
955.8951028555551
 30
0.0
 10
734.4259429775241
 20
955.8951028555551
 30
0.0
  0
SPLINE
  5
A8
330
1F
100
AcDbEntity
  8
0
  6
Continuous
 62
     7
370
    30
100
AcDbSpline
210
0.0
220
0.0
230
1.0
 70
    24
 71
     3
 72
     9
 73
     5
 74
     0
 42
0.000000001
 43
0.00000001
 40
0.0
 40
0.0
 40
0.0
 40
0.0
 40
0.2218640572788352
 40
1.0
 40
1.0
 40
1.0
 40
1.0
 10
761.5737766744021
 20
955.8951049482552
 30
0.0
 10
761.5742203897735
 20
955.8951049482552
 30
0.0
 10
761.5762203323369
 20
955.8951049482552
 30
0.0
 10
761.5722433307235
 20
955.8951049482552
 30
0.0
 10
761.5691486828238
 20
955.8951049482552
 30
0.0
  0
SPLINE
  5
A9
330
1F
100
AcDbEntity
  8
0
  6
Continuous
 62
     7
370
    30
100
AcDbSpline
210
0.0
220
0.0
230
1.0
 70
    24
 71
     3
 72
     9
 73
     5
 74
     0
 42
0.000000001
 43
0.00000001
 40
0.0
 40
0.0
 40
0.0
 40
0.0
 40
0.7776443879301217
 40
1.0
 40
1.0
 40
1.0
 40
1.0
 10
761.5691647767853
 20
906.1320743671544
 30
0.0
 10
761.5722498729601
 20
906.1320743671544
 30
0.0
 10
761.5762171055701
 20
906.1320743671542
 30
0.0
 10
761.5742206070522
 20
906.1320743671544
 30
0.0
 10
761.5737766744022
 20
906.1320743671544
 30
0.0
  0
LINE
  5
AA
330
1F
100
AcDbEntity
  8
0
  6
Continuous
 62
     7
370
    30
100
AcDbLine
 10
731.2795961785
 20
963.3535757588
 30
0.0
 11
731.2862204089
 21
963.3605342741
 31
0.0
  0
ARC
  5
AB
330
1F
100
AcDbEntity
  8
0
  6
Continuous
 62
     7
370
    30
100
AcDbCircle
 10
747.999859624
 20
980.9176097578
 30
0.0
 40
24.25000000000041
100
AcDbArc
 50
313.590178654
 51
226.409821346
  0
LINE
  5
AC
330
1F
100
AcDbEntity
  8
0
  6
Continuous
 62
     7
370
    30
100
AcDbLine
 10
764.7201230694
 20
963.3535757588
 30
0.0
 11
764.713498839
 21
963.360534274
 31
0.0
  0
SPLINE
  5
AD
330
1F
100
AcDbEntity
  8
0
  6
Continuous
 62
     7
370
    30
100
AcDbSpline
210
0.0
220
0.0
230
1.0
 70
     8
 71
     3
 72
    10
 73
     6
 74
     0
 42
0.000000001
 43
0.00000001
 40
0.0
 40
0.0
 40
0.0
 40
0.0
 40
0.3354383511918115
 40
0.739227917821195
 40
1.0
 40
1.0
 40
1.0
 40
1.0
 10
731.5437656544865
 20
963.1059175265386
 30
0.0
 10
731.5119470067561
 20
963.135381762152
 30
0.0
 10
731.4418261257478
 20
963.2003140677909
 30
0.0
 10
731.3723696250977
 20
963.2656685465255
 30
0.0
 10
731.3433350828153
 20
963.2931500472927
 30
0.0
 10
731.3319420118194
 20
963.3039337092588
 30
0.0
  0
SPLINE
  5
AE
330
1F
100
AcDbEntity
  8
0
  6
Continuous
 62
     7
370
    30
100
AcDbSpline
210
0.0
220
0.0
230
1.0
 70
     8
 71
     3
 72
    11
 73
     7
 74
     0
 42
0.000000001
 43
0.00000001
 40
0.0
 40
0.0
 40
0.0
 40
0.0
 40
0.1017764932259297
 40
0.3986055940385809
 40
0.697725970666786
 40
1.0
 40
1.0
 40
1.0
 40
1.0
 10
764.5097410057854
 20
963.1558176865135
 30
0.0
 10
764.5226905734563
 20
963.1678186459749
 30
0.0
 10
764.5734072954657
 20
963.2148201629614
 30
0.0
 10
764.6341052973595
 20
963.2720699280677
 30
0.0
 10
764.6943597827733
 20
963.3290355172592
 30
0.0
 10
764.7115053373292
 20
963.3453671311822
 30
0.0
 10
764.7201230694022
 20
963.3535757588268
 30
0.0
  0
SPLINE
  5
AF
330
1F
100
AcDbEntity
  8
0
  6
Continuous
 62
     7
370
    30
100
AcDbSpline
210
0.0
220
0.0
230
1.0
 70
     8
 71
     3
 72
     9
 73
     5
 74
     0
 42
0.000000001
 43
0.00000001
 40
0.0
 40
0.0
 40
0.0
 40
0.0
 40
0.4424812300313596
 40
1.0
 40
1.0
 40
1.0
 40
1.0
 10
730.1191418757637
 20
781.4774530643386
 30
0.0
 10
730.1164650462243
 20
781.477453069598
 30
0.0
 10
730.1104154573201
 20
781.477453081484
 30
0.0
 10
730.1097014067167
 20
781.4774531897195
 30
0.0
 10
730.1093033101026
 20
781.4774532500629
 30
0.0
  0
SPLINE
  5
B0
330
1F
100
AcDbEntity
  8
0
  6
Continuous
 62
     7
370
    30
100
AcDbSpline
210
0.0
220
0.0
230
1.0
 70
     8
 71
     3
 72
     9
 73
     5
 74
     0
 42
0.000000001
 43
0.00000001
 40
0.0
 40
0.0
 40
0.0
 40
0.0
 40
0.303966424582491
 40
1.0
 40
1.0
 40
1.0
 40
1.0
 10
765.8780621945302
 20
781.4774551343639
 30
0.0
 10
765.881624116553
 20
781.4774550392056
 30
0.0
 10
765.8933422595279
 20
781.4774547261499
 30
0.0
 10
765.8898808966469
 20
781.477454590286
 30
0.0
 10
765.887471671865
 20
781.4774544957203
 30
0.0
  0
SPLINE
  5
B1
330
1F
100
AcDbEntity
  8
0
  6
Continuous
 62
     7
370
    30
100
AcDbSpline
210
0.0
220
0.0
230
1.0
 70
     8
 71
     3
 72
     9
 73
     5
 74
     0
 42
0.000000001
 43
0.00000001
 40
0.0
 40
0.0
 40
0.0
 40
0.0
 40
0.635309096741307
 40
1.0
 40
1.0
 40
1.0
 40
1.0
 10
730.1470887739562
 20
764.0258838895018
 30
0.0
 10
730.144004146585
 20
764.0258290115798
 30
0.0
 10
730.1391488290914
 20
764.0257426317025
 30
0.0
 10
730.1395790049647
 20
764.0257532934544
 30
0.0
 10
730.1397358861926
 20
764.0257571816982
 30
0.0
  0
SPLINE
  5
B2
330
1F
100
AcDbEntity
  8
0
  6
Continuous
 62
     7
370
    30
100
AcDbSpline
210
0.0
220
0.0
230
1.0
 70
     8
 71
     3
 72
     9
 73
     5
 74
     0
 42
0.000000001
 43
0.00000001
 40
0.0
 40
0.0
 40
0.0
 40
0.0
 40
0.5018507300914073
 40
1.0
 40
1.0
 40
1.0
 40
1.0
 10
765.8523584835117
 20
764.025939216103
 30
0.0
 10
765.8554864196448
 20
764.0258805601676
 30
0.0
 10
765.8617192214429
 20
764.0257636809207
 30
0.0
 10
765.8608348917703
 20
764.0257764660853
 30
0.0
 10
765.8603943635895
 20
764.0257828350057
 30
0.0
  0
SPLINE
  5
B3
330
1F
100
AcDbEntity
  8
0
  6
Continuous
 62
     7
370
    30
100
AcDbSpline
210
0.0
220
0.0
230
1.0
 70
     8
 71
     3
 72
     9
 73
     5
 74
     0
 42
0.000000001
 43
0.00000001
 40
0.0
 40
0.0
 40
0.0
 40
0.0
 40
0.1332717006932181
 40
1.0
 40
1.0
 40
1.0
 40
1.0
 10
740.0026335746429
 20
754.2433002376016
 30
0.0
 10
740.0026275293517
 20
754.2428121098181
 30
0.0
 10
740.0025821686997
 20
754.2391494584011
 30
0.0
 10
740.0025886246143
 20
754.2404802741011
 30
0.0
 10
740.0025942201382
 20
754.2416337297294
 30
0.0
  0
SPLINE
  5
B4
330
1F
100
AcDbEntity
  8
0
  6
Continuous
 62
     7
370
    30
100
AcDbSpline
210
0.0
220
0.0
230
1.0
 70
     8
 71
     3
 72
     9
 73
     5
 74
     0
 42
0.000000001
 43
0.00000001
 40
0.0
 40
0.0
 40
0.0
 40
0.0
 40
0.0833609964592821
 40
1.0
 40
1.0
 40
1.0
 40
1.0
 10
755.9973014491002
 20
754.2426257158828
 30
0.0
 10
755.9973038897658
 20
754.2423436105897
 30
0.0
 10
755.9973331680351
 20
754.2389594704626
 30
0.0
 10
755.9973111120336
 20
754.2402963718332
 30
0.0
 10
755.9972908946426
 20
754.2415218277735
 30
0.0
  0
LINE
  5
B5
330
1F
100
AcDbEntity
  8
0
  6
Continuous
 62
     7
370
    30
100
AcDbLine
 10
747.999859624
 20
1013.7176097643
 30
0.0
 11
734.749859624
 21
1013.7176097643
 31
0.0
  0
LINE
  5
B6
330
1F
100
AcDbEntity
  8
0
  6
Continuous
 62
     7
370
    30
100
AcDbLine
 10
761.249859624
 20
1013.7176097643
 30
0.0
 11
747.999859624
 21
1013.7176097643
 31
0.0
  0
ARC
  5
B7
330
1F
100
AcDbEntity
  8
0
  6
Continuous
 62
     7
370
    30
100
AcDbCircle
 10
747.999859624
 20
980.9176097643
 30
0.0
 40
67.50000000000125
100
AcDbArc
 50
191.3204595668
 51
254.6304940006
  0
ARC
  5
B8
330
1F
100
AcDbEntity
  8
0
  6
Continuous
 62
     7
370
    30
100
AcDbCircle
 10
747.999859624
 20
980.9176097643
 30
0.0
 40
67.5000000000001
100
AcDbArc
 50
11.3204595668
 51
168.6795404332
  0
ARC
  5
B9
330
1F
100
AcDbEntity
  8
0
  6
Continuous
 62
     7
370
    30
100
AcDbCircle
 10
747.999859624
 20
980.9176097643
 30
0.0
 40
67.5000000000013
100
AcDbArc
 50
285.3690994212
 51
348.6795404332
  0
LINE
  5
BA
330
1F
100
AcDbEntity
  8
0
  6
Continuous
 62
     7
370
    30
100
AcDbLine
 10
644.999859624
 20
988.9176097643
 30
0.0
 11
646.4014528796
 21
988.9176097643
 31
0.0
  0
LINE
  5
BB
330
1F
100
AcDbEntity
  8
0
  6
Continuous
 62
     7
370
    30
100
AcDbLine
 10
644.999859624
 20
972.9176097643
 30
0.0
 11
646.4015049731
 21
972.9176097643
 31
0.0
  0
ARC
  5
BC
330
1F
100
AcDbEntity
  8
0
  6
Continuous
 62
     7
370
    30
100
AcDbCircle
 10
644.999859624
 20
989.9176097643
 30
0.0
 40
1.0
100
AcDbArc
 50
180.0
 51
270.0
  0
ARC
  5
BD
330
1F
100
AcDbEntity
  8
0
  6
Continuous
 62
     7
370
    30
100
AcDbCircle
 10
644.999859624
 20
971.9176097643
 30
0.0
 40
1.0
100
AcDbArc
 50
90.0
 51
180.0
  0
LINE
  5
BE
330
1F
100
AcDbEntity
  8
0
  6
Continuous
 62
     7
370
    30
100
AcDbLine
 10
643.999859624
 20
989.9176097643
 30
0.0
 11
643.999859624
 21
993.1676097643
 31
0.0
  0
LINE
  5
BF
330
1F
100
AcDbEntity
  8
0
  6
Continuous
 62
     7
370
    30
100
AcDbLine
 10
643.999859624
 20
968.6676097643
 30
0.0
 11
643.999859624
 21
971.9176097643
 31
0.0
  0
ARC
  5
C0
330
1F
100
AcDbEntity
  8
0
  6
Continuous
 62
     7
370
    30
100
AcDbCircle
 10
655.999859624
 20
980.9176097643
 30
0.0
 40
12.50000000000036
100
AcDbArc
 50
89.3576712541
 51
90.0
  0
SPLINE
  5
C1
330
1F
100
AcDbEntity
  8
0
  6
Continuous
 62
     7
370
    30
100
AcDbSpline
210
0.0
220
0.0
230
1.0
 70
     8
 71
     3
 72
    63
 73
    59
 74
     0
 42
0.000000001
 43
0.00000001
 40
0.0
 40
0.0
 40
0.0
 40
0.0
 40
0.0178571428571433
 40
0.0357142857142859
 40
0.0535714285714286
 40
0.0714285714285713
 40
0.0892857142857143
 40
0.1071428571428571
 40
0.1249999999999998
 40
0.1428571428571426
 40
0.1607142857142857
 40
0.1785714285714284
 40
0.1964285714285715
 40
0.2142857142857144
 40
0.2321428571428572
 40
0.2499999999999999
 40
0.2678571428571427
 40
0.2857142857142858
 40
0.3035714285714286
 40
0.3214285714285714
 40
0.3392857142857142
 40
0.3571428571428572
 40
0.3750000000000002
 40
0.3928571428571428
 40
0.4107142857142858
 40
0.4285714285714287
 40
0.4464285714285714
 40
0.4642857142857142
 40
0.4821428571428571
 40
0.5
 40
0.5178571428571429
 40
0.5357142857142857
 40
0.5535714285714286
 40
0.5714285714285716
 40
0.5892857142857144
 40
0.6071428571428573
 40
0.6249999999999998
 40
0.6428571428571428
 40
0.6607142857142856
 40
0.6785714285714287
 40
0.6964285714285716
 40
0.7142857142857144
 40
0.7321428571428573
 40
0.7499999999999997
 40
0.7678571428571428
 40
0.7857142857142858
 40
0.8035714285714284
 40
0.8214285714285714
 40
0.8392857142857145
 40
0.8571428571428573
 40
0.8750000000000001
 40
0.8928571428571428
 40
0.9107142857142858
 40
0.9285714285714287
 40
0.9464285714285715
 40
0.9642857142857146
 40
0.9821428571428574
 40
1.0
 40
1.0
 40
1.0
 40
1.0
 10
656.1399910823341
 20
993.4168242665978
 30
0.0
 10
656.3728496075248
 20
993.4104539042737
 30
0.0
 10
656.8385666579064
 20
993.3977131796255
 30
0.0
 10
657.53440484722
 20
993.3291521200447
 30
0.0
 10
658.2254806083452
 20
993.2246213472847
 30
0.0
 10
658.9095951962653
 20
993.0808927765997
 30
0.0
 10
659.5846221424442
 20
992.8993678718385
 30
0.0
 10
660.2484498282911
 20
992.6803584983006
 30
0.0
 10
660.8990052491544
 20
992.4246172162268
 30
0.0
 10
661.5342558903188
 20
992.1329246278751
 30
0.0
 10
662.1522173090644
 20
991.8061968790284
 30
0.0
 10
662.7509590037222
 20
991.445453338636
 30
0.0
 10
663.3286105329782
 20
991.0518213076878
 30
0.0
 10
663.8833673353466
 20
990.6265303825566
 30
0.0
 10
664.4134963729014
 20
990.1709091805037
 30
0.0
 10
664.9173415435158
 20
989.6863810372811
 30
0.0
 10
665.393328854915
 20
989.1744596013747
 30
0.0
 10
665.8399713416441
 20
988.6367440945241
 30
0.0
 10
666.2558737103213
 20
988.0749143187397
 30
0.0
 10
666.6397366984709
 20
987.4907254078842
 30
0.0
 10
666.9903611333688
 20
986.8860023449141
 30
0.0
 10
667.3066516782109
 20
986.2626342606497
 30
0.0
 10
667.5876202539017
 20
985.62256853222
 30
0.0
 10
667.8323891257737
 20
984.9678046995305
 30
0.0
 10
668.0401936455961
 20
984.3003882187801
 30
0.0
 10
668.2103846403049
 20
983.6224040725377
 30
0.0
 10
668.3424304399948
 20
982.9359702563398
 30
0.0
 10
668.4359185388337
 20
982.2432311621556
 30
0.0
 10
668.4905568837149
 20
981.546350879392
 30
0.0
 10
668.5061747866202
 20
980.8475064343653
 30
0.0
 10
668.4827234578413
 20
980.148880989356
 30
0.0
 10
668.4202761583975
 20
979.4526570224976
 30
0.0
 10
668.3190279711713
 20
978.7610095098012
 30
0.0
 10
668.1792951914766
 20
978.0760991306165
 30
0.0
 10
668.001514338966
 20
977.4000655177566
 30
0.0
 10
667.7862407939592
 20
976.7350205733686
 30
0.0
 10
667.5341470624577
 20
976.0830418714361
 30
0.0
 10
667.246020675263
 20
975.4461661675206
 30
0.0
 10
666.9227617277613
 20
974.8263830360173
 30
0.0
 10
666.5653800680611
 20
974.2256286548053
 30
0.0
 10
666.1749921422685
 20
973.6457797567009
 30
0.0
 10
665.7528175067532
 20
973.0886477666329
 30
0.0
 10
665.3001750183034
 20
972.5559731427686
 30
0.0
 10
664.8184787140692
 20
972.0494199395998
 30
0.0
 10
664.3092333941668
 20
971.5705706087205
 30
0.0
 10
663.774029920743
 20
971.1209210582323
 30
0.0
 10
663.214540248185
 20
970.7018759686848
 30
0.0
 10
662.6325122000009
 20
970.3147444455986
 30
0.0
 10
662.0297640086885
 20
969.9607357780122
 30
0.0
 10
661.4081786356505
 20
969.6409562274628
 30
0.0
 10
660.7696978888958
 20
969.3564034569214
 30
0.0
 10
660.1163163569103
 20
969.1079713079723
 30
0.0
 10
659.4500751776405
 20
968.8964175482806
 30
0.0
 10
658.7730556620603
 20
968.722471451343
 30
0.0
 10
658.087372792238
 20
968.5864211905262
 30
0.0
 10
657.3951686142163
 20
968.4896443028002
 30
0.0
 10
656.6986055463457
 20
968.428888257204
 30
0.0
 10
656.2327749314319
 20
968.4213692619367
 30
0.0
 10
655.999859623975
 20
968.417609764303
 30
0.0
  0
SPLINE
  5
C2
330
1F
100
AcDbEntity
  8
0
  6
Continuous
 62
     7
370
    30
100
AcDbSpline
210
0.0
220
0.0
230
1.0
 70
     8
 71
     3
 72
    63
 73
    59
 74
     0
 42
0.000000001
 43
0.00000001
 40
0.0
 40
0.0
 40
0.0
 40
0.0
 40
0.0178571428571429
 40
0.0357142857142858
 40
0.0535714285714288
 40
0.0714285714285715
 40
0.0892857142857144
 40
0.1071428571428571
 40
0.1250000000000002
 40
0.1428571428571428
 40
0.1607142857142858
 40
0.1785714285714289
 40
0.1964285714285715
 40
0.2142857142857143
 40
0.2321428571428574
 40
0.2500000000000004
 40
0.2678571428571428
 40
0.2857142857142856
 40
0.3035714285714291
 40
0.3214285714285715
 40
0.339285714285714
 40
0.357142857142857
 40
0.3749999999999998
 40
0.3928571428571427
 40
0.4107142857142858
 40
0.4285714285714286
 40
0.4464285714285714
 40
0.4642857142857139
 40
0.4821428571428573
 40
0.5000000000000001
 40
0.5178571428571432
 40
0.5357142857142859
 40
0.5535714285714288
 40
0.5714285714285718
 40
0.5892857142857146
 40
0.6071428571428574
 40
0.6250000000000002
 40
0.6428571428571429
 40
0.6607142857142857
 40
0.6785714285714285
 40
0.6964285714285716
 40
0.7142857142857145
 40
0.7321428571428572
 40
0.7499999999999999
 40
0.7678571428571427
 40
0.7857142857142858
 40
0.8035714285714286
 40
0.8214285714285715
 40
0.8392857142857146
 40
0.8571428571428573
 40
0.8749999999999998
 40
0.8928571428571428
 40
0.9107142857142856
 40
0.9285714285714285
 40
0.9464285714285716
 40
0.9642857142857143
 40
0.9821428571428574
 40
1.0
 40
1.0
 40
1.0
 40
1.0
 10
655.8597281656162
 20
968.4183952620082
 30
0.0
 10
655.6268696404254
 20
968.4247656243323
 30
0.0
 10
655.1611525900437
 20
968.4375063489806
 30
0.0
 10
654.4653144007302
 20
968.5060674085614
 30
0.0
 10
653.774238639605
 20
968.6105981813214
 30
0.0
 10
653.0901240516849
 20
968.7543267520062
 30
0.0
 10
652.415097105506
 20
968.9358516567675
 30
0.0
 10
651.751269419659
 20
969.1548610303054
 30
0.0
 10
651.1007139987959
 20
969.4106023123793
 30
0.0
 10
650.4654633576313
 20
969.7022949007309
 30
0.0
 10
649.8475019388858
 20
970.0290226495775
 30
0.0
 10
649.2487602442279
 20
970.3897661899699
 30
0.0
 10
648.671108714972
 20
970.7833982209182
 30
0.0
 10
648.1163519126036
 20
971.2086891460494
 30
0.0
 10
647.5862228750486
 20
971.6643103481022
 30
0.0
 10
647.0823777044343
 20
972.1488384913248
 30
0.0
 10
646.6063903930352
 20
972.6607599272313
 30
0.0
 10
646.159747906306
 20
973.1984754340817
 30
0.0
 10
645.7438455376288
 20
973.7603052098663
 30
0.0
 10
645.3599825494792
 20
974.3444941207217
 30
0.0
 10
645.0093581145813
 20
974.9492171836919
 30
0.0
 10
644.6930675697392
 20
975.5725852679562
 30
0.0
 10
644.4120989940485
 20
976.2126509963858
 30
0.0
 10
644.1673301221764
 20
976.8674148290754
 30
0.0
 10
643.9595256023541
 20
977.5348313098259
 30
0.0
 10
643.7893346076451
 20
978.2128154560681
 30
0.0
 10
643.6572888079553
 20
978.8992492722662
 30
0.0
 10
643.5638007091164
 20
979.5919883664504
 30
0.0
 10
643.5091623642352
 20
980.2888686492139
 30
0.0
 10
643.4935444613297
 20
980.9877130942407
 30
0.0
 10
643.5169957901088
 20
981.68633853925
 30
0.0
 10
643.5794430895525
 20
982.3825625061083
 30
0.0
 10
643.6806912767788
 20
983.0742100188049
 30
0.0
 10
643.8204240564734
 20
983.7591203979894
 30
0.0
 10
643.9982049089841
 20
984.4351540108494
 30
0.0
 10
644.2134784539909
 20
985.1001989552374
 30
0.0
 10
644.4655721854924
 20
985.7521776571698
 30
0.0
 10
644.7536985726871
 20
986.3890533610854
 30
0.0
 10
645.0769575201889
 20
987.0088364925888
 30
0.0
 10
645.434339179889
 20
987.6095908738006
 30
0.0
 10
645.8247271056816
 20
988.1894397719052
 30
0.0
 10
646.2469017411969
 20
988.746571761973
 30
0.0
 10
646.6995442296466
 20
989.2792463858373
 30
0.0
 10
647.1812405338809
 20
989.7857995890063
 30
0.0
 10
647.6904858537833
 20
990.2646489198856
 30
0.0
 10
648.225689327207
 20
990.7142984703736
 30
0.0
 10
648.7851789997651
 20
991.1333435599212
 30
0.0
 10
649.3672070479493
 20
991.5204750830075
 30
0.0
 10
649.9699552392615
 20
991.8744837505939
 30
0.0
 10
650.5915406122996
 20
992.1942633011432
 30
0.0
 10
651.2300213590543
 20
992.4788160716845
 30
0.0
 10
651.8834028910397
 20
992.7272482206338
 30
0.0
 10
652.5496440703096
 20
992.9388019803255
 30
0.0
 10
653.2266635858898
 20
993.1127480772631
 30
0.0
 10
653.912346455712
 20
993.2487983380797
 30
0.0
 10
654.6045506337337
 20
993.3455752258058
 30
0.0
 10
655.3011137016044
 20
993.4063312714021
 30
0.0
 10
655.7669443165182
 20
993.4138502666694
 30
0.0
 10
655.9998596239751
 20
993.417609764303
 30
0.0
  0
ARC
  5
C3
330
1F
100
AcDbEntity
  8
0
  6
Continuous
 62
     7
370
    30
100
AcDbCircle
 10
655.999859624
 20
980.9176097643
 30
0.0
 40
12.50000000000013
100
AcDbArc
 50
269.3576712541
 51
270.0
  0
LINE
  5
C4
330
1F
100
AcDbEntity
  8
0
  6
Continuous
 62
     7
370
    30
100
AcDbLine
 10
647.899859624
 20
969.3176097643
 30
0.0
 11
650.399859624
 21
969.3176097643
 31
0.0
  0
LINE
  5
C5
330
1F
100
AcDbEntity
  8
0
  6
Continuous
 62
     7
370
    30
100
AcDbLine
 10
661.599859624
 20
969.3176097643
 30
0.0
 11
664.099859624
 21
969.3176097643
 31
0.0
  0
LINE
  5
C6
330
1F
100
AcDbEntity
  8
0
  6
Continuous
 62
     7
370
    30
100
AcDbLine
 10
657.099859624
 20
967.8176097643
 30
0.0
 11
659.599859624
 21
967.8176097643
 31
0.0
  0
LINE
  5
C7
330
1F
100
AcDbEntity
  8
0
  6
Continuous
 62
     7
370
    30
100
AcDbLine
 10
652.399859624
 20
967.8176097643
 30
0.0
 11
654.899859624
 21
967.8176097643
 31
0.0
  0
LINE
  5
C8
330
1F
100
AcDbEntity
  8
0
  6
Continuous
 62
     7
370
    30
100
AcDbLine
 10
655.999859624
 20
993.4176097643
 30
0.0
 11
656.4185026187
 21
993.4059120118
 31
0.0
  0
LINE
  5
C9
330
1F
100
AcDbEntity
  8
0
  6
Continuous
 62
     7
370
    30
100
AcDbLine
 10
656.4298945297
 20
968.4296323012
 30
0.0
 11
656.1610392313
 21
968.4186489621
 31
0.0
  0
LINE
  5
CA
330
1F
100
AcDbEntity
  8
0
  6
Continuous
 62
     7
370
    30
100
AcDbLine
 10
655.999859624
 20
968.4176097643
 30
0.0
 11
655.5812166293
 21
968.4293075168
 31
0.0
  0
LINE
  5
CB
330
1F
100
AcDbEntity
  8
0
  6
Continuous
 62
     7
370
    30
100
AcDbLine
 10
655.5698247182
 20
993.4055872274
 30
0.0
 11
655.8386800167
 21
993.4165705665
 31
0.0
  0
LINE
  5
CC
330
1F
100
AcDbEntity
  8
0
  6
Continuous
 62
     7
370
    30
100
AcDbLine
 10
852.999859624
 20
968.6676097643
 30
0.0
 11
852.999859624
 21
993.1676097643
 31
0.0
  0
LINE
  5
CD
330
1F
100
AcDbEntity
  8
0
  6
Continuous
 62
     8
370
     0
100
AcDbLine
 10
877.9036701137
 20
905.9176098093
 30
0.0
 11
877.0376405191
 21
906.4175778626
 31
0.0
  0
LWPOLYLINE
  5
CE
330
1F
100
AcDbEntity
  8
0
  6
Continuous
 62
     8
370
     0
100
AcDbPolyline
 90
        3
 70
   128
 43
0.0
 10
618.0960490564
 20
1055.9176097645
 10
618.5290542681
 20
1055.6675967903
 10
618.9620595783
 20
1055.4175839901
  0
LINE
  5
CF
330
1F
100
AcDbEntity
  8
0
  6
Continuous
 62
     8
370
     0
100
AcDbLine
 10
756.6247376813
 20
893.0571224754
 30
0.0
 11
747.999859624
 21
893.0571224754
 31
0.0
  0
LINE
  5
D0
330
1F
100
AcDbEntity
  8
0
  6
Continuous
 62
     8
370
     0
100
AcDbLine
 10
747.999859624
 20
893.0571225626
 30
0.0
 11
739.3749815666
 21
893.0571225626
 31
0.0
  0
SPLINE
  5
D1
330
1F
100
AcDbEntity
  8
0
  6
Continuous
 62
     8
370
     0
100
AcDbSpline
210
0.0
220
0.0
230
1.0
 70
     8
 71
     3
 72
    24
 73
    20
 74
     0
 42
0.000000001
 43
0.00000001
 40
0.0
 40
0.0
 40
0.0
 40
0.0
 40
0.0507667077308657
 40
0.1009759101006929
 40
0.150943206456034
 40
0.2009887729047812
 40
0.2514312951549067
 40
0.3135595165127166
 40
0.3758618393227952
 40
0.437878612788524
 40
0.500023566252292
 40
0.5620914523992369
 40
0.6241854524626079
 40
0.686410595622791
 40
0.7486160678078208
 40
0.8111169814040606
 40
0.8737020039147455
 40
0.9369236469092972
 40
1.0
 40
1.0
 40
1.0
 40
1.0
 10
739.3749815666447
 20
893.0571224753539
 30
0.0
 10
739.2566898563431
 20
893.0597146645055
 30
0.0
 10
739.0214054812285
 20
893.0648705761339
 30
0.0
 10
738.6718101380135
 20
893.1073780159957
 30
0.0
 10
738.3282566066846
 20
893.1754730509188
 30
0.0
 10
737.9907918462657
 20
893.2716032036678
 30
0.0
 10
737.6354396558115
 20
893.4038801927719
 30
0.0
 10
737.2669759947911
 20
893.5791886866573
 30
0.0
 10
736.8945272550576
 20
893.8039543986408
 30
0.0
 10
736.5454796299656
 20
894.0636288460715
 30
0.0
 10
736.2238285065964
 20
894.3557407943669
 30
0.0
 10
735.9315753438021
 20
894.6775048856508
 30
0.0
 10
735.6719824854741
 20
895.0263884943228
 30
0.0
 10
735.4471006949425
 20
895.3989893773092
 30
0.0
 10
735.2596701426576
 20
895.7927925372003
 30
0.0
 10
735.1111268686258
 20
896.2038448694907
 30
0.0
 10
735.00460398253
 20
896.6299419377912
 30
0.0
 10
734.9369621153171
 20
897.065824488114
 30
0.0
 10
734.9289341742445
 20
897.360170334856
 30
0.0
 10
734.9249248212747
 20
897.5071739543541
 30
0.0
  0
LINE
  5
D2
330
1F
100
AcDbEntity
  8
0
  6
Continuous
 62
     8
370
     0
100
AcDbLine
 10
734.9249248213
 20
897.5071739544
 30
0.0
 11
734.9247594652
 21
906.1320830804
 31
0.0
  0
LINE
  5
D3
330
1F
100
AcDbEntity
  8
0
  6
Continuous
 62
     8
370
     0
100
AcDbLine
 10
734.9247594654
 20
906.1320743672
 30
0.0
 11
734.9247594654
 21
955.8951028556
 31
0.0
  0
SPLINE
  5
D4
330
1F
100
AcDbEntity
  8
0
  6
Continuous
 62
     8
370
     0
100
AcDbSpline
210
0.0
220
0.0
230
1.0
 70
     8
 71
     3
 72
    25
 73
    21
 74
     0
 42
0.000000001
 43
0.00000001
 40
0.0
 40
0.0
 40
0.0
 40
0.0
 40
0.0441826587399287
 40
0.0880987025106542
 40
0.131797611550319
 40
0.1753296065158934
 40
0.2187454872941293
 40
0.264722872945184
 40
0.3204118034187545
 40
0.3759266203216682
 40
0.4313806750420733
 40
0.4868876912184025
 40
0.5510717688084201
 40
0.6150499457115965
 40
0.6790010055008757
 40
0.7431039586390505
 40
0.8074363601810669
 40
0.8715749550310701
 40
0.9357020375458857
 40
1.0
 40
1.0
 40
1.0
 40
1.0
 10
734.9247591895746
 20
955.895102855555
 30
0.0
 10
734.9235417910533
 20
956.0236357745839
 30
0.0
 10
734.9211143402562
 20
956.2799259961164
 30
0.0
 10
734.9013124681455
 20
956.6629204771808
 30
0.0
 10
734.8696512063673
 20
957.0431669474837
 30
0.0
 10
734.8249917556292
 20
957.4206644158094
 30
0.0
 10
734.766475835746
 20
957.8029640684704
 30
0.0
 10
734.6878477698378
 20
958.2177111432735
 30
0.0
 10
734.5844406583618
 20
958.663265074152
 30
0.0
 10
734.4535984047003
 20
959.13025086866
 30
0.0
 10
734.3019041726038
 20
959.59033235139
 30
0.0
 10
734.1205533471094
 20
960.0666392078681
 30
0.0
 10
733.9062966355433
 20
960.5563642591922
 30
0.0
 10
733.6554602220402
 20
961.0560540880863
 30
0.0
 10
733.3786261751159
 20
961.5415582509918
 30
0.0
 10
733.0759324641818
 20
962.0125830127994
 30
0.0
 10
732.7487184876286
 20
962.4676302156627
 30
0.0
 10
732.3973004908551
 20
962.9042482633309
 30
0.0
 10
732.0245723192348
 20
963.3229482301937
 30
0.0
 10
731.7578716476868
 20
963.5846805178884
 30
0.0
 10
731.6243438784746
 20
963.7157207897551
 30
0.0
  0
SPLINE
  5
D5
330
1F
100
AcDbEntity
  8
0
  6
Continuous
 62
     8
370
     0
100
AcDbSpline
210
0.0
220
0.0
230
1.0
 70
     8
 71
     3
 72
    79
 73
    75
 74
     0
 42
0.000000001
 43
0.00000001
 40
0.0
 40
0.0
 40
0.0
 40
0.0
 40
0.0134629478346907
 40
0.0269097777006099
 40
0.0403543142976372
 40
0.0538103893939306
 40
0.0675253498213579
 40
0.0784546294064583
 40
0.0893764590528108
 40
0.1002982584691877
 40
0.1112274474259289
 40
0.1221714306635673
 40
0.1380647858520956
 40
0.1539377423014361
 40
0.1698130738436549
 40
0.1857135441054693
 40
0.2017933122625459
 40
0.2178518986687396
 40
0.2339128880054391
 40
0.2499998543854152
 40
0.2644088904922672
 40
0.2787989545071797
 40
0.2931870071748697
 40
0.3075900163456427
 40
0.3219198225717849
 40
0.3331022015309191
 40
0.3442765447226308
 40
0.3554508002317319
 40
0.3666329163300047
 40
0.3778308245509128
 40
0.393364012087524
 40
0.4088782602402781
 40
0.4243948296975915
 40
0.4399349716204544
 40
0.4549573377547877
 40
0.4699628089960555
 40
0.4849706170420742
 40
0.499999984620082
 40
0.5134612829648318
 40
0.5269074131293986
 40
0.5403522063651623
 40
0.5538094980457436
 40
0.5675253499152308
 40
0.5784546295002555
 40
0.5893764591465808
 40
0.6002982585629778
 40
0.611227447519786
 40
0.6221714307575368
 40
0.6380647859455872
 40
0.6539377423947735
 40
0.669813073937164
 40
0.685713544199476
 40
0.7017933123562039
 40
0.7178518987622884
 40
0.7339128880991178
 40
0.7499998544794622
 40
0.7644088905864256
 40
0.77879895460139
 40
0.7931870072690739
 40
0.8075900164397845
 40
0.8219198226669748
 40
0.8331022016271779
 40
0.8442765448193177
 40
0.8554508003282069
 40
0.8666329164256299
 40
0.8778308246450536
 40
0.8933640121831172
 40
0.9088782603363614
 40
0.9243948297931945
 40
0.9399349717146027
 40
0.954959131849075
 40
0.9699652003261114
 40
0.9849724126668638
 40
0.9999999999999999
 40
0.9999999999999999
 40
0.9999999999999999
 40
0.9999999999999999
 10
731.6243438784746
 20
963.7157207897551
 30
0.0
 10
731.4421675105567
 20
963.8923722957496
 30
0.0
 10
731.0780328779954
 20
964.2454638188813
 30
0.0
 10
730.55382065561
 20
964.7967881372076
 30
0.0
 10
730.0464228465016
 20
965.3633229425424
 30
0.0
 10
729.5545442204591
 20
965.9500430167723
 30
0.0
 10
729.1110084760215
 20
966.5149336521597
 30
0.0
 10
728.7126377269592
 20
967.05412344248
 30
0.0
 10
728.3586200243183
 20
967.5603663115236
 30
0.0
 10
728.0179251474468
 20
968.075665850351
 30
0.0
 10
727.69055231887
 20
968.6000247167353
 30
0.0
 10
727.3293818367544
 20
969.2134627318067
 30
0.0
 10
726.94312649278
 20
969.9199355504056
 30
0.0
 10
726.5424328178742
 20
970.7237172202755
 30
0.0
 10
726.172438803557
 20
971.542235972606
 30
0.0
 10
725.8322075395993
 20
972.3777740614166
 30
0.0
 10
725.5226658078909
 20
973.2288450949774
 30
0.0
 10
725.2450354712628
 20
974.0940346700594
 30
0.0
 10
725.0007554906591
 20
974.9693646422841
 30
0.0
 10
724.7973654248336
 20
975.8231561794589
 30
0.0
 10
724.6311214781681
 20
976.6527993482805
 30
0.0
 10
724.4986587769127
 20
977.45606589508
 30
0.0
 10
724.3938861578309
 20
978.2632959243779
 30
0.0
 10
724.317005906404
 20
979.0725143889687
 30
0.0
 10
724.2713863639462
 20
979.8235675476659
 30
0.0
 10
724.2503913685936
 20
980.5147623519459
 30
0.0
 10
724.2480573022035
 20
981.1467970524627
 30
0.0
 10
724.2625862083245
 20
981.7786622946514
 30
0.0
 10
724.2939817222025
 20
982.4103610013975
 30
0.0
 10
724.3484264004006
 20
983.1229173215448
 30
0.0
 10
724.4342035677947
 20
983.9146781495966
 30
0.0
 10
724.5609857165613
 20
984.7832706275799
 30
0.0
 10
724.7198821250034
 20
985.6467018402944
 30
0.0
 10
724.9085794494944
 20
986.4946154042391
 30
0.0
 10
725.1254064620258
 20
987.325806737497
 30
0.0
 10
725.368971561109
 20
988.1390932993579
 30
0.0
 10
725.6415560780603
 20
988.9432559608764
 30
0.0
 10
725.9323985716875
 20
989.7099428132657
 30
0.0
 10
726.237566259512
 20
990.439185554259
 30
0.0
 10
726.5535540313796
 20
991.1311016237483
 30
0.0
 10
726.8915499629836
 20
991.8124528562366
 30
0.0
 10
727.2536330052623
 20
992.4870877173632
 30
0.0
 10
727.6135072863883
 20
993.1086810579873
 30
0.0
 10
727.9662478793672
 20
993.6787864956837
 30
0.0
 10
728.3048619643159
 20
994.1954597106328
 30
0.0
 10
728.6568303382167
 20
994.7031257198237
 30
0.0
 10
729.0221572054905
 20
995.2017854231132
 30
0.0
 10
729.4576468461316
 20
995.7649009327349
 30
0.0
 10
729.9702072661441
 20
996.385850894729
 30
0.0
 10
730.5677598765558
 20
997.0563367407585
 30
0.0
 10
731.1903945554334
 20
997.7037891141485
 30
0.0
 10
731.8398825473198
 20
998.329925328611
 30
0.0
 10
732.5151878157801
 20
998.9333329704892
 30
0.0
 10
733.2154507254189
 20
999.5123523674052
 30
0.0
 10
733.9375117683654
 20
1000.064170380409
 30
0.0
 10
734.6547559393078
 20
1000.570024417751
 30
0.0
 10
735.3633698417591
 20
1001.032421622162
 30
0.0
 10
736.0600351647417
 20
1001.453659013884
 30
0.0
 10
736.7706616535077
 20
1001.850657270034
 30
0.0
 10
737.4934905481058
 20
1002.222495253052
 30
0.0
 10
738.173918663557
 20
1002.543711021244
 30
0.0
 10
738.8079100454459
 20
1002.819837757942
 30
0.0
 10
739.3938988104096
 20
1003.056672043653
 30
0.0
 10
739.985991253984
 20
1003.277785833729
 30
0.0
 10
740.5841914396686
 20
1003.483176885794
 30
0.0
 10
741.2660272313559
 20
1003.697187708942
 30
0.0
 10
742.0330391892438
 20
1003.911514241794
 30
0.0
 10
742.8866153701745
 20
1004.116290397031
 30
0.0
 10
743.747322828228
 20
1004.28934370612
 30
0.0
 10
744.6047201496942
 20
1004.428925363855
 30
0.0
 10
745.4570458158698
 20
1004.536340678565
 30
0.0
 10
746.3026627932381
 20
1004.611697942029
 30
0.0
 10
747.1505170862638
 20
1004.658882283705
 30
0.0
 10
747.7166174344474
 20
1004.664699284361
 30
0.0
 10
747.9998596239749
 20
1004.667609757756
 30
0.0
  0
SPLINE
  5
D6
330
1F
100
AcDbEntity
  8
0
  6
Continuous
 62
     8
370
     0
100
AcDbSpline
210
0.0
220
0.0
230
1.0
 70
     8
 71
     3
 72
    79
 73
    75
 74
     0
 42
0.000000001
 43
0.00000001
 40
0.0
 40
0.0
 40
0.0
 40
0.0
 40
0.013462947834626
 40
0.026909777700519
 40
0.0403543142975583
 40
0.0538103893939017
 40
0.0675253498211208
 40
0.0784546294059849
 40
0.0893764590522462
 40
0.1002982584686764
 40
0.1112274474256153
 40
0.1221714306635948
 40
0.1380647858514948
 40
0.1539377423006314
 40
0.1698130738430716
 40
0.1857135441055323
 40
0.2017933122618314
 40
0.2178518986677727
 40
0.233912888004745
 40
0.249999854385517
 40
0.2644088904917391
 40
0.27879895450639
 40
0.2931870071741885
 40
0.3075900163454406
 40
0.3219198225724642
 40
0.3331022015321187
 40
0.3442765447240406
 40
0.3554508002330425
 40
0.3666329163309092
 40
0.3778308245511064
 40
0.3933640120890628
 40
0.4088782602422704
 40
0.4243948296991409
 40
0.4399349716206631
 40
0.4549573377553296
 40
0.4699628089967099
 40
0.48497061704262
 40
0.4999999846202973
 40
0.5134612829645966
 40
0.5269074131289725
 40
0.5403522063648035
 40
0.5538094980457083
 40
0.5675253499154854
 40
0.5784546295005597
 40
0.5893764591469017
 40
0.6002982585632841
 40
0.6112274475200482
 40
0.622171430757727
 40
0.6380647859460513
 40
0.6539377423953244
 40
0.6698130739376098
 40
0.6857135441996213
 40
0.7017933123561033
 40
0.7178518987620982
 40
0.733912888098997
 40
0.7499998544795714
 40
0.7644088905860641
 40
0.7787989546008249
 40
0.7931870072685703
 40
0.8075900164396055
 40
0.8219198226663481
 40
0.8331022016258794
 40
0.8442765448177485
 40
0.8554508003267683
 40
0.8666329164247235
 40
0.8778308246450797
 40
0.8933640121827715
 40
0.9088782603358871
 40
0.9243948297928382
 40
0.9399349717146129
 40
0.9549591318492856
 40
0.9699652003263877
 40
0.9849724126670699
 40
1.0
 40
1.0
 40
1.0
 40
1.0
 10
747.9998596239749
 20
1004.667609757756
 30
0.0
 10
748.2536085575065
 20
1004.665272595193
 30
0.0
 10
748.7608026339418
 20
1004.660601068141
 30
0.0
 10
749.5206199181843
 20
1004.622724259401
 30
0.0
 10
750.2787462508184
 20
1004.562237185479
 30
0.0
 10
751.0395498434341
 20
1004.47642971657
 30
0.0
 10
751.7502878696772
 20
1004.373100898791
 30
0.0
 10
752.4105927241804
 20
1004.25724589113
 30
0.0
 10
753.0160563572962
 20
1004.134672789642
 30
0.0
 10
753.6181149322733
 20
1003.996354005154
 30
0.0
 10
754.2167708447517
 20
1003.842288148732
 30
0.0
 10
754.9013257250277
 20
1003.647006476848
 30
0.0
 10
755.6681963904974
 20
1003.401636518223
 30
0.0
 10
756.5126186008791
 20
1003.095741888454
 30
0.0
 10
757.3449665027808
 20
1002.758006061557
 30
0.0
 10
758.1674922945872
 20
1002.387422018938
 30
0.0
 10
758.9784998571264
 20
1001.984427327501
 30
0.0
 10
759.776128982774
 20
1001.549203956645
 30
0.0
 10
760.5565945342032
 20
1001.08364107984
 30
0.0
 10
761.2925932748406
 20
1000.605484869358
 30
0.0
 10
761.985037261635
 20
1000.119207003808
 30
0.0
 10
762.6348272685435
 20
999.6287414501458
 30
0.0
 10
763.267294427089
 20
999.1163130012078
 30
0.0
 10
763.8809304379453
 20
998.5832126891468
 30
0.0
 10
764.4318199171341
 20
998.0706868150531
 30
0.0
 10
764.9236020215634
 20
997.584537240232
 30
0.0
 10
765.3610775811896
 20
997.1283701159585
 30
0.0
 10
765.7862226166628
 20
996.6606987867059
 30
0.0
 10
766.1990365103268
 20
996.1815186289725
 30
0.0
 10
766.6509070758327
 20
995.6278818126376
 30
0.0
 10
767.1346949746571
 20
994.9952743511996
 30
0.0
 10
767.6417584421849
 20
994.2787457432584
 30
0.0
 10
768.1220032019008
 20
993.5438127541858
 30
0.0
 10
768.5699641068442
 20
992.7995714493751
 30
0.0
 10
768.9860210571693
 20
992.0480465995508
 30
0.0
 10
769.3703666196338
 20
991.2910542100121
 30
0.0
 10
769.727402818817
 20
990.5206614157024
 30
0.0
 10
770.045375548942
 20
989.7648231865851
 30
0.0
 10
770.3271551407175
 20
989.0262281997258
 30
0.0
 10
770.575361284864
 20
988.3072081518975
 30
0.0
 10
770.8003427311281
 20
987.5806655856038
 30
0.0
 10
771.00324721536
 20
986.8423796683256
 30
0.0
 10
771.1711795989611
 20
986.1440341278659
 30
0.0
 10
771.3087781697723
 20
985.487899408966
 30
0.0
 10
771.419767158169
 20
984.8802052802897
 30
0.0
 10
771.5148733408575
 20
984.2698272604304
 30
0.0
 10
771.594094293065
 20
983.656761798701
 30
0.0
 10
771.6669390277681
 20
982.948634727539
 30
0.0
 10
771.7238387517776
 20
982.1454787894547
 30
0.0
 10
771.7533342411216
 20
981.2478427785613
 30
0.0
 10
771.7487815641217
 20
980.3495957121755
 30
0.0
 10
771.710081905864
 20
979.4482724920738
 30
0.0
 10
771.6370118045191
 20
978.5456104577802
 30
0.0
 10
771.5290495489879
 20
977.6434044081483
 30
0.0
 10
771.3865438930575
 20
976.7458703379029
 30
0.0
 10
771.2158350998736
 20
975.8849487295258
 30
0.0
 10
771.0214138379928
 20
975.0614530037882
 30
0.0
 10
770.8072673119703
 20
974.2760074119069
 30
0.0
 10
770.5662960798437
 20
973.4984918254299
 30
0.0
 10
770.2991388738641
 20
972.7307860720507
 30
0.0
 10
770.0277883465926
 20
972.0289806279576
 30
0.0
 10
769.7589828041449
 20
971.3918506354584
 30
0.0
 10
769.49785311587
 20
970.8162773582517
 30
0.0
 10
769.2214633844034
 20
970.2478818214565
 30
0.0
 10
768.9298091204846
 20
969.6866628474389
 30
0.0
 10
768.5835217108412
 20
969.0615342932981
 30
0.0
 10
768.1757597309107
 20
968.3774484989978
 30
0.0
 10
767.6987152030938
 20
967.6405943147297
 30
0.0
 10
767.1946328056316
 20
966.921799689878
 30
0.0
 10
766.6698693575651
 20
966.2295305733996
 30
0.0
 10
766.1266007134792
 20
965.5640561024925
 30
0.0
 10
765.5660872271698
 20
964.9264265695801
 30
0.0
 10
764.9845281753975
 20
964.3076597850833
 30
0.0
 10
764.578518114416
 20
963.9131230034188
 30
0.0
 10
764.3753753694751
 20
963.7157207897551
 30
0.0
  0
SPLINE
  5
D7
330
1F
100
AcDbEntity
  8
0
  6
Continuous
 62
     8
370
     0
100
AcDbSpline
210
0.0
220
0.0
230
1.0
 70
     8
 71
     3
 72
    24
 73
    20
 74
     0
 42
0.000000001
 43
0.00000001
 40
0.0
 40
0.0
 40
0.0
 40
0.0
 40
0.0642747654354529
 40
0.1283945333579408
 40
0.1925415855570282
 40
0.2568979719843202
 40
0.3209544375267872
 40
0.3848903514087936
 40
0.4488848591717446
 40
0.5131166160952353
 40
0.5601838864042747
 40
0.6072177245653506
 40
0.6542876936566966
 40
0.7014631969252166
 40
0.7488131735598021
 40
0.793649420958696
 40
0.8619525505841069
 40
0.9306712102678862
 40
1.0
 40
1.0
 40
1.0
 40
1.0
 10
764.3753753694751
 20
963.7157207897551
 30
0.0
 10
764.2418983290164
 20
963.5847276596338
 30
0.0
 10
763.9752661257312
 20
963.3230572871151
 30
0.0
 10
763.6025910139803
 20
962.904402842308
 30
0.0
 10
763.2511294266566
 20
962.4677336286752
 30
0.0
 10
762.9239018914903
 20
962.0127532950127
 30
0.0
 10
762.6212357609741
 20
961.5418467401114
 30
0.0
 10
762.3444747957909
 20
961.0564573678606
 30
0.0
 10
762.0935837426987
 20
960.556644234717
 30
0.0
 10
761.8890640346482
 20
960.0892658851274
 30
0.0
 10
761.723632544135
 20
959.6593043710038
 30
0.0
 10
761.5909941568162
 20
959.2705437831507
 30
0.0
 10
761.4733171098912
 20
958.876670746233
 30
0.0
 10
761.37059483398
 20
958.4776850505274
 30
0.0
 10
761.2845633001851
 20
958.0814224047572
 30
0.0
 10
761.2021869166442
 20
957.6217863530451
 30
0.0
 10
761.1328220445947
 20
957.0971174853631
 30
0.0
 10
761.0839202132863
 20
956.4984253648736
 30
0.0
 10
761.0779555640239
 20
956.0968020452069
 30
0.0
 10
761.074960058375
 20
955.895102855555
 30
0.0
  0
LINE
  5
D8
330
1F
100
AcDbEntity
  8
0
  6
Continuous
 62
     8
370
     0
100
AcDbLine
 10
761.0749600584
 20
955.8951028556
 30
0.0
 11
761.0749597826
 21
906.1320743672
 31
0.0
  0
LINE
  5
D9
330
1F
100
AcDbEntity
  8
0
  6
Continuous
 62
     8
370
     0
100
AcDbLine
 10
761.0749597826
 20
906.1320743672
 30
0.0
 11
761.0747944267
 21
897.5071739544
 31
0.0
  0
SPLINE
  5
DA
330
1F
100
AcDbEntity
  8
0
  6
Continuous
 62
     8
370
     0
100
AcDbSpline
210
0.0
220
0.0
230
1.0
 70
     8
 71
     3
 72
    25
 73
    21
 74
     0
 42
0.000000001
 43
0.00000001
 40
0.0
 40
0.0
 40
0.0
 40
0.0
 40
0.0504373202104276
 40
0.1009376952729005
 40
0.1513482584985259
 40
0.2013176156679334
 40
0.2514113514365504
 40
0.313537167446602
 40
0.3758373138874147
 40
0.4378517741571402
 40
0.4999945556710633
 40
0.5496705837067496
 40
0.5992883422364383
 40
0.6491025732734049
 40
0.6988256567189235
 40
0.7486130567842229
 40
0.8115519429834721
 40
0.8740131828359009
 40
0.9366221890483445
 40
0.9999999999999999
 40
0.9999999999999999
 40
0.9999999999999999
 40
0.9999999999999999
 10
761.0747944266751
 20
897.5071739543541
 30
0.0
 10
761.0722657359721
 20
897.3896408140961
 30
0.0
 10
761.0672051932913
 20
897.1544275980424
 30
0.0
 10
761.0238931504288
 20
896.803953461941
 30
0.0
 10
760.9554577640389
 20
896.4589088698228
 30
0.0
 10
760.8595401815031
 20
896.1213260853185
 30
0.0
 10
760.7277256803281
 20
895.7668458500242
 30
0.0
 10
760.5526901957901
 20
895.3991441560364
 30
0.0
 10
760.3279397116189
 20
895.0266881970374
 30
0.0
 10
760.0682643293181
 20
894.677646374819
 30
0.0
 10
759.7955590221748
 20
894.3773886201562
 30
0.0
 10
759.519368391212
 20
894.1216112716169
 30
0.0
 10
759.2465781512918
 20
893.9059958238273
 30
0.0
 10
758.9578609337417
 20
893.7120505624873
 30
0.0
 10
758.6545241808644
 20
893.5410152349879
 30
0.0
 10
758.3108955652023
 20
893.3816471719847
 30
0.0
 10
757.9264733449432
 20
893.2424375610203
 30
0.0
 10
757.5010955260032
 20
893.1357285601094
 30
0.0
 10
757.0660632317459
 20
893.0691950704797
 30
0.0
 10
756.7724434465385
 20
893.0611630116421
 30
0.0
 10
756.624737681305
 20
893.0571224753539
 30
0.0
  0
SPLINE
  5
DB
330
1F
100
AcDbEntity
  8
0
  6
Continuous
 62
     8
370
     0
100
AcDbSpline
210
0.0
220
0.0
230
1.0
 70
    24
 71
     3
 72
    14
 73
    10
 74
     0
 42
0.000000001
 43
0.00000001
 40
0.0
 40
0.0
 40
0.0
 40
0.0
 40
0.0934328749049117
 40
0.2445273957541052
 40
0.3956219166032916
 40
0.5467164374524802
 40
0.6978109583016511
 40
0.8489054791508245
 40
1.0
 40
1.0
 40
1.0
 40
1.0
 10
734.4305543174444
 20
906.1320743671544
 30
0.0
 10
734.4327950008156
 20
906.1320743671544
 30
0.0
 10
734.4386591944417
 20
906.1320743671544
 30
0.0
 10
734.4750831683983
 20
906.1320743671544
 30
0.0
 10
734.5348603421185
 20
906.1320743671542
 30
0.0
 10
734.6146165514351
 20
906.1320743671544
 30
0.0
 10
734.7091772380687
 20
906.1320743671544
 30
0.0
 10
734.8142921424942
 20
906.1320743671544
 30
0.0
 10
734.8879370244146
 20
906.1320743671542
 30
0.0
 10
734.9247594653748
 20
906.1320743671544
 30
0.0
  0
SPLINE
  5
DC
330
1F
100
AcDbEntity
  8
0
  6
Continuous
 62
     8
370
     0
100
AcDbSpline
210
0.0
220
0.0
230
1.0
 70
    24
 71
     3
 72
    14
 73
    10
 74
     0
 42
0.000000001
 43
0.00000001
 40
0.0
 40
0.0
 40
0.0
 40
0.0
 40
0.1511190646018575
 40
0.3022381292037129
 40
0.4533571938055658
 40
0.6044762584074366
 40
0.7555953230093049
 40
0.9067143876111449
 40
1.0
 40
1.0
 40
1.0
 40
1.0
 10
734.9247594653749
 20
955.8951028555551
 30
0.0
 10
734.8879370263833
 20
955.8951028555551
 30
0.0
 10
734.8142921483999
 20
955.8951028555551
 30
0.0
 10
734.7091772144461
 20
955.8951028555551
 30
0.0
 10
734.6146166400202
 20
955.8951028555551
 30
0.0
 10
734.5348600114008
 20
955.8951028555551
 30
0.0
 10
734.4750844026837
 20
955.8951028555551
 30
0.0
 10
734.4386702861126
 20
955.8951028555551
 30
0.0
 10
734.4328078368223
 20
955.8951028555551
 30
0.0
 10
734.4305702275472
 20
955.8951028555551
 30
0.0
  0
SPLINE
  5
DD
330
1F
100
AcDbEntity
  8
0
  6
Continuous
 62
     8
370
     0
100
AcDbSpline
210
0.0
220
0.0
230
1.0
 70
    24
 71
     3
 72
    14
 73
    10
 74
     0
 42
0.000000001
 43
0.00000001
 40
0.0
 40
0.0
 40
0.0
 40
0.0
 40
0.0932782671896169
 40
0.2443985559913446
 40
0.3955188447930823
 40
0.5466391335947995
 40
0.6977594223965436
 40
0.8488797111982707
 40
1.0
 40
1.0
 40
1.0
 40
1.0
 10
761.5691486828238
 20
955.8951049482552
 30
0.0
 10
761.5669114205714
 20
955.8951049482552
 30
0.0
 10
761.5610495657115
 20
955.8951049482552
 30
0.0
 10
761.5246364016767
 20
955.8951049482552
 30
0.0
 10
761.464861115333
 20
955.8951049482552
 30
0.0
 10
761.3851043865775
 20
955.8951049482552
 30
0.0
 10
761.2905434800113
 20
955.8951049482552
 30
0.0
 10
761.1854280149344
 20
955.8951049482552
 30
0.0
 10
761.1117827105613
 20
955.8951049482552
 30
0.0
 10
761.0749600583748
 20
955.8951049482552
 30
0.0
  0
SPLINE
  5
DE
330
1F
100
AcDbEntity
  8
0
  6
Continuous
 62
     8
370
     0
100
AcDbSpline
210
0.0
220
0.0
230
1.0
 70
    24
 71
     3
 72
    14
 73
    10
 74
     0
 42
0.000000001
 43
0.00000001
 40
0.0
 40
0.0
 40
0.0
 40
0.0
 40
0.1510954595724175
 40
0.3021909191448491
 40
0.4532863787172656
 40
0.6043818382896752
 40
0.7554772978621052
 40
0.9065727574345251
 40
1.0
 40
1.0
 40
1.0
 40
1.0
 10
761.0749600583749
 20
906.1320743671544
 30
0.0
 10
761.1117827125531
 20
906.1320743671544
 30
0.0
 10
761.1854280209093
 20
906.1320743671544
 30
0.0
 10
761.2905434561125
 20
906.1320743671544
 30
0.0
 10
761.3851044761986
 20
906.1320743671544
 30
0.0
 10
761.4648607807477
 20
906.1320743671544
 30
0.0
 10
761.5246376503972
 20
906.1320743671544
 30
0.0
 10
761.5610607859262
 20
906.1320743671544
 30
0.0
 10
761.5669244050038
 20
906.1320743671544
 30
0.0
 10
761.5691647767853
 20
906.1320743671544
 30
0.0
  0
SPLINE
  5
DF
330
1F
100
AcDbEntity
  8
0
  6
Continuous
 62
     8
370
     0
100
AcDbSpline
210
0.0
220
0.0
230
1.0
 70
    24
 71
     3
 72
    14
 73
    10
 74
     0
 42
0.000000001
 43
0.00000001
 40
0.0
 40
0.0
 40
0.0
 40
0.0
 40
0.1428571428571321
 40
0.2857142857142682
 40
0.4285714285714091
 40
0.5714285714285684
 40
0.7142857142857149
 40
0.8571428571428581
 40
0.9999999999999999
 40
0.9999999999999999
 40
0.9999999999999999
 40
0.9999999999999999
 10
731.28622040892
 20
963.3605342740618
 30
0.0
 10
731.2918807269258
 20
963.3664802340774
 30
0.0
 10
731.3032013629371
 20
963.3783721541084
 30
0.0
 10
731.3360053470394
 20
963.4128315568539
 30
0.0
 10
731.378957101263
 20
963.4579508262934
 30
0.0
 10
731.4315889001623
 20
963.5132386337078
 30
0.0
 10
731.4915612089459
 20
963.576237382137
 30
0.0
 10
731.5566541361418
 20
963.6446151556146
 30
0.0
 10
731.6017806310148
 20
963.6920189117089
 30
0.0
 10
731.6243438784512
 20
963.7157207897561
 30
0.0
  0
SPLINE
  5
E0
330
1F
100
AcDbEntity
  8
0
  6
Continuous
 62
     8
370
     0
100
AcDbSpline
210
0.0
220
0.0
230
1.0
 70
    24
 71
     3
 72
    14
 73
    10
 74
     0
 42
0.000000001
 43
0.00000001
 40
0.0
 40
0.0
 40
0.0
 40
0.0
 40
0.1428571428571622
 40
0.2857142857142783
 40
0.4285714285714283
 40
0.5714285714285753
 40
0.714285714285722
 40
0.8571428571428595
 40
1.0
 40
1.0
 40
1.0
 40
1.0
 10
764.713498839017
 20
963.3605342740492
 30
0.0
 10
764.7078385210116
 20
963.3664802340646
 30
0.0
 10
764.6965178850006
 20
963.3783721540952
 30
0.0
 10
764.6637139008994
 20
963.4128315568394
 30
0.0
 10
764.6207621466776
 20
963.4579508262772
 30
0.0
 10
764.5681303477803
 20
963.5132386336898
 30
0.0
 10
764.5081580389985
 20
963.576237382117
 30
0.0
 10
764.4430651118045
 20
963.6446151555928
 30
0.0
 10
764.3979386169326
 20
963.6920189116861
 30
0.0
 10
764.3753753694966
 20
963.7157207897328
 30
0.0
  0
SPLINE
  5
E1
330
1F
100
AcDbEntity
  8
0
  6
Continuous
 62
     8
370
     0
100
AcDbSpline
210
0.0
220
0.0
230
1.0
 70
    24
 71
     3
 72
    14
 73
    10
 74
     0
 42
0.000000001
 43
0.00000001
 40
0.0
 40
0.0
 40
0.0
 40
0.0
 40
0.1511477242879203
 40
0.3022482147782753
 40
0.4533615015105108
 40
0.6045121915234242
 40
0.7556628816907844
 40
0.9067761688526004
 40
1.0
 40
1.0
 40
1.0
 40
1.0
 10
761.0747944266749
 20
897.5071739543546
 30
0.0
 10
761.1116175998837
 20
897.5071739553126
 30
0.0
 10
761.1852524390273
 20
897.5071739572288
 30
0.0
 10
761.290318491936
 20
897.5071739599657
 30
0.0
 10
761.3847812412424
 20
897.5071739624301
 30
0.0
 10
761.4644733090986
 20
897.5071739645126
 30
0.0
 10
761.5242779694947
 20
897.5071739660781
 30
0.0
 10
761.5607904486233
 20
897.5071739670353
 30
0.0
 10
761.5666850503721
 20
897.507173967191
 30
0.0
 10
761.5689340633832
 20
897.5071739672503
 30
0.0
  0
SPLINE
  5
E2
330
1F
100
AcDbEntity
  8
0
  6
Continuous
 62
     8
370
     0
100
AcDbSpline
210
0.0
220
0.0
230
1.0
 70
    24
 71
     3
 72
    14
 73
    10
 74
     0
 42
0.000000001
 43
0.00000001
 40
0.0
 40
0.0
 40
0.0
 40
0.0
 40
0.0932047089971591
 40
0.24432118284504
 40
0.3954750604872197
 40
0.5466289379749507
 40
0.6977454113932412
 40
0.8488490882998033
 40
1.0
 40
1.0
 40
1.0
 40
1.0
 10
734.430787259475
 20
897.5071739672503
 30
0.0
 10
734.4330358705489
 20
897.507173967191
 30
0.0
 10
734.4389302435183
 20
897.5071739670353
 30
0.0
 10
734.4754414392215
 20
897.5071739660781
 30
0.0
 10
734.5352458957701
 20
897.5071739645125
 30
0.0
 10
734.6149380182438
 20
897.5071739624301
 30
0.0
 10
734.7094007529381
 20
897.5071739599657
 30
0.0
 10
734.8144668096917
 20
897.5071739572288
 30
0.0
 10
734.8881016483224
 20
897.5071739553126
 30
0.0
 10
734.9249248212749
 20
897.5071739543546
 30
0.0
  0
SPLINE
  5
E3
330
1F
100
AcDbEntity
  8
0
  6
Continuous
 62
     8
370
     0
100
AcDbSpline
210
0.0
220
0.0
230
1.0
 70
    24
 71
     3
 72
    14
 73
    10
 74
     0
 42
0.000000001
 43
0.00000001
 40
0.0
 40
0.0
 40
0.0
 40
0.0
 40
0.1189943102043935
 40
0.2658130117173812
 40
0.412668033591411
 40
0.5595230107063114
 40
0.7063416462270062
 40
0.8531478766952287
 40
1.0
 40
1.0
 40
1.0
 40
1.0
 10
756.6247430685405
 20
892.5601150669346
 30
0.0
 10
756.6247430685784
 20
892.5629069315448
 30
0.0
 10
756.6247430686628
 20
892.5691434813355
 30
0.0
 10
756.6247430691865
 20
892.6074998213354
 30
0.0
 10
756.6247430700066
 20
892.6675618130498
 30
0.0
 10
756.6247430710938
 20
892.7471821280311
 30
0.0
 10
756.6247430723839
 20
892.841648476623
 30
0.0
 10
756.6247430738185
 20
892.9466884795644
 30
0.0
 10
756.6247430748227
 20
893.0203072943825
 30
0.0
 10
756.6247430753249
 20
893.0571224543545
 30
0.0
  0
SPLINE
  5
E4
330
1F
100
AcDbEntity
  8
0
  6
Continuous
 62
     8
370
     0
100
AcDbSpline
210
0.0
220
0.0
230
1.0
 70
    24
 71
     3
 72
    14
 73
    10
 74
     0
 42
0.000000001
 43
0.00000001
 40
0.0
 40
0.0
 40
0.0
 40
0.0
 40
0.0935203628641565
 40
0.2445842777338841
 40
0.3956855733918847
 40
0.5467868068994834
 40
0.6978506301838289
 40
0.8489016939674281
 40
1.0
 40
1.0
 40
1.0
 40
1.0
 10
739.3749760166595
 20
892.5629672959999
 30
0.0
 10
739.3749760183492
 20
892.5652296287036
 30
0.0
 10
739.3749760227681
 20
892.5711463188596
 30
0.0
 10
739.3749760500621
 20
892.6076946377835
 30
0.0
 10
739.3749760947319
 20
892.6675098028096
 30
0.0
 10
739.3749761542414
 20
892.7471961950852
 30
0.0
 10
739.3749762247746
 20
892.841644806975
 30
0.0
 10
739.3749763032201
 20
892.9466894421523
 30
0.0
 10
739.3749763581962
 20
893.0203076274578
 30
0.0
 10
739.3749763856886
 20
893.0571224753578
 30
0.0
  0
SPLINE
  5
E5
330
1F
100
AcDbEntity
  8
0
  6
Continuous
 62
     8
370
     0
100
AcDbSpline
210
0.0
220
0.0
230
1.0
 70
    24
 71
     3
 72
    13
 73
     9
 74
     0
 42
0.000000001
 43
0.00000001
 40
0.0
 40
0.0
 40
0.0
 40
0.0
 40
0.1663938653545418
 40
0.3327379568993266
 40
0.4991120235511295
 40
0.6655208476246536
 40
0.8397805919067269
 40
1.0
 40
1.0
 40
1.0
 40
1.0
 10
747.9998596239454
 20
893.0571225625546
 30
0.0
 10
747.9998596194334
 20
893.0158775497308
 30
0.0
 10
747.9998596104107
 20
892.9333998618063
 30
0.0
 10
747.9998595977117
 20
892.8173161893787
 30
0.0
 10
747.9998595865957
 20
892.7157017984385
 30
0.0
 10
747.999859577689
 20
892.6342852768998
 30
0.0
 10
747.9998595714577
 20
892.5773240477247
 30
0.0
 10
747.9998595701849
 20
892.5656885234303
 30
0.0
 10
747.9998595695752
 20
892.5601149718289
 30
0.0
  0
LINE
  5
E6
330
1F
100
AcDbEntity
  8
0
  6
Continuous
 62
     8
370
     0
100
AcDbLine
 10
731.095183643
 20
963.5322020075
 30
0.0
 11
731.1070598244
 21
781.4774687801
 31
0.0
  0
SPLINE
  5
E7
330
1F
100
AcDbEntity
  8
0
  6
Continuous
 62
     8
370
     0
100
AcDbSpline
210
0.0
220
0.0
230
1.0
 70
     8
 71
     3
 72
    17
 73
    13
 74
     0
 42
0.000000001
 43
0.00000001
 40
0.0
 40
0.0
 40
0.0
 40
0.0
 40
0.0735783663361728
 40
0.1473450729796904
 40
0.2211936694493997
 40
0.2950445930986555
 40
0.4423852677643186
 40
0.5895049943120102
 40
0.7366247247611378
 40
0.8839654067376517
 40
0.9578163319302303
 40
0.9999999999999999
 40
0.9999999999999999
 40
0.9999999999999999
 40
0.9999999999999999
 10
731.1070550479043
 20
781.4774657800061
 30
0.0
 10
731.072168872885
 20
781.4774652766027
 30
0.0
 10
731.0023072238678
 20
781.4774642685076
 30
0.0
 10
730.898599650354
 20
781.4774627746618
 30
0.0
 10
730.7970722733568
 20
781.4774613202093
 30
0.0
 10
730.6664168323921
 20
781.4774594650588
 30
0.0
 10
730.5141100544196
 20
781.4774573456333
 30
0.0
 10
730.3577003023962
 20
781.4774552770257
 30
0.0
 10
730.2337772935139
 20
781.4774537934999
 30
0.0
 10
730.1633849504607
 20
781.4774531493932
 30
0.0
 10
730.1295813828467
 20
781.4774529850727
 30
0.0
 10
730.1219252251565
 20
781.4774530432051
 30
0.0
 10
730.1191418757637
 20
781.4774530643386
 30
0.0
  0
SPLINE
  5
E8
330
1F
100
AcDbEntity
  8
0
  6
Continuous
 62
     8
370
     0
100
AcDbSpline
210
0.0
220
0.0
230
1.0
 70
     8
 71
     3
 72
    14
 73
    10
 74
     0
 42
0.000000001
 43
0.00000001
 40
0.0
 40
0.0
 40
0.0
 40
0.0
 40
0.1472739052202414
 40
0.2949882292729986
 40
0.4423868250802517
 40
0.5894155693261524
 40
0.7364443211267042
 40
0.883842931985055
 40
1.0
 40
1.0
 40
1.0
 40
1.0
 10
764.8926633335498
 20
781.4774717802435
 30
0.0
 10
764.9625148811681
 20
781.4774707108002
 30
0.0
 10
765.1024268656645
 20
781.4774685687154
 30
0.0
 10
765.3030218319344
 20
781.4774654686977
 30
0.0
 10
765.4856926698714
 20
781.4774625764426
 30
0.0
 10
765.6424830123053
 20
781.4774599868075
 30
0.0
 10
765.7648610433037
 20
781.4774578006727
 30
0.0
 10
765.8475925848097
 20
781.4774561341522
 30
0.0
 10
765.8687413051008
 20
781.477455440207
 30
0.0
 10
765.8780621945302
 20
781.4774551343639
 30
0.0
  0
LINE
  5
E9
330
1F
100
AcDbEntity
  8
0
  6
Continuous
 62
     8
370
     0
100
AcDbLine
 10
764.9045359048
 20
963.5367991146
 30
0.0
 11
764.8926594235
 21
781.4774687799
 31
0.0
  0
SPLINE
  5
EA
330
1F
100
AcDbEntity
  8
0
  6
Continuous
 62
     8
370
     0
100
AcDbSpline
210
0.0
220
0.0
230
1.0
 70
     8
 71
     3
 72
    15
 73
    11
 74
     0
 42
0.000000001
 43
0.00000001
 40
0.0
 40
0.0
 40
0.0
 40
0.0
 40
0.1128339907369184
 40
0.2252954706307944
 40
0.3373317195374071
 40
0.4500454729873107
 40
0.562402609987657
 40
0.7083985316095358
 40
0.854375593737094
 40
1.0
 40
1.0
 40
1.0
 40
1.0
 10
764.8926582010228
 20
781.477468779888
 30
0.0
 10
764.8932491635362
 20
780.8217649917511
 30
0.0
 10
764.8944291375558
 20
779.5125221600665
 30
0.0
 10
764.9006028248093
 20
777.5522199980452
 30
0.0
 10
764.9071451147613
 20
775.5926189035731
 30
0.0
 10
764.9127266601563
 20
773.6336210522486
 30
0.0
 10
764.9159980736873
 20
771.4772679602218
 30
0.0
 10
764.9129690685965
 20
769.1276171164601
 30
0.0
 10
764.899996437074
 20
766.5846421269933
 30
0.0
 10
764.8745006332642
 20
764.8902619786259
 30
0.0
 10
764.8617681483679
 20
764.0440964759225
 30
0.0
  0
SPLINE
  5
EB
330
1F
100
AcDbEntity
  8
0
  6
Continuous
 62
     8
370
     0
100
AcDbSpline
210
0.0
220
0.0
230
1.0
 70
     8
 71
     3
 72
    31
 73
    27
 74
     0
 42
0.000000001
 43
0.00000001
 40
0.0
 40
0.0
 40
0.0
 40
0.0
 40
0.044674339718316
 40
0.0893896668509412
 40
0.1341453029185479
 40
0.1789403863409138
 40
0.2237733955323531
 40
0.2686417932876911
 40
0.313541795567734
 40
0.3547248147666545
 40
0.3959251233348952
 40
0.4371368845164305
 40
0.4783535083801478
 40
0.5195678288998535
 40
0.5607723208600272
 40
0.60195934701532
 40
0.6431214253977513
 40
0.6842515062707085
 40
0.7253432479547219
 40
0.7663912805899787
 40
0.807391446865698
 40
0.8460031470302682
 40
0.8845688450275219
 40
0.923088864398266
 40
0.9615648988304691
 40
1.0
 40
1.0
 40
1.0
 40
1.0
 10
755.9868342090828
 20
755.2398414316733
 30
0.0
 10
756.1924274884993
 20
755.2462458408725
 30
0.0
 10
756.6038026732188
 20
755.2590605351311
 30
0.0
 10
757.2174643645377
 20
755.3335233499326
 30
0.0
 10
757.8251345809673
 20
755.4478403790441
 30
0.0
 10
758.4238004402214
 20
755.605298147044
 30
0.0
 10
759.0105805142013
 20
755.8039141234951
 30
0.0
 10
759.5826579528925
 20
756.0428724552054
 30
0.0
 10
760.1219064300329
 20
756.3130937301794
 30
0.0
 10
760.6275875934386
 20
756.6095659310299
 30
0.0
 10
761.0996288284108
 20
756.9276340824758
 30
0.0
 10
761.5510046852742
 20
757.2746528115958
 30
0.0
 10
761.979926253791
 20
757.6491672034339
 30
0.0
 10
762.3846858946602
 20
758.0496235169802
 30
0.0
 10
762.7636653822954
 20
758.4743762326576
 30
0.0
 10
763.1153389415717
 20
758.9216934720806
 30
0.0
 10
763.4382778538672
 20
759.3897628735333
 30
0.0
 10
763.7311539908811
 20
759.8766970928029
 30
0.0
 10
763.9927461961989
 20
760.3805401889439
 30
0.0
 10
764.221936522762
 20
760.8992707195904
 30
0.0
 10
764.4140225438761
 20
761.4207137102793
 30
0.0
 10
764.5702950166226
 20
761.9420015068281
 30
0.0
 10
764.6925283563703
 20
762.4606238574542
 30
0.0
 10
764.7824816789313
 20
762.9850717492814
 30
0.0
 10
764.8426993618725
 20
763.513408314602
 30
0.0
 10
764.8554080566604
 20
763.8672633087158
 30
0.0
 10
764.8617590221752
 20
764.0440966422989
 30
0.0
  0
SPLINE
  5
EC
330
1F
100
AcDbEntity
  8
0
  6
Continuous
 62
     8
370
     0
100
AcDbSpline
210
0.0
220
0.0
230
1.0
 70
     8
 71
     3
 72
    13
 73
     9
 74
     0
 42
0.000000001
 43
0.00000001
 40
0.0
 40
0.0
 40
0.0
 40
0.0
 40
0.2788005271272058
 40
0.5598656406746976
 40
0.6704785692241964
 40
0.7813712894835472
 40
0.8916121356003338
 40
1.0
 40
1.0
 40
1.0
 40
1.0
 10
748.000136976385
 20
755.2256725742508
 30
0.0
 10
748.7423742447179
 20
755.2262660124325
 30
0.0
 10
750.2328776811704
 20
755.2274577090595
 30
0.0
 10
752.017826070767
 20
755.2389285803482
 30
0.0
 10
753.3557825437282
 20
755.2444754423401
 30
0.0
 10
754.2389796053326
 20
755.2445641962419
 30
0.0
 10
755.1162309975603
 20
755.2379549475468
 30
0.0
 10
755.6982767007235
 20
755.2392924119292
 30
0.0
 10
755.9868329960052
 20
755.2399554762989
 30
0.0
  0
SPLINE
  5
ED
330
1F
100
AcDbEntity
  8
0
  6
Continuous
 62
     8
370
     0
100
AcDbSpline
210
0.0
220
0.0
230
1.0
 70
     8
 71
     3
 72
    17
 73
    13
 74
     0
 42
0.000000001
 43
0.00000001
 40
0.0
 40
0.0
 40
0.0
 40
0.0
 40
0.1383111072331782
 40
0.2788179821371919
 40
0.4201022220793773
 40
0.5611036116160958
 40
0.634761701473795
 40
0.7083586453127958
 40
0.7818017061139634
 40
0.8548292124252187
 40
0.9274615733874311
 40
1.0
 40
1.0
 40
1.0
 40
1.0
 10
740.013347119079
 20
755.2399507606544
 30
0.0
 10
740.3815703098882
 20
755.2397464469724
 30
0.0
 10
741.1238624445647
 20
755.2393345760121
 30
0.0
 10
742.2422812825764
 20
755.2461949943291
 30
0.0
 10
743.3678739792721
 20
755.2415664977998
 30
0.0
 10
744.3154791412601
 20
755.2365265846321
 30
0.0
 10
745.082887951214
 20
755.232560322791
 30
0.0
 10
745.6704414163055
 20
755.229862667363
 30
0.0
 10
746.2563187924769
 20
755.2277954458418
 30
0.0
 10
746.839630276752
 20
755.2264482393126
 30
0.0
 10
747.4205345643384
 20
755.2258365534951
 30
0.0
 10
747.8070195321695
 20
755.2257271350975
 30
0.0
 10
748.0001369764174
 20
755.2256724612989
 30
0.0
  0
SPLINE
  5
EE
330
1F
100
AcDbEntity
  8
0
  6
Continuous
 62
     8
370
     0
100
AcDbSpline
210
0.0
220
0.0
230
1.0
 70
     8
 71
     3
 72
    31
 73
    27
 74
     0
 42
0.000000001
 43
0.00000001
 40
0.0
 40
0.0
 40
0.0
 40
0.0
 40
0.0446750475140384
 40
0.0893904307914394
 40
0.1341456756633325
 40
0.1789401206151187
 40
0.2237724222755459
 40
0.2686401878654258
 40
0.3135397372311769
 40
0.3547225519184011
 40
0.3959228752342159
 40
0.4371348612442836
 40
0.4783518894642423
 40
0.5195667474505669
 40
0.5607718537652561
 40
0.6019595113038734
 40
0.6431221804496831
 40
0.6842527611317263
 40
0.725344872602443
 40
0.7663931196054025
 40
0.8073933335883507
 40
0.8460049269072245
 40
0.8845703783439237
 40
0.9230900200720903
 40
0.9615655480120068
 40
1.0
 40
1.0
 40
1.0
 40
1.0
 10
740.0133459453152
 20
755.2398365412989
 30
0.0
 10
739.8077448392434
 20
755.2462438014852
 30
0.0
 10
739.3963569960143
 20
755.2590641067811
 30
0.0
 10
738.7826776545227
 20
755.3335083851402
 30
0.0
 10
738.1749921969079
 20
755.4477968353597
 30
0.0
 10
737.5763106583777
 20
755.605219095226
 30
0.0
 10
736.9895125770655
 20
755.8037980060341
 30
0.0
 10
736.4174138126797
 20
756.0427210377834
 30
0.0
 10
735.8781412434079
 20
756.3129121803314
 30
0.0
 10
735.3724337743295
 20
756.609360525821
 30
0.0
 10
734.9003647816265
 20
756.9274113973607
 30
0.0
 10
734.4489599175495
 20
757.2744189328648
 30
0.0
 10
734.0200091119849
 20
757.6489280957037
 30
0.0
 10
733.6152210890083
 20
758.049384695148
 30
0.0
 10
733.236215132814
 20
758.4741425001121
 30
0.0
 10
732.8845179599456
 20
758.921468724437
 30
0.0
 10
732.5615590209756
 20
759.3895499671087
 30
0.0
 10
732.268666872956
 20
759.8764977774093
 30
0.0
 10
732.0070627042535
 20
760.3803551045253
 30
0.0
 10
731.7778639967999
 20
760.8990994575292
 30
0.0
 10
731.5857722226971
 20
761.4205547585144
 30
0.0
 10
731.4294948291805
 20
761.9418526974501
 30
0.0
 10
731.307255359203
 20
762.4604826773124
 30
0.0
 10
731.2172913589468
 20
762.9849358457685
 30
0.0
 10
731.1570564465709
 20
763.513275313232
 30
0.0
 10
731.1443249492877
 20
763.8671322404894
 30
0.0
 10
731.1379626004542
 20
764.0439662104634
 30
0.0
  0
SPLINE
  5
EF
330
1F
100
AcDbEntity
  8
0
  6
Continuous
 62
     8
370
     0
100
AcDbSpline
210
0.0
220
0.0
230
1.0
 70
     8
 71
     3
 72
    15
 73
    11
 74
     0
 42
0.000000001
 43
0.00000001
 40
0.0
 40
0.0
 40
0.0
 40
0.0
 40
0.1128339875855149
 40
0.2252954996421418
 40
0.3373317362637546
 40
0.4500455163292016
 40
0.5624026186009026
 40
0.7083985470198798
 40
0.8543756035842641
 40
1.0
 40
1.0
 40
1.0
 40
1.0
 10
731.1070610469276
 20
781.4774687801541
 30
0.0
 10
731.1064700757121
 20
780.821760103835
 30
0.0
 10
731.1052900841321
 20
779.512507306764
 30
0.0
 10
731.0991163263266
 20
777.5521903790731
 30
0.0
 10
731.0925739847584
 20
775.592574351121
 30
0.0
 10
731.0869924457788
 20
773.6335619594172
 30
0.0
 10
731.0837211332329
 20
771.477192739168
 30
0.0
 10
731.0867504501947
 20
769.1275245085822
 30
0.0
 10
731.0997236953581
 20
766.5845305416188
 30
0.0
 10
731.1252204953023
 20
764.8901378156812
 30
0.0
 10
731.1379534774752
 20
764.0439660442989
 30
0.0
  0
SPLINE
  5
F0
330
1F
100
AcDbEntity
  8
0
  6
Continuous
 62
     8
370
     0
100
AcDbSpline
210
0.0
220
0.0
230
1.0
 70
     8
 71
     3
 72
    21
 73
    17
 74
     0
 42
0.000000001
 43
0.00000001
 40
0.0
 40
0.0
 40
0.0
 40
0.0
 40
0.0744976725824566
 40
0.1490139394782503
 40
0.2235311039105318
 40
0.2980438969489922
 40
0.3725530441858567
 40
0.4470609437204298
 40
0.5215692999477237
 40
0.5960783820866323
 40
0.6705874410007041
 40
0.7450957275482173
 40
0.8196035109348099
 40
0.8941124955468084
 40
0.9686250795140428
 40
1.0
 40
1.0
 40
1.0
 40
1.0
 10
731.1379534774771
 20
764.043966044299
 30
0.0
 10
731.1020078024171
 20
764.0433083917386
 30
0.0
 10
731.0301074804042
 20
764.0419929224703
 30
0.0
 10
730.9235021433674
 20
764.0400428460321
 30
0.0
 10
730.8193798527349
 20
764.0381385674924
 30
0.0
 10
730.7189670734407
 20
764.0363026252653
 30
0.0
 10
730.6234350737686
 20
764.0345565167714
 30
0.0
 10
730.5338918230616
 20
764.0329205787425
 30
0.0
 10
730.4513710498145
 20
764.0314137788224
 30
0.0
 10
730.3768309206802
 20
764.0300536936655
 30
0.0
 10
730.3111181193956
 20
764.0288558491432
 30
0.0
 10
730.2550608648237
 20
764.027835428804
 30
0.0
 10
730.2090801084953
 20
764.027000135269
 30
0.0
 10
730.1745977636093
 20
764.0263760478381
 30
0.0
 10
730.1537277730188
 20
764.0260001931198
 30
0.0
 10
730.1486062909883
 20
764.0259104737382
 30
0.0
 10
730.1470887739562
 20
764.0258838895018
 30
0.0
  0
SPLINE
  5
F1
330
1F
100
AcDbEntity
  8
0
  6
Continuous
 62
     8
370
     0
100
AcDbSpline
210
0.0
220
0.0
230
1.0
 70
     8
 71
     3
 72
    21
 73
    17
 74
     0
 42
0.000000001
 43
0.00000001
 40
0.0
 40
0.0
 40
0.0
 40
0.0
 40
0.0745020690510314
 40
0.1492139929228679
 40
0.2240178317550527
 40
0.2988245129682791
 40
0.3735786755019826
 40
0.4482583749948531
 40
0.5228705951516048
 40
0.597443497745233
 40
0.6720164141684523
 40
0.7466286758870666
 40
0.8213084448604967
 40
0.8960627050013178
 40
0.9708695120435843
 40
1.0
 40
1.0
 40
1.0
 40
1.0
 10
764.8617681473962
 20
764.0440964760462
 30
0.0
 10
764.8976405359887
 20
764.0434401951879
 30
0.0
 10
764.9694863572621
 20
764.0421257848825
 30
0.0
 10
765.0760797786414
 20
764.0401755981794
 30
0.0
 10
765.1802929542462
 20
764.0382687659801
 30
0.0
 10
765.2808117899251
 20
764.0364292327722
 30
0.0
 10
765.3764118356298
 20
764.0346793067534
 30
0.0
 10
765.4659643232083
 20
764.0330395542043
 30
0.0
 10
765.5484385208364
 20
764.0315287553464
 30
0.0
 10
765.622896251708
 20
764.030164004455
 30
0.0
 10
765.6885223077753
 20
764.0289601555868
 30
0.0
 10
765.7445186959269
 20
764.0279317492526
 30
0.0
 10
765.7905060027564
 20
764.0270856998264
 30
0.0
 10
765.8250269534874
 20
764.0264485592468
 30
0.0
 10
765.8458222451384
 20
764.0260631600948
 30
0.0
 10
765.8509276051354
 20
764.0259663492593
 30
0.0
 10
765.8523584835117
 20
764.025939216103
 30
0.0
  0
SPLINE
  5
F2
330
1F
100
AcDbEntity
  8
0
  6
Continuous
 62
     8
370
     0
100
AcDbSpline
210
0.0
220
0.0
230
1.0
 70
     8
 71
     3
 72
    20
 73
    16
 74
     0
 42
0.000000001
 43
0.00000001
 40
0.0
 40
0.0
 40
0.0
 40
0.0
 40
0.0774943785266191
 40
0.1550182455586411
 40
0.2325436109831865
 40
0.3100620746944707
 40
0.3875747724150245
 40
0.4650855305920606
 40
0.5425970796400591
 40
0.6201098529767054
 40
0.6976226489277516
 40
0.7751342654653317
 40
0.8526451351485743
 40
0.93015798761025
 40
1.0
 40
1.0
 40
1.0
 40
1.0
 10
740.0133459453158
 20
755.2398365413528
 30
0.0
 10
740.0129355457224
 20
755.2011689611718
 30
0.0
 10
740.0121145903685
 20
755.12381908685
 30
0.0
 10
740.0108989412059
 20
755.0093425524643
 30
0.0
 10
740.0097150689779
 20
754.8979511081004
 30
0.0
 10
740.0085787727642
 20
754.7911690811632
 30
0.0
 10
740.0075050348322
 20
754.6904393824535
 30
0.0
 10
740.0065078672138
 20
754.59711146513
 30
0.0
 10
740.0056002316178
 20
754.5124329091658
 30
0.0
 10
740.0047937882046
 20
754.4375254369924
 30
0.0
 10
740.004099276292
 20
754.3734215852968
 30
0.0
 10
740.0035245412606
 20
754.3208746063999
 30
0.0
 10
740.0030813308405
 20
754.281013483028
 30
0.0
 10
740.0027699703707
 20
754.2537717165798
 30
0.0
 10
740.0026774341691
 20
754.2466674552791
 30
0.0
 10
740.0026335746429
 20
754.2433002376016
 30
0.0
  0
SPLINE
  5
F3
330
1F
100
AcDbEntity
  8
0
  6
Continuous
 62
     8
370
     0
100
AcDbSpline
210
0.0
220
0.0
230
1.0
 70
    24
 71
     3
 72
    15
 73
    11
 74
     0
 42
0.000000001
 43
0.00000001
 40
0.0
 40
0.0
 40
0.0
 40
0.0
 40
0.1305103984794452
 40
0.2610463869992398
 40
0.3915650018232203
 40
0.5220810843075643
 40
0.6525997657249089
 40
0.7807930604094825
 40
0.9089895468283902
 40
1.0
 40
1.0
 40
1.0
 40
1.0
 10
748.0001369764174
 20
755.2256724612989
 30
0.0
 10
748.0001176575074
 20
755.1568672432896
 30
0.0
 10
748.0000790158994
 20
755.0192433161751
 30
0.0
 10
748.0000235100697
 20
754.8215566600009
 30
0.0
 10
747.999972821328
 20
754.6410262926805
 30
0.0
 10
747.9999291425718
 20
754.4854623223131
 30
0.0
 10
747.9998943752205
 20
754.3616367449488
 30
0.0
 10
747.9998703184353
 20
754.2759573586663
 30
0.0
 10
747.9998572014854
 20
754.2292407171354
 30
0.0
 10
747.9998573455604
 20
754.2297538471659
 30
0.0
 10
747.9998574053776
 20
754.2299668887634
 30
0.0
  0
SPLINE
  5
F4
330
1F
100
AcDbEntity
  8
0
  6
Continuous
 62
     8
370
     0
100
AcDbSpline
210
0.0
220
0.0
230
1.0
 70
     8
 71
     3
 72
    20
 73
    16
 74
     0
 42
0.000000001
 43
0.00000001
 40
0.0
 40
0.0
 40
0.0
 40
0.0
 40
0.0772522504382354
 40
0.1545338773090164
 40
0.2318169604085126
 40
0.309093117873704
 40
0.3863634790025628
 40
0.463631857522987
 40
0.5409009749963403
 40
0.6181712630430299
 40
0.6954415233389891
 40
0.7727105576657904
 40
0.8499787979382564
 40
0.9272489661399336
 40
1.0
 40
1.0
 40
1.0
 40
1.0
 10
755.9868342405856
 20
755.2398414320083
 30
0.0
 10
755.9872465825423
 20
755.2011705084359
 30
0.0
 10
755.9880714232555
 20
755.1238139560395
 30
0.0
 10
755.9892908550569
 20
755.0093258621338
 30
0.0
 10
755.9904759469141
 20
754.8979222519547
 30
0.0
 10
755.9916100460721
 20
754.7911277290854
 30
0.0
 10
755.9926774902848
 20
754.6903856215486
 30
0.0
 10
755.9936636310682
 20
754.5970457921289
 30
0.0
 10
755.9945549555973
 20
754.5123559767703
 30
0.0
 10
755.9953393263115
 20
754.4374389026942
 30
0.0
 10
755.9960056281658
 20
754.3733247678704
 30
0.0
 10
755.9965456634113
 20
754.3207767816189
 30
0.0
 10
755.9969476617332
 20
754.2808877866782
 30
0.0
 10
755.997215770258
 20
754.2533452695601
 30
0.0
 10
755.9972734688434
 20
754.2461264151927
 30
0.0
 10
755.9973014491002
 20
754.2426257158828
 30
0.0
  0
SPLINE
  5
F5
330
1F
100
AcDbEntity
  8
0
  6
Continuous
 62
     8
370
     0
100
AcDbSpline
210
0.0
220
0.0
230
1.0
 70
     8
 71
     3
 72
     9
 73
     5
 74
     0
 42
0.000000001
 43
0.00000001
 40
0.0
 40
0.0
 40
0.0
 40
0.0
 40
0.5000952180413732
 40
0.9999999999999999
 40
0.9999999999999999
 40
0.9999999999999999
 40
0.9999999999999999
 10
755.9972812019006
 20
754.2413611763931
 30
0.0
 10
755.9972354573841
 20
754.2445856824673
 30
0.0
 10
755.9971439857709
 20
754.2510334667251
 30
0.0
 10
755.9969091209915
 20
754.2706915229753
 30
0.0
 10
755.9967917109652
 20
754.2805186792989
 30
0.0
  0
ARC
  5
F6
330
1F
100
AcDbEntity
  8
0
  6
Continuous
 62
     8
370
     0
100
AcDbCircle
 10
747.999859624
 20
980.9176097643
 30
0.0
 40
65.50000000000126
100
AcDbArc
 50
191.6709085056
 51
254.1489616479
  0
ARC
  5
F7
330
1F
100
AcDbEntity
  8
0
  6
Continuous
 62
     8
370
     0
100
AcDbCircle
 10
747.999859624
 20
980.9176097643
 30
0.0
 40
65.50000000000003
100
AcDbArc
 50
11.6709085056
 51
168.3290914944
  0
ARC
  5
F8
330
1F
100
AcDbEntity
  8
0
  6
Continuous
 62
     8
370
     0
100
AcDbCircle
 10
747.999859624
 20
980.9176097643
 30
0.0
 40
65.50000000000118
100
AcDbArc
 50
285.8499831512
 51
348.3290914944
  0
LWPOLYLINE
  5
F9
330
1F
100
AcDbEntity
  8
0
  6
Continuous
 62
     8
370
     0
100
AcDbPolyline
 90
      101
 70
   128
 43
0.0
 10
736.749859624
 20
1027.3286880955
 10
736.7535616185
 20
1027.3286880821
 10
736.7682511796
 20
1027.3286880868
 10
736.7941080968
 20
1027.3286880916
 10
736.8311066611
 20
1027.3286880963
 10
736.8792100855
 20
1027.3286881011
 10
736.9383705418
 20
1027.3286881058
 10
737.008529208
 20
1027.3286881106
 10
737.0896163269
 20
1027.3286881153
 10
737.181551275
 20
1027.32868812
 10
737.2842426435
 20
1027.3286881247
 10
737.3975883284
 20
1027.3286881293
 10
737.5214756325
 20
1027.3286881339
 10
737.6557813771
 20
1027.3286881385
 10
737.8003720249
 20
1027.328688143
 10
737.9551038123
 20
1027.3286881475
 10
738.1198228927
 20
1027.3286881519
 10
738.2943654894
 20
1027.3286881563
 10
738.4785580583
 20
1027.3286881606
 10
738.6722174604
 20
1027.3286881649
 10
738.8751511443
 20
1027.3286881691
 10
739.0871573372
 20
1027.3286881732
 10
739.3080252457
 20
1027.3286881772
 10
739.5375352654
 20
1027.3286881812
 10
739.7754591993
 20
1027.328688185
 10
740.0215604845
 20
1027.3286881888
 10
740.2755944276
 20
1027.3286881925
 10
740.5373084478
 20
1027.3286881961
 10
740.8064423284
 20
1027.3286881996
 10
741.0827284751
 20
1027.3286882029
 10
741.3658921823
 20
1027.3286882062
 10
741.6556519061
 20
1027.3286882094
 10
741.9517195446
 20
1027.3286882124
 10
742.2538007236
 20
1027.3286882154
 10
742.5615950902
 20
1027.3286882182
 10
742.8747966109
 20
1027.3286882209
 10
743.1930938757
 20
1027.3286882235
 10
743.5161704083
 20
1027.3286882259
 10
743.8437049804
 20
1027.3286882282
 10
744.1753719311
 20
1027.3286882304
 10
744.5108414909
 20
1027.3286882325
 10
744.8497801092
 20
1027.3286882344
 10
745.1918507866
 20
1027.3286882361
 10
745.536713409
 20
1027.3286882378
 10
745.8840250868
 20
1027.3286882393
 10
746.2334404951
 20
1027.3286882406
 10
746.5846122175
 20
1027.3286882418
 10
746.937191091
 20
1027.3286882429
 10
747.290826554
 20
1027.3286882438
 10
747.6451669938
 20
1027.3286882445
 10
747.9998600972
 20
1027.3286882452
 10
748.3545532002
 20
1027.3286882456
 10
748.7088936386
 20
1027.328688246
 10
749.0625290992
 20
1027.3286882461
 10
749.4151079695
 20
1027.3286882461
 10
749.7662796876
 20
1027.328688246
 10
750.1156950908
 20
1027.3286882457
 10
750.4630067625
 20
1027.3286882453
 10
750.807869378
 20
1027.3286882447
 10
751.1499400474
 20
1027.328688244
 10
751.4888786569
 20
1027.3286882431
 10
751.824348207
 20
1027.3286882421
 10
752.1560151472
 20
1027.3286882409
 10
752.4835497078
 20
1027.3286882396
 10
752.8066262281
 20
1027.3286882382
 10
753.1249234797
 20
1027.3286882366
 10
753.4381249863
 20
1027.3286882348
 10
753.7459193381
 20
1027.3286882329
 10
754.0480005015
 20
1027.3286882309
 10
754.3440681235
 20
1027.3286882288
 10
754.6338278301
 20
1027.3286882265
 10
754.9169915193
 20
1027.3286882241
 10
755.1932776473
 20
1027.3286882216
 10
755.4624115085
 20
1027.3286882189
 10
755.7241255086
 20
1027.3286882161
 10
755.9781594308
 20
1027.3286882132
 10
756.2242606945
 20
1027.3286882102
 10
756.4621846062
 20
1027.328688207
 10
756.6916946032
 20
1027.3286882038
 10
756.9125624883
 20
1027.3286882004
 10
757.1245686573
 20
1027.328688197
 10
757.3275023167
 20
1027.3286881934
 10
757.5211616938
 20
1027.3286881898
 10
757.7053542372
 20
1027.328688186
 10
757.8798968079
 20
1027.3286881822
 10
758.0446158619
 20
1027.3286881782
 10
758.1993476224
 20
1027.3286881742
 10
758.343938243
 20
1027.3286881701
 10
758.47824396
 20
1027.328688166
 10
758.602131236
 20
1027.3286881617
 10
758.7154768927
 20
1027.3286881574
 10
758.8181682326
 20
1027.3286881531
 10
758.9101031519
 20
1027.3286881486
 10
758.9911902417
 20
1027.3286881442
 10
759.0613488787
 20
1027.3286881397
 10
759.1205093056
 20
1027.3286881351
 10
759.1686127004
 20
1027.3286881305
 10
759.205611235
 20
1027.3286881258
 10
759.2314681225
 20
1027.3286881212
 10
759.2461576538
 20
1027.3286881165
 10
759.249859624
 20
1027.3286880955
  0
LINE
  5
FA
330
1F
100
AcDbEntity
  8
0
  6
Continuous
 62
     8
370
     0
100
AcDbLine
 10
738.3644429573
 20
1029.2912002593
 30
0.0
 11
757.6352762906
 21
1029.2912002593
 31
0.0
  0
LINE
  5
FB
330
1F
100
AcDbEntity
  8
0
  6
Continuous
 62
     8
370
     0
100
AcDbLine
 10
644.999859624
 20
990.6523036419
 30
0.0
 11
648.1620178181
 21
990.6523036419
 31
0.0
  0
LINE
  5
FC
330
1F
100
AcDbEntity
  8
0
  6
Continuous
 62
     8
370
     0
100
AcDbLine
 10
644.999859624
 20
990.6523036419
 30
0.0
 11
644.999859624
 21
994.1676097643
 31
0.0
  0
LINE
  5
FD
330
1F
100
AcDbEntity
  8
0
  6
Continuous
 62
     8
370
     0
100
AcDbLine
 10
644.999859624
 20
967.6676097643
 30
0.0
 11
644.999859624
 21
971.1829158868
 31
0.0
  0
LINE
  5
FE
330
1F
100
AcDbEntity
  8
0
  6
Continuous
 62
     8
370
     0
100
AcDbLine
 10
644.999859624
 20
971.1829158868
 30
0.0
 11
647.899859624
 21
971.1829158868
 31
0.0
  0
SPLINE
  5
FF
330
1F
100
AcDbEntity
  8
0
  6
Continuous
 62
     8
370
     0
100
AcDbSpline
210
0.0
220
0.0
230
1.0
 70
     8
 71
     3
 72
    19
 73
    15
 74
     0
 42
0.000000001
 43
0.00000001
 40
0.0
 40
0.0
 40
0.0
 40
0.0
 40
0.0681622317022266
 40
0.1371011641758331
 40
0.2068500832448452
 40
0.277441128942682
 40
0.3489053051070811
 40
0.4212724933744277
 40
0.4945714710024299
 40
0.6155373607135173
 40
0.7375846797900859
 40
0.8608242099796982
 40
0.9853635519066072
 40
1.0
 40
1.0
 40
1.0
 40
1.0
 10
667.588368698975
 20
974.8104378482633
 30
0.0
 10
667.5258995799564
 20
974.6965665208866
 30
0.0
 10
667.4002495135105
 20
974.4675263154865
 30
0.0
 10
667.1996498744405
 20
974.1337024925112
 30
0.0
 10
666.9889197476124
 20
973.8049394887801
 30
0.0
 10
666.7672336123942
 20
973.4823552063951
 30
0.0
 10
666.5348171316471
 20
973.1659963717846
 30
0.0
 10
666.2916088372189
 20
972.8561970598079
 30
0.0
 10
665.9836865425658
 20
972.4888492010984
 30
0.0
 10
665.6044481221932
 20
972.0737110874618
 30
0.0
 10
665.1466862204231
 20
971.6222445531284
 30
0.0
 10
664.6647877553264
 20
971.198643779542
 30
0.0
 10
664.3135900180341
 20
970.9136855995198
 30
0.0
 10
664.1201977573836
 20
970.7750407436655
 30
0.0
 10
664.0998596239751
 20
970.7604601313634
 30
0.0
  0
SPLINE
  5
100
330
1F
100
AcDbEntity
  8
0
  6
Continuous
 62
     8
370
     0
100
AcDbSpline
210
0.0
220
0.0
230
1.0
 70
     8
 71
     3
 72
    18
 73
    14
 74
     0
 42
0.000000001
 43
0.00000001
 40
0.0
 40
0.0
 40
0.0
 40
0.0
 40
0.0354292657143751
 40
0.2829483678224061
 40
0.5171906603015469
 40
0.6647135451259851
 40
0.8067537051101481
 40
0.8430681190572769
 40
0.8790192092612114
 40
0.9146098747232065
 40
0.9498431034140233
 40
0.9847219751680307
 40
1.0
 40
1.0
 40
1.0
 40
1.0
 10
661.599859623975
 20
969.3435075795653
 30
0.0
 10
661.5779872695733
 20
969.3339421129673
 30
0.0
 10
661.4033083183267
 20
969.2575495288486
 30
0.0
 10
661.071452392595
 20
969.1351376651817
 30
0.0
 10
660.659516102003
 20
968.9953791990541
 30
0.0
 10
660.3066377009949
 20
968.890497423676
 30
0.0
 10
660.0825875872163
 20
968.8299941019596
 30
0.0
 10
659.9332416832445
 20
968.7922808878066
 30
0.0
 10
659.8576634582398
 20
968.7737211233836
 30
0.0
 10
659.782437332571
 20
968.7557569154426
 30
0.0
 10
659.7075326470982
 20
968.7384077470379
 30
0.0
 10
659.6467622692967
 20
968.7246521266737
 30
0.0
 10
659.6108106538591
 20
968.7168262412782
 30
0.0
 10
659.599859623975
 20
968.7144424400557
 30
0.0
  0
SPLINE
  5
101
330
1F
100
AcDbEntity
  8
0
  6
Continuous
 62
     8
370
     0
100
AcDbSpline
210
0.0
220
0.0
230
1.0
 70
     8
 71
     3
 72
     9
 73
     5
 74
     0
 42
0.000000001
 43
0.00000001
 40
0.0
 40
0.0
 40
0.0
 40
0.0
 40
0.4402703108489968
 40
1.0
 40
1.0
 40
1.0
 40
1.0
 10
657.0998596239751
 20
968.4359936778773
 30
0.0
 10
657.0434619834487
 20
968.4352998891945
 30
0.0
 10
656.9153642236482
 20
968.4337240648304
 30
0.0
 10
656.7874909035363
 20
968.4368630362347
 30
0.0
 10
656.7159164098193
 20
968.4386200117232
 30
0.0
  0
SPLINE
  5
102
330
1F
100
AcDbEntity
  8
0
  6
Continuous
 62
     8
370
     0
100
AcDbSpline
210
0.0
220
0.0
230
1.0
 70
     8
 71
     3
 72
    34
 73
    30
 74
     0
 42
0.000000001
 43
0.00000001
 40
0.0
 40
0.0
 40
0.0
 40
0.0
 40
0.0323956434548463
 40
0.064390323409787
 40
0.0960020856076613
 40
0.1272496392137549
 40
0.1581523548995361
 40
0.1887302586934728
 40
0.2190040212180646
 40
0.2489949419717493
 40
0.2916377846913461
 40
0.3338541462396071
 40
0.3757133276759959
 40
0.4172864163232115
 40
0.4586459747083674
 40
0.4998656930597752
 40
0.5308643015980326
 40
0.5619061409762889
 40
0.5930229321887382
 40
0.6242461677902609
 40
0.6556070196631287
 40
0.6871362515226188
 40
0.7188641372983844
 40
0.7508203863373858
 40
0.7990353623668477
 40
0.8479737729682952
 40
0.8977248170476559
 40
0.9483734002240082
 40
1.0
 40
1.0
 40
1.0
 40
1.0
 10
667.453149814075
 20
987.2699981508089
 30
0.0
 10
667.5170273170299
 20
987.1547330575753
 30
0.0
 10
667.6439917059179
 20
986.9256295164923
 30
0.0
 10
667.8217770892072
 20
986.5724846548147
 30
0.0
 10
667.9886793636293
 20
986.2155597545593
 30
0.0
 10
668.1439091240148
 20
985.8543530079016
 30
0.0
 10
668.2876732905333
 20
985.4894187879468
 30
0.0
 10
668.4199167276463
 20
985.1210361288543
 30
0.0
 10
668.5406523287431
 20
984.749552644694
 30
0.0
 10
668.6655509039666
 20
984.3216194020231
 30
0.0
 10
668.7883930902311
 20
983.8350617915371
 30
0.0
 10
668.9016128445816
 20
983.2882114570778
 30
0.0
 10
668.991162069819
 20
982.7377254645261
 30
0.0
 10
669.0570332779581
 20
982.1845970723627
 30
0.0
 10
669.0992243247964
 20
981.6298209367906
 30
0.0
 10
669.116215589121
 20
981.1199518185819
 30
0.0
 10
669.1143254085836
 20
980.6560426613285
 30
0.0
 10
669.0992160575673
 20
980.2380417877886
 30
0.0
 10
669.070701631001
 20
979.8204105253031
 30
0.0
 10
669.0287822896006
 20
979.4035651859956
 30
0.0
 10
668.9734586006247
 20
978.9879270105803
 30
0.0
 10
668.9047316125254
 20
978.573917299758
 30
0.0
 10
668.8226007858806
 20
978.1619534111603
 30
0.0
 10
668.7111324699946
 20
977.6841412286069
 30
0.0
 10
668.561415969293
 20
977.14309459035
 30
0.0
 10
668.3637036145034
 20
976.543630194332
 30
0.0
 10
668.1355722775586
 20
975.9531588393551
 30
0.0
 10
667.8790840014561
 20
975.3710299070666
 30
0.0
 10
667.6858896133132
 20
974.998489353219
 30
0.0
 10
667.588368698975
 20
974.8104378482633
 30
0.0
  0
SPLINE
  5
103
330
1F
100
AcDbEntity
  8
0
  6
Continuous
 62
     8
370
     0
100
AcDbSpline
210
0.0
220
0.0
230
1.0
 70
     8
 71
     3
 72
    49
 73
    45
 74
     0
 42
0.000000001
 43
0.00000001
 40
0.0
 40
0.0
 40
0.0
 40
0.0
 40
0.003548467328021
 40
0.0201545534010402
 40
0.0368081147805181
 40
0.0535688039160323
 40
0.0704951405823961
 40
0.0876439486820517
 40
0.1141034438348879
 40
0.1418442936553835
 40
0.1493412252298644
 40
0.1569383173350434
 40
0.1646378274008623
 40
0.1724419239786925
 40
0.1803526896083055
 40
0.1883721237260169
 40
0.221404104943253
 40
0.2564541129860388
 40
0.2936091547431751
 40
0.30496991904693
 40
0.316521488171444
 40
0.3282654487602838
 40
0.3402033107371709
 40
0.3523365116266849
 40
0.3646664206218841
 40
0.3771943424114643
 40
0.3899215207790175
 40
0.4287433160016464
 40
0.4683439013788555
 40
0.5087506631083448
 40
0.5499893793723873
 40
0.5920842979832139
 40
0.6215267449226117
 40
0.6508186018195957
 40
0.6799677254602714
 40
0.7089820885756186
 40
0.7378697754672932
 40
0.7666389772197004
 40
0.795297986503138
 40
0.8376128397970858
 40
0.8792085240823198
 40
0.920116181878579
 40
0.9603685526776417
 40
1.0
 40
1.0
 40
1.0
 40
1.0
 10
656.7129569099052
 20
993.396838390881
 30
0.0
 10
656.730662120877
 20
993.3973796374778
 30
0.0
 10
656.8312240218396
 20
993.4004538051198
 30
0.0
 10
657.015890221859
 20
993.4010971121006
 30
0.0
 10
657.2663928793257
 20
993.3985377972982
 30
0.0
 10
657.5176296974757
 20
993.390465713737
 30
0.0
 10
657.769466388057
 20
993.3773616588769
 30
0.0
 10
658.0661978270805
 20
993.3557167947657
 30
0.0
 10
658.4100808982844
 20
993.3214025019794
 30
0.0
 10
658.7001057795541
 20
993.2830707055813
 30
0.0
 10
658.8979341168717
 20
993.2528455342201
 30
0.0
 10
659.0024191153234
 20
993.2359500338281
 30
0.0
 10
659.1075013110084
 20
993.2180084236484
 30
0.0
 10
659.2131818317924
 20
993.1989958812627
 30
0.0
 10
659.3194621710742
 20
993.1788876810359
 30
0.0
 10
659.5369474080603
 20
993.1356782012849
 30
0.0
 10
659.8682158786635
 20
993.0617801481349
 30
0.0
 10
660.3118299482474
 20
992.9451075747033
 30
0.0
 10
660.6531154854903
 20
992.8407560986437
 30
0.0
 10
660.8936436748032
 20
992.7602942485113
 30
0.0
 10
661.0311676508439
 20
992.7123924031392
 30
0.0
 10
661.1697301177969
 20
992.6621773898362
 30
0.0
 10
661.3093318827039
 20
992.6095781621993
 30
0.0
 10
661.449972904322
 20
992.5545226358777
 30
0.0
 10
661.5916527500178
 20
992.496936889175
 30
0.0
 10
661.7343734607239
 20
992.4367464359866
 30
0.0
 10
661.975616140348
 20
992.3312332781632
 30
0.0
 10
662.3131131056941
 20
992.1728206194152
 30
0.0
 10
662.7421797106124
 20
991.9496498349771
 30
0.0
 10
663.1689741473514
 20
991.7044333819854
 30
0.0
 10
663.5934890972426
 20
991.4358605112342
 30
0.0
 10
663.9705232049265
 20
991.1740574040043
 30
0.0
 10
664.3002576401225
 20
990.9269544087126
 30
0.0
 10
664.5821703496325
 20
990.7020785845647
 30
0.0
 10
664.8571360660131
 20
990.4688029938516
 30
0.0
 10
665.1251500789854
 20
990.2271134706416
 30
0.0
 10
665.3862146275022
 20
989.9770131639754
 30
0.0
 10
665.640324791819
 20
989.7185086822242
 30
0.0
 10
665.9270447908561
 20
989.4089457433753
 30
0.0
 10
666.2406579821886
 20
989.044344342663
 30
0.0
 10
666.5743590689294
 20
988.6200878864552
 30
0.0
 10
666.8876247749606
 20
988.1830427213574
 30
0.0
 10
667.1819907091575
 20
987.7355347926688
 30
0.0
 10
667.3632330344685
 20
987.424370823036
 30
0.0
 10
667.453149814075
 20
987.2699981508089
 30
0.0
  0
SPLINE
  5
104
330
1F
100
AcDbEntity
  8
0
  6
Continuous
 62
     8
370
     0
100
AcDbSpline
210
0.0
220
0.0
230
1.0
 70
     8
 71
     3
 72
    12
 73
     8
 74
     0
 42
0.000000001
 43
0.00000001
 40
0.0
 40
0.0
 40
0.0
 40
0.0
 40
0.2381072635987563
 40
0.4762147693879671
 40
0.7143208547733736
 40
0.9524261748562751
 40
1.0
 40
1.0
 40
1.0
 40
1.0
 10
667.5883686989526
 20
974.8104378482212
 30
0.0
 10
667.5424956689862
 20
974.8324434346055
 30
0.0
 10
667.4507495623938
 20
974.8764546297571
 30
0.0
 10
667.31924180088
 20
974.9590941335811
 30
0.0
 10
667.2028836249973
 20
975.04882094629
 30
0.0
 10
667.1253011181783
 20
975.1183589884349
 30
0.0
 10
667.095907445911
 20
975.1554850918975
 30
0.0
 10
667.0910125508929
 20
975.1616676599426
 30
0.0
  0
SPLINE
  5
105
330
1F
100
AcDbEntity
  8
0
  6
Continuous
 62
     8
370
     0
100
AcDbSpline
210
0.0
220
0.0
230
1.0
 70
     8
 71
     3
 72
    12
 73
     8
 74
     0
 42
0.000000001
 43
0.00000001
 40
0.0
 40
0.0
 40
0.0
 40
0.0
 40
0.2441789674887252
 40
0.488278297870193
 40
0.7323991615139557
 40
0.9765830833561865
 40
1.0
 40
1.0
 40
1.0
 40
1.0
 10
667.4531498239162
 20
987.2699981334267
 30
0.0
 10
667.4071966499129
 20
987.2472279525077
 30
0.0
 10
667.3153052891835
 20
987.2016950169905
 30
0.0
 10
667.1836622506906
 20
987.1156685646116
 30
0.0
 10
667.0679806696488
 20
987.0221404115832
 30
0.0
 10
666.9935998044951
 20
986.9529583646602
 30
0.0
 10
666.9668266188172
 20
986.9175679002545
 30
0.0
 10
666.9644837806526
 20
986.9144709908439
 30
0.0
  0
LINE
  5
106
330
1F
100
AcDbEntity
  8
0
  6
Continuous
 62
     8
370
     0
100
AcDbLine
 10
644.999859624
 20
990.6523036419
 30
0.0
 11
644.999859624
 21
988.9176097643
 31
0.0
  0
LINE
  5
107
330
1F
100
AcDbEntity
  8
0
  6
Continuous
 62
     8
370
     0
100
AcDbLine
 10
644.999859624
 20
972.9176097643
 30
0.0
 11
644.999859624
 21
971.1829158868
 31
0.0
  0
ARC
  5
108
330
1F
100
AcDbEntity
  8
0
  6
Continuous
 62
     8
370
     0
100
AcDbCircle
 10
644.8848033974
 20
989.7610054559
 30
0.0
 40
0.8986937139709654
100
AcDbArc
 50
82.6444585532
 51
169.9645356919
  0
ARC
  5
109
330
1F
100
AcDbEntity
  8
0
  6
Continuous
 62
     8
370
     0
100
AcDbCircle
 10
644.8848033974
 20
972.0742140727
 30
0.0
 40
0.8986937139706989
100
AcDbArc
 50
190.0354643081
 51
277.3555414468
  0
LINE
  5
10A
330
1F
100
AcDbEntity
  8
0
  6
Continuous
 62
     8
370
     0
100
AcDbLine
 10
655.999859624
 20
993.2176097643
 30
0.0
 11
656.137748923
 21
993.2168368352
 31
0.0
  0
SPLINE
  5
10B
330
1F
100
AcDbEntity
  8
0
  6
Continuous
 62
     8
370
     0
100
AcDbSpline
210
0.0
220
0.0
230
1.0
 70
     8
 71
     3
 72
    63
 73
    59
 74
     0
 42
0.000000001
 43
0.00000001
 40
0.0
 40
0.0
 40
0.0
 40
0.0
 40
0.0178769688107741
 40
0.0357100282710163
 40
0.0535552588625906
 40
0.0714485062504136
 40
0.0892976238895735
 40
0.107129337351897
 40
0.1249996461639867
 40
0.1428810906102585
 40
0.1607153217549996
 40
0.1785583081640734
 40
0.1964507905057833
 40
0.2143014754463345
 40
0.2321324493751528
 40
0.2499997804752242
 40
0.2678783009871137
 40
0.2857115693919876
 40
0.3035556318038263
 40
0.3214481916768908
 40
0.339298077421549
 40
0.3571304457931238
 40
0.3750012771517412
 40
0.3928831910700096
 40
0.4107176002957162
 40
0.428560464229913
 40
0.4464526020234311
 40
0.4643028730783387
 40
0.4821333298867015
 40
0.5000000406058384
 40
0.5178779676751151
 40
0.5357106730432666
 40
0.5535542037153501
 40
0.5714463429134186
 40
0.5892959486239385
 40
0.6071281088254848
 40
0.6249988040185223
 40
0.6428808542475638
 40
0.6607154716723629
 40
0.6785586155539477
 40
0.6964511741549543
 40
0.7143019771689005
 40
0.7321329969410075
 40
0.7500003007373413
 40
0.7678788485834633
 40
0.7857120711512219
 40
0.8035560154716344
 40
0.821448498973792
 40
0.8392982271533467
 40
0.8571302092756156
 40
0.8750004350110905
 40
0.8928819620616396
 40
0.9107159244522847
 40
0.9285583006043823
 40
0.9464481571240567
 40
0.9642967436215534
 40
0.9821286773747547
 40
1.0
 40
1.0
 40
1.0
 40
1.0
 10
656.137748923007
 20
993.2168368352033
 30
0.0
 10
656.3671385663704
 20
993.2105998457803
 30
0.0
 10
656.8253544270284
 20
993.1981411862067
 30
0.0
 10
657.5098671185009
 20
993.1307742738013
 30
0.0
 10
658.1898682579496
 20
993.0277527117855
 30
0.0
 10
658.8632280625961
 20
992.8862203862287
 30
0.0
 10
659.5275215543139
 20
992.7077035242085
 30
0.0
 10
660.1804693611091
 20
992.4922182113842
 30
0.0
 10
660.8206965960547
 20
992.2403481297541
 30
0.0
 10
661.4460115297751
 20
991.9533700622594
 30
0.0
 10
662.0539863411858
 20
991.6320163376848
 30
0.0
 10
662.6430791450781
 20
991.2769636107165
 30
0.0
 10
663.2116467238299
 20
990.8895251946627
 30
0.0
 10
663.7576670967616
 20
990.4711574342836
 30
0.0
 10
664.2790891119944
 20
990.0229924406462
 30
0.0
 10
664.7748108308353
 20
989.5460495744096
 30
0.0
 10
665.2433307387929
 20
989.0423199416041
 30
0.0
 10
665.6827211722086
 20
988.5133692615684
 30
0.0
 10
666.091808142169
 20
987.9604275850444
 30
0.0
 10
666.469557766324
 20
987.3853718670291
 30
0.0
 10
666.8146798958023
 20
986.7903325415562
 30
0.0
 10
667.1257399081467
 20
986.1771066666458
 30
0.0
 10
667.4021176559495
 20
985.547047009531
 30
0.0
 10
667.6431707046137
 20
984.9026180278145
 30
0.0
 10
667.8476888114252
 20
984.246048722008
 30
0.0
 10
668.0150560809633
 20
983.5789087279741
 30
0.0
 10
668.1450333155793
 20
982.9032845936522
 30
0.0
 10
668.2372137465886
 20
982.2216321388003
 30
0.0
 10
668.2909415314213
 20
981.5361988978042
 30
0.0
 10
668.3061539562253
 20
980.8484834387937
 30
0.0
 10
668.2831900598432
 20
980.1609547143303
 30
0.0
 10
668.2217871505072
 20
979.4760805147205
 30
0.0
 10
668.1219799130076
 20
978.7955598198611
 30
0.0
 10
667.9843582198624
 20
978.1214512445212
 30
0.0
 10
667.8095090656002
 20
977.4561747479204
 30
0.0
 10
667.5976822703615
 20
976.8020167422546
 30
0.0
 10
667.3493912504038
 20
976.1603721964975
 30
0.0
 10
667.0659177559668
 20
975.5334417810676
 30
0.0
 10
666.7479749061318
 20
974.9236596282467
 30
0.0
 10
666.3962333588473
 20
974.3325746107695
 30
0.0
 10
666.0119943355922
 20
973.7618345774097
 30
0.0
 10
665.5967010754537
 20
973.2134683110139
 30
0.0
 10
665.1514739106178
 20
972.6895332433215
 30
0.0
 10
664.6773256450514
 20
972.1911370653097
 30
0.0
 10
664.1762389110179
 20
971.7197924722119
 30
0.0
 10
663.6497685562273
 20
971.2774359006105
 30
0.0
 10
663.0991379756545
 20
970.8652485825593
 30
0.0
 10
662.5262183342517
 20
970.484275167363
 30
0.0
 10
661.9331341428949
 20
970.1358194633688
 30
0.0
 10
661.3216771055731
 20
969.8213289892661
 30
0.0
 10
660.6931932624636
 20
969.5414288334055
 30
0.0
 10
660.0501412222209
 20
969.2967808434272
 30
0.0
 10
659.3947412348142
 20
969.0885904184836
 30
0.0
 10
658.7285851769926
 20
968.9175558683188
 30
0.0
 10
658.0537514771903
 20
968.783672791207
 30
0.0
 10
657.3726524618965
 20
968.6882943467061
 30
0.0
 10
656.6874720177182
 20
968.6285999106838
 30
0.0
 10
656.2292322697004
 20
968.6212758398059
 30
0.0
 10
655.9998596239751
 20
968.6176097643028
 30
0.0
  0
LINE
  5
10C
330
1F
100
AcDbEntity
  8
0
  6
Continuous
 62
     8
370
     0
100
AcDbLine
 10
655.999859624
 20
968.6176097643
 30
0.0
 11
655.8619703249
 21
968.6183826934
 31
0.0
  0
SPLINE
  5
10D
330
1F
100
AcDbEntity
  8
0
  6
Continuous
 62
     8
370
     0
100
AcDbSpline
210
0.0
220
0.0
230
1.0
 70
     8
 71
     3
 72
    63
 73
    59
 74
     0
 42
0.000000001
 43
0.00000001
 40
0.0
 40
0.0
 40
0.0
 40
0.0
 40
0.0178769688107731
 40
0.0357100282710144
 40
0.0535552588625873
 40
0.0714485062504097
 40
0.0892976238895686
 40
0.1071293373518911
 40
0.1249996461639798
 40
0.14288109061025
 40
0.1607153217549901
 40
0.1785583081640634
 40
0.1964507905057258
 40
0.2143014754462295
 40
0.2321324493750623
 40
0.2499997804752103
 40
0.2678783009870489
 40
0.2857115693919123
 40
0.3035556318037825
 40
0.3214481916768785
 40
0.3392980774215378
 40
0.3571304457931145
 40
0.3750012771517344
 40
0.3928831910699858
 40
0.4107176002956925
 40
0.4285604642299065
 40
0.4464526020234461
 40
0.4643028730783633
 40
0.4821333298867319
 40
0.5000000406058706
 40
0.5178779676751453
 40
0.5357106730433024
 40
0.5535542037153993
 40
0.5714463429134916
 40
0.5892959486240287
 40
0.6071281088255767
 40
0.6249988040186005
 40
0.642880854247639
 40
0.6607154716724377
 40
0.678558615554025
 40
0.6964511741549534
 40
0.7143019771688165
 40
0.7321329969409448
 40
0.7500003007374029
 40
0.7678788485835331
 40
0.7857120711512867
 40
0.8035560154716836
 40
0.8214484989739038
 40
0.8392982271535296
 40
0.8571302092757666
 40
0.8750004350111057
 40
0.892881962061755
 40
0.9107159244524176
 40
0.9285583006044504
 40
0.9464481571241148
 40
0.9642967436216632
 40
0.9821286773748455
 40
1.0
 40
1.0
 40
1.0
 40
1.0
 10
655.8619703249431
 20
968.6183826934029
 30
0.0
 10
655.6325806815797
 20
968.6246196828257
 30
0.0
 10
655.1743648209217
 20
968.6370783423993
 30
0.0
 10
654.4898521294492
 20
968.7044452548047
 30
0.0
 10
653.8098509900005
 20
968.8074668168205
 30
0.0
 10
653.136491185354
 20
968.9489991423771
 30
0.0
 10
652.4721976936362
 20
969.1275160043975
 30
0.0
 10
651.8192498868409
 20
969.3430013172217
 30
0.0
 10
651.1790226518954
 20
969.5948713988519
 30
0.0
 10
650.553707718175
 20
969.8818494663467
 30
0.0
 10
649.9457329067643
 20
970.2032031909213
 30
0.0
 10
649.3566401028725
 20
970.5582559178893
 30
0.0
 10
648.7880725241217
 20
970.9456943339421
 30
0.0
 10
648.2420521511909
 20
971.3640620943211
 30
0.0
 10
647.7206301359577
 20
971.8122270879588
 30
0.0
 10
647.2249084171158
 20
972.2891699541952
 30
0.0
 10
646.7563885091578
 20
972.7928995870005
 30
0.0
 10
646.3169980757422
 20
973.321850267036
 30
0.0
 10
645.9079111057815
 20
973.8747919435606
 30
0.0
 10
645.5301614816265
 20
974.449847661577
 30
0.0
 10
645.1850393521479
 20
975.0448869870505
 30
0.0
 10
644.8739793398036
 20
975.6581128619608
 30
0.0
 10
644.5976015920007
 20
976.2881725190754
 30
0.0
 10
644.3565485433364
 20
976.9326015007919
 30
0.0
 10
644.1520304365249
 20
977.5891708065982
 30
0.0
 10
643.9846631669868
 20
978.256310800633
 30
0.0
 10
643.8546859323708
 20
978.9319349349555
 30
0.0
 10
643.7625055013614
 20
979.6135873898078
 30
0.0
 10
643.7087777165289
 20
980.2990206308041
 30
0.0
 10
643.6935652917248
 20
980.9867360898148
 30
0.0
 10
643.716529188107
 20
981.6742648142782
 30
0.0
 10
643.777932097443
 20
982.3591390138884
 30
0.0
 10
643.8777393349425
 20
983.0396597087483
 30
0.0
 10
644.0153610280878
 20
983.713768284089
 30
0.0
 10
644.1902101823498
 20
984.3790447806904
 30
0.0
 10
644.4020369775886
 20
985.0332027863562
 30
0.0
 10
644.6503279975462
 20
985.6748473321132
 30
0.0
 10
644.9338014919834
 20
986.3017777475428
 30
0.0
 10
645.2517443418184
 20
986.9115599003637
 30
0.0
 10
645.6034858891023
 20
987.5026449178403
 30
0.0
 10
645.987724912356
 20
988.0733849511986
 30
0.0
 10
646.4030181724936
 20
988.6217512175929
 30
0.0
 10
646.8482453373302
 20
989.1456862852858
 30
0.0
 10
647.3223936028977
 20
989.6440824632992
 30
0.0
 10
647.8234803369319
 20
990.1154270563987
 30
0.0
 10
648.3499506917225
 20
990.557783628
 30
0.0
 10
648.9005812722963
 20
990.9699709460509
 30
0.0
 10
649.4735009137015
 20
991.3509443612465
 30
0.0
 10
650.0665851050596
 20
991.699400065241
 30
0.0
 10
650.6780421423804
 20
992.0138905393429
 30
0.0
 10
651.3065259854892
 20
992.2937906952028
 30
0.0
 10
651.9495780257321
 20
992.5384386851806
 30
0.0
 10
652.6049780131394
 20
992.7466291101243
 30
0.0
 10
653.2711340709603
 20
992.9176636602886
 30
0.0
 10
653.9459677707629
 20
993.051546737399
 30
0.0
 10
654.6270667860568
 20
993.1469251818999
 30
0.0
 10
655.3122472302344
 20
993.2066196179222
 30
0.0
 10
655.7704869782508
 20
993.2139436888001
 30
0.0
 10
655.999859623975
 20
993.2176097643032
 30
0.0
  0
SPLINE
  5
10E
330
1F
100
AcDbEntity
  8
0
  6
Continuous
 62
     8
370
     0
100
AcDbSpline
210
0.0
220
0.0
230
1.0
 70
    24
 71
     3
 72
    11
 73
     7
 74
     0
 42
0.000000001
 43
0.00000001
 40
0.0
 40
0.0
 40
0.0
 40
0.0
 40
0.2800342263586766
 40
0.5590661249526705
 40
0.7792463414293065
 40
0.9999999999999999
 40
0.9999999999999999
 40
0.9999999999999999
 40
0.9999999999999999
 10
656.1399910254311
 20
993.4168242672033
 30
0.0
 10
656.1399483902176
 20
993.4130213602743
 30
0.0
 10
656.1398632723951
 20
993.4054291581782
 30
0.0
 10
656.1392638566051
 20
993.3519634363499
 30
0.0
 10
656.1385250022744
 20
993.2860603006685
 30
0.0
 10
656.1380078402889
 20
993.2399313208691
 30
0.0
 10
656.137748923007
 20
993.2168368352034
 30
0.0
  0
SPLINE
  5
10F
330
1F
100
AcDbEntity
  8
0
  6
Continuous
 62
     8
370
     0
100
AcDbSpline
210
0.0
220
0.0
230
1.0
 70
    24
 71
     3
 72
    11
 73
     7
 74
     0
 42
0.000000001
 43
0.00000001
 40
0.0
 40
0.0
 40
0.0
 40
0.0
 40
0.2800342265700965
 40
0.5590661250627904
 40
0.7792463417382975
 40
1.0
 40
1.0
 40
1.0
 40
1.0
 10
655.999859623975
 20
993.2176097643032
 30
0.0
 10
655.999859623975
 20
993.2469899563209
 30
0.0
 10
655.999859623975
 20
993.30564517967
 30
0.0
 10
655.9998596239751
 20
993.371378339078
 30
0.0
 10
655.9998596239751
 20
993.410536650663
 30
0.0
 10
655.999859623975
 20
993.4152500164872
 30
0.0
 10
655.999859623975
 20
993.4176097643033
 30
0.0
  0
SPLINE
  5
110
330
1F
100
AcDbEntity
  8
0
  6
Continuous
 62
     8
370
     0
100
AcDbSpline
210
0.0
220
0.0
230
1.0
 70
    24
 71
     3
 72
    11
 73
     7
 74
     0
 42
0.000000001
 43
0.00000001
 40
0.0
 40
0.0
 40
0.0
 40
0.0
 40
0.2800342263492049
 40
0.5590661249759398
 40
0.7792463414700252
 40
1.0
 40
1.0
 40
1.0
 40
1.0
 10
655.999859623975
 20
968.4176097643028
 30
0.0
 10
655.999859623975
 20
968.4214129102253
 30
0.0
 10
655.9998596239751
 20
968.4290055894538
 30
0.0
 10
655.999859623975
 20
968.482474671295
 30
0.0
 10
655.9998596239751
 20
968.5483819485802
 30
0.0
 10
655.9998596239751
 20
968.5945138272965
 30
0.0
 10
655.999859623975
 20
968.6176097643028
 30
0.0
  0
SPLINE
  5
111
330
1F
100
AcDbEntity
  8
0
  6
Continuous
 62
     8
370
     0
100
AcDbSpline
210
0.0
220
0.0
230
1.0
 70
    24
 71
     3
 72
    11
 73
     7
 74
     0
 42
0.000000001
 43
0.00000001
 40
0.0
 40
0.0
 40
0.0
 40
0.0
 40
0.2800342263586766
 40
0.5590661249526705
 40
0.7792463414293065
 40
0.9999999999999999
 40
0.9999999999999999
 40
0.9999999999999999
 40
0.9999999999999999
 10
655.859728222519
 20
968.4183952614028
 30
0.0
 10
655.8597708577325
 20
968.4221981683319
 30
0.0
 10
655.8598559755551
 20
968.429790370428
 30
0.0
 10
655.860455391345
 20
968.4832560922562
 30
0.0
 10
655.8611942456758
 20
968.5491592279377
 30
0.0
 10
655.8617114076612
 20
968.595288207737
 30
0.0
 10
655.8619703249431
 20
968.6183826934029
 30
0.0
  0
LINE
  5
112
330
1F
100
AcDbEntity
  8
0
  6
Continuous
 62
     8
370
     0
100
AcDbLine
 10
851.999859624
 20
994.1676097643
 30
0.0
 11
851.999859624
 21
967.6676097643
 31
0.0
  0
ENDSEC
  0
SECTION
  2
OBJECTS
  0
DICTIONARY
  5
C
330
0
100
AcDbDictionary
281
     1
  3
ACAD_GROUP
350
D
  3
ACAD_LAYOUT
350
1A
  3
ACAD_MLINESTYLE
350
17
  3
ACAD_PLOTSETTINGS
350
19
  3
ACAD_PLOTSTYLENAME
350
E
  3
ACAD_SCALELIST
350
47
  0
DICTIONARY
  5
D
102
{ACAD_REACTORS
330
C
102
}
330
C
100
AcDbDictionary
281
     1
  0
DICTIONARY
  5
1A
102
{ACAD_REACTORS
330
C
102
}
330
C
100
AcDbDictionary
281
     1
  3
Layout1
350
1E
  3
Layout2
350
26
  3
Model
350
22
  0
DICTIONARY
  5
17
102
{ACAD_REACTORS
330
C
102
}
330
C
100
AcDbDictionary
281
     1
  3
Standard
350
18
  0
DICTIONARY
  5
19
102
{ACAD_REACTORS
330
C
102
}
330
C
100
AcDbDictionary
281
     1
  0
ACDBDICTIONARYWDFLT
  5
E
102
{ACAD_REACTORS
330
C
102
}
330
C
100
AcDbDictionary
281
     1
  3
Normal
350
F
100
AcDbDictionaryWithDefault
340
F
  0
DICTIONARY
  5
47
102
{ACAD_REACTORS
330
C
102
}
330
C
100
AcDbDictionary
281
     1
  3
A0
350
48
  3
A1
350
49
  3
A2
350
4A
  3
A3
350
4B
  3
A4
350
4C
  3
A5
350
4D
  3
A6
350
4E
  3
A7
350
4F
  3
A8
350
50
  3
A9
350
51
  3
B0
350
52
  3
B1
350
53
  3
B2
350
54
  3
B3
350
55
  3
B4
350
56
  3
B5
350
57
  3
B6
350
58
  3
B7
350
59
  3
B8
350
5A
  3
B9
350
5B
  3
C0
350
5C
  3
C1
350
5D
  3
C2
350
5E
  3
C3
350
5F
  3
C4
350
60
  3
C5
350
61
  3
C6
350
62
  3
C7
350
63
  3
C8
350
64
  3
C9
350
65
  3
D0
350
66
  3
D1
350
67
  3
D2
350
68
  0
LAYOUT
  5
1E
102
{ACAD_REACTORS
330
1A
102
}
330
1A
100
AcDbPlotSettings
  1

  2
none_device
  4

  6

 40
0.0
 41
0.0
 42
0.0
 43
0.0
 44
0.0
 45
0.0
 46
0.0
 47
0.0
 48
0.0
 49
0.0
140
0.0
141
0.0
142
1.0
143
1.0
 70
   688
 72
     1
 73
     0
 74
     5
  7

 75
    16
147
1.0
148
0.0
149
0.0
100
AcDbLayout
  1
Layout1
 70
     1
 71
     1
 10
0.0
 20
0.0
 11
420.0
 21
297.0
 12
0.0
 22
0.0
 32
0.0
 14
1.0000000000E+20
 24
1.0000000000E+20
 34
1.0000000000E+20
 15
-1.0000000000E+20
 25
-1.0000000000E+20
 35
-1.0000000000E+20
146
0.0
 13
0.0
 23
0.0
 33
0.0
 16
1.0
 26
0.0
 36
0.0
 17
0.0
 27
1.0
 37
0.0
 76
     0
330
1B
  0
LAYOUT
  5
26
102
{ACAD_REACTORS
330
1A
102
}
330
1A
100
AcDbPlotSettings
  1

  2
none_device
  4

  6

 40
0.0
 41
0.0
 42
0.0
 43
0.0
 44
0.0
 45
0.0
 46
0.0
 47
0.0
 48
0.0
 49
0.0
140
0.0
141
0.0
142
1.0
143
1.0
 70
   688
 72
     1
 73
     0
 74
     5
  7

 75
    16
147
1.0
148
0.0
149
0.0
100
AcDbLayout
  1
Layout2
 70
     1
 71
     2
 10
0.0
 20
0.0
 11
0.0
 21
0.0
 12
0.0
 22
0.0
 32
0.0
 14
0.0
 24
0.0
 34
0.0
 15
0.0
 25
0.0
 35
0.0
146
0.0
 13
0.0
 23
0.0
 33
0.0
 16
1.0
 26
0.0
 36
0.0
 17
0.0
 27
1.0
 37
0.0
 76
     0
330
23
  0
LAYOUT
  5
22
102
{ACAD_REACTORS
330
1A
102
}
330
1A
100
AcDbPlotSettings
  1

  2
none_device
  4
Letter_(8.50_x_11.00_Inches)
  6

 40
6.35
 41
6.35
 42
6.35000508
 43
6.35000508
 44
215.9
 45
279.4
 46
0.0
 47
0.0
 48
0.0
 49
0.0
140
0.0
141
0.0
142
1.0
143
1.0
 70
  1712
 72
     1
 73
     0
 74
     0
  7

 75
     0
147
1.0
148
0.0
149
0.0
100
AcDbLayout
  1
Model
 70
     1
 71
     0
 10
0.0
 20
0.0
 11
1496.0
 21
2284.0
 12
0.0
 22
0.0
 32
0.0
 14
0.0
 24
0.0
 34
0.0
 15
1496.0
 25
2284.0
 35
0.0
146
0.0
 13
0.0
 23
0.0
 33
0.0
 16
1.0
 26
0.0
 36
0.0
 17
0.0
 27
1.0
 37
0.0
 76
     0
330
1F
331
29
  0
MLINESTYLE
  5
18
102
{ACAD_REACTORS
330
17
102
}
330
17
100
AcDbMlineStyle
  2
Standard
 70
     0
  3

 62
   256
 51
90.0
 52
90.0
 71
     2
 49
0.5
 62
   256
  6
BYLAYER
 49
-0.5
 62
   256
  6
BYLAYER
  0
ACDBPLACEHOLDER
  5
F
102
{ACAD_REACTORS
330
E
102
}
330
E
  0
SCALE
  5
48
102
{ACAD_REACTORS
330
47
102
}
330
47
100
AcDbScale
 70
     0
300
1:1
140
1.0
141
1.0
290
     1
  0
SCALE
  5
49
102
{ACAD_REACTORS
330
47
102
}
330
47
100
AcDbScale
 70
     0
300
1:2
140
1.0
141
2.0
290
     0
  0
SCALE
  5
4A
102
{ACAD_REACTORS
330
47
102
}
330
47
100
AcDbScale
 70
     0
300
1:4
140
1.0
141
4.0
290
     0
  0
SCALE
  5
4B
102
{ACAD_REACTORS
330
47
102
}
330
47
100
AcDbScale
 70
     0
300
1:5
140
1.0
141
5.0
290
     0
  0
SCALE
  5
4C
102
{ACAD_REACTORS
330
47
102
}
330
47
100
AcDbScale
 70
     0
300
1:8
140
1.0
141
8.0
290
     0
  0
SCALE
  5
4D
102
{ACAD_REACTORS
330
47
102
}
330
47
100
AcDbScale
 70
     0
300
1:10
140
1.0
141
10.0
290
     0
  0
SCALE
  5
4E
102
{ACAD_REACTORS
330
47
102
}
330
47
100
AcDbScale
 70
     0
300
1:16
140
1.0
141
16.0
290
     0
  0
SCALE
  5
4F
102
{ACAD_REACTORS
330
47
102
}
330
47
100
AcDbScale
 70
     0
300
1:20
140
1.0
141
20.0
290
     0
  0
SCALE
  5
50
102
{ACAD_REACTORS
330
47
102
}
330
47
100
AcDbScale
 70
     0
300
1:30
140
1.0
141
30.0
290
     0
  0
SCALE
  5
51
102
{ACAD_REACTORS
330
47
102
}
330
47
100
AcDbScale
 70
     0
300
1:40
140
1.0
141
40.0
290
     0
  0
SCALE
  5
52
102
{ACAD_REACTORS
330
47
102
}
330
47
100
AcDbScale
 70
     0
300
1:50
140
1.0
141
50.0
290
     0
  0
SCALE
  5
53
102
{ACAD_REACTORS
330
47
102
}
330
47
100
AcDbScale
 70
     0
300
1:100
140
1.0
141
100.0
290
     0
  0
SCALE
  5
54
102
{ACAD_REACTORS
330
47
102
}
330
47
100
AcDbScale
 70
     0
300
2:1
140
2.0
141
1.0
290
     0
  0
SCALE
  5
55
102
{ACAD_REACTORS
330
47
102
}
330
47
100
AcDbScale
 70
     0
300
4:1
140
4.0
141
1.0
290
     0
  0
SCALE
  5
56
102
{ACAD_REACTORS
330
47
102
}
330
47
100
AcDbScale
 70
     0
300
8:1
140
8.0
141
1.0
290
     0
  0
SCALE
  5
57
102
{ACAD_REACTORS
330
47
102
}
330
47
100
AcDbScale
 70
     0
300
10:1
140
10.0
141
1.0
290
     0
  0
SCALE
  5
58
102
{ACAD_REACTORS
330
47
102
}
330
47
100
AcDbScale
 70
     0
300
100:1
140
100.0
141
1.0
290
     0
  0
SCALE
  5
59
102
{ACAD_REACTORS
330
47
102
}
330
47
100
AcDbScale
 70
     0
300
1/128" = 1'-0"
140
0.0078125
141
12.0
290
     0
  0
SCALE
  5
5A
102
{ACAD_REACTORS
330
47
102
}
330
47
100
AcDbScale
 70
     0
300
1/64" = 1'-0"
140
0.015625
141
12.0
290
     0
  0
SCALE
  5
5B
102
{ACAD_REACTORS
330
47
102
}
330
47
100
AcDbScale
 70
     0
300
1/32" = 1'-0"
140
0.03125
141
12.0
290
     0
  0
SCALE
  5
5C
102
{ACAD_REACTORS
330
47
102
}
330
47
100
AcDbScale
 70
     0
300
1/16" = 1'-0"
140
0.0625
141
12.0
290
     0
  0
SCALE
  5
5D
102
{ACAD_REACTORS
330
47
102
}
330
47
100
AcDbScale
 70
     0
300
3/32" = 1'-0"
140
0.09375
141
12.0
290
     0
  0
SCALE
  5
5E
102
{ACAD_REACTORS
330
47
102
}
330
47
100
AcDbScale
 70
     0
300
1/8" = 1'-0"
140
0.125
141
12.0
290
     0
  0
SCALE
  5
5F
102
{ACAD_REACTORS
330
47
102
}
330
47
100
AcDbScale
 70
     0
300
3/16" = 1'-0"
140
0.1875
141
12.0
290
     0
  0
SCALE
  5
60
102
{ACAD_REACTORS
330
47
102
}
330
47
100
AcDbScale
 70
     0
300
1/4" = 1'-0"
140
0.25
141
12.0
290
     0
  0
SCALE
  5
61
102
{ACAD_REACTORS
330
47
102
}
330
47
100
AcDbScale
 70
     0
300
3/8" = 1'-0"
140
0.375
141
12.0
290
     0
  0
SCALE
  5
62
102
{ACAD_REACTORS
330
47
102
}
330
47
100
AcDbScale
 70
     0
300
1/2" = 1'-0"
140
0.5
141
12.0
290
     0
  0
SCALE
  5
63
102
{ACAD_REACTORS
330
47
102
}
330
47
100
AcDbScale
 70
     0
300
3/4" = 1'-0"
140
0.75
141
12.0
290
     0
  0
SCALE
  5
64
102
{ACAD_REACTORS
330
47
102
}
330
47
100
AcDbScale
 70
     0
300
1" = 1'-0"
140
1.0
141
12.0
290
     0
  0
SCALE
  5
65
102
{ACAD_REACTORS
330
47
102
}
330
47
100
AcDbScale
 70
     0
300
1-1/2" = 1'-0"
140
1.5
141
12.0
290
     0
  0
SCALE
  5
66
102
{ACAD_REACTORS
330
47
102
}
330
47
100
AcDbScale
 70
     0
300
3" = 1'-0"
140
3.0
141
12.0
290
     0
  0
SCALE
  5
67
102
{ACAD_REACTORS
330
47
102
}
330
47
100
AcDbScale
 70
     0
300
6" = 1'-0"
140
6.0
141
12.0
290
     0
  0
SCALE
  5
68
102
{ACAD_REACTORS
330
47
102
}
330
47
100
AcDbScale
 70
     0
300
1'-0" = 1'-0"
140
12.0
141
12.0
290
     0
  0
ENDSEC
  0
EOF
