  0
SECTION
  2
HEADER
  9
$ACADVER
  1
AC1015
  9
$ACADMAINTVER
 70
     6
  9
$DWGCODEPAGE
  3
ANSI_1252
  9
$INSBASE
 10
0.0
 20
0.0
 30
0.0
  9
$EXTMIN
 10
0.0
 20
0.0
 30
0.0
  9
$EXTMAX
 10
666.0
 20
477.0
 30
0.0
  9
$LIMMIN
 10
0.0
 20
0.0
  9
$LIMMAX
 10
666.0
 20
477.0
  9
$ORTHOMODE
 70
     0
  9
$REGENMODE
 70
     1
  9
$FILLMODE
 70
     1
  9
$QTEXTMODE
 70
     0
  9
$MIRRTEXT
 70
     1
  9
$LTSCALE
 40
1.0
  9
$ATTMODE
 70
     1
  9
$TEXTSIZE
 40
3.5
  9
$TRACEWID
 40
1.0
  9
$TEXTSTYLE
  7
Standard
  9
$CLAYER
  8
0
  9
$CELTYPE
  6
ByLayer
  9
$CECOLOR
 62
   256
  9
$CELTSCALE
 40
1.0
  9
$DISPSILH
 70
     0
  9
$DIMSCALE
 40
1.0
  9
$DIMASZ
 40
3.302
  9
$DIMEXO
 40
1.0
  9
$DIMDLI
 40
3.75
  9
$DIMRND
 40
0.0
  9
$DIMDLE
 40
0.0
  9
$DIMEXE
 40
1.0
  9
$DIMTP
 40
0.0
  9
$DIMTM
 40
0.0
  9
$DIMTXT
 40
2.8
  9
$DIMCEN
 40
2.5
  9
$DIMTSZ
 40
0.0
  9
$DIMTOL
 70
     0
  9
$DIMLIM
 70
     0
  9
$DIMTIH
 70
     1
  9
$DIMTOH
 70
     1
  9
$DIMSE1
 70
     0
  9
$DIMSE2
 70
     0
  9
$DIMTAD
 70
     1
  9
$DIMZIN
 70
     0
  9
$DIMBLK
  1

  9
$DIMASO
 70
     1
  9
$DIMSHO
 70
     1
  9
$DIMPOST
  1

  9
$DIMAPOST
  1

  9
$DIMALT
 70
     0
  9
$DIMALTD
 70
     3
  9
$DIMALTF
 40
0.0393700787
  9
$DIMLFAC
 40
1.0
  9
$DIMTOFL
 70
     1
  9
$DIMTVP
 40
0.0
  9
$DIMTIX
 70
     0
  9
$DIMSOXD
 70
     0
  9
$DIMSAH
 70
     0
  9
$DIMBLK1
  1

  9
$DIMBLK2
  1

  9
$DIMSTYLE
  2
ISO-25
  9
$DIMCLRD
 70
     0
  9
$DIMCLRE
 70
     0
  9
$DIMCLRT
 70
     0
  9
$DIMTFAC
 40
1.0
  9
$DIMGAP
 40
1.524
  9
$DIMJUST
 70
     0
  9
$DIMSD1
 70
     0
  9
$DIMSD2
 70
     0
  9
$DIMTOLJ
 70
     0
  9
$DIMTZIN
 70
     0
  9
$DIMALTZ
 70
     0
  9
$DIMALTTZ
 70
     0
  9
$DIMUPT
 70
     0
  9
$DIMDEC
 70
     2
  9
$DIMTDEC
 70
     2
  9
$DIMALTU
 70
     2
  9
$DIMALTTD
 70
     3
  9
$DIMTXSTY
  7
Standard
  9
$DIMAUNIT
 70
     0
  9
$DIMADEC
 70
     2
  9
$DIMALTRND
 40
0.0
  9
$DIMAZIN
 70
     0
  9
$DIMDSEP
 70
    44
  9
$DIMATFIT
 70
     3
  9
$DIMFRAC
 70
     0
  9
$DIMLDRBLK
  1

  9
$DIMLUNIT
 70
     2
  9
$DIMLWD
 70
    -2
  9
$DIMLWE
 70
    -2
  9
$DIMTMOVE
 70
     0
  9
$LUNITS
 70
     2
  9
$LUPREC
 70
     2
  9
$SKETCHINC
 40
1.0
  9
$FILLETRAD
 40
10.0
  9
$AUNITS
 70
     0
  9
$AUPREC
 70
     2
  9
$MENU
  1
.
  9
$ELEVATION
 40
0.0
  9
$PELEVATION
 40
0.0
  9
$THICKNESS
 40
0.0
  9
$LIMCHECK
 70
     0
  9
$CHAMFERA
 40
0.0
  9
$CHAMFERB
 40
0.0
  9
$CHAMFERC
 40
0.0
  9
$CHAMFERD
 40
0.0
  9
$SKPOLY
 70
     0
  9
$TDCREATE
 40
2458166.371411389
  9
$TDUCREATE
 40
2458166.288078056
  9
$TDUPDATE
 40
2458166.371411875
  9
$TDUUPDATE
 40
2458166.288078542
  9
$TDINDWG
 40
0.0000000116
  9
$TDUSRTIMER
 40
0.0000000116
  9
$USRTIMER
 70
     1
  9
$ANGBASE
 50
0.0
  9
$ANGDIR
 70
     0
  9
$PDMODE
 70
     0
  9
$PDSIZE
 40
-1.0
  9
$PLINEWID
 40
0.0
  9
$SPLFRAME
 70
     0
  9
$SPLINETYPE
 70
     6
  9
$SPLINESEGS
 70
     8
  9
$HANDSEED
  5
279
  9
$SURFTAB1
 70
     6
  9
$SURFTAB2
 70
     6
  9
$SURFTYPE
 70
     6
  9
$SURFU
 70
     6
  9
$SURFV
 70
     6
  9
$UCSBASE
  2

  9
$UCSNAME
  2

  9
$UCSORG
 10
0.0
 20
0.0
 30
0.0
  9
$UCSXDIR
 10
1.0
 20
0.0
 30
0.0
  9
$UCSYDIR
 10
0.0
 20
1.0
 30
0.0
  9
$UCSORTHOREF
  2

  9
$UCSORTHOVIEW
 70
     0
  9
$UCSORGTOP
 10
0.0
 20
0.0
 30
0.0
  9
$UCSORGBOTTOM
 10
0.0
 20
0.0
 30
0.0
  9
$UCSORGLEFT
 10
0.0
 20
0.0
 30
0.0
  9
$UCSORGRIGHT
 10
0.0
 20
0.0
 30
0.0
  9
$UCSORGFRONT
 10
0.0
 20
0.0
 30
0.0
  9
$UCSORGBACK
 10
0.0
 20
0.0
 30
0.0
  9
$PUCSBASE
  2

  9
$PUCSNAME
  2

  9
$PUCSORG
 10
0.0
 20
0.0
 30
0.0
  9
$PUCSXDIR
 10
1.0
 20
0.0
 30
0.0
  9
$PUCSYDIR
 10
0.0
 20
1.0
 30
0.0
  9
$PUCSORTHOREF
  2

  9
$PUCSORTHOVIEW
 70
     0
  9
$PUCSORGTOP
 10
0.0
 20
0.0
 30
0.0
  9
$PUCSORGBOTTOM
 10
0.0
 20
0.0
 30
0.0
  9
$PUCSORGLEFT
 10
0.0
 20
0.0
 30
0.0
  9
$PUCSORGRIGHT
 10
0.0
 20
0.0
 30
0.0
  9
$PUCSORGFRONT
 10
0.0
 20
0.0
 30
0.0
  9
$PUCSORGBACK
 10
0.0
 20
0.0
 30
0.0
  9
$USERI1
 70
     0
  9
$USERI2
 70
     0
  9
$USERI3
 70
     0
  9
$USERI4
 70
     0
  9
$USERI5
 70
     0
  9
$USERR1
 40
0.0
  9
$USERR2
 40
0.0
  9
$USERR3
 40
0.0
  9
$USERR4
 40
0.0
  9
$USERR5
 40
0.0
  9
$WORLDVIEW
 70
     1
  9
$SHADEDGE
 70
     3
  9
$SHADEDIF
 70
    70
  9
$TILEMODE
 70
     1
  9
$MAXACTVP
 70
    64
  9
$PINSBASE
 10
0.0
 20
0.0
 30
0.0
  9
$PLIMCHECK
 70
     0
  9
$PEXTMIN
 10
1.0000000000E+20
 20
1.0000000000E+20
 30
1.0000000000E+20
  9
$PEXTMAX
 10
-1.0000000000E+20
 20
-1.0000000000E+20
 30
-1.0000000000E+20
  9
$PLIMMIN
 10
0.0
 20
0.0
  9
$PLIMMAX
 10
420.0
 20
297.0
  9
$UNITMODE
 70
     0
  9
$VISRETAIN
 70
     1
  9
$PLINEGEN
 70
     0
  9
$PSLTSCALE
 70
     1
  9
$TREEDEPTH
 70
  3020
  9
$CMLSTYLE
  2
Standard
  9
$CMLJUST
 70
     0
  9
$CMLSCALE
 40
20.0
  9
$PROXYGRAPHICS
 70
     1
  9
$MEASUREMENT
 70
     1
  9
$CELWEIGHT
370
    -1
  9
$ENDCAPS
280
     0
  9
$JOINSTYLE
280
     0
  9
$LWDISPLAY
290
     1
  9
$INSUNITS
 70
     4
  9
$HYPERLINKBASE
  1

  9
$STYLESHEET
  1

  9
$XEDIT
290
     1
  9
$CEPSNTYPE
380
     0
  9
$PSTYLEMODE
290
     1
  9
$FINGERPRINTGUID
  2
{3A00B024-FF6A-40AE-80B4-76BA335189B8}
  9
$VERSIONGUID
  2
{FAEB1C32-E019-11D5-929B-00C0DF256EC4}
  9
$EXTNAMES
290
     1
  9
$PSVPSCALE
 40
0.0
  9
$OLESTARTUP
290
     0
  0
ENDSEC
  0
SECTION
  2
CLASSES
  0
CLASS
  1
ACDBDICTIONARYWDFLT
  2
AcDbDictionaryWithDefault
  3
ObjectDBX Classes
 90
        0
280
     0
281
     0
  0
CLASS
  1
VISUALSTYLE
  2
AcDbVisualStyle
  3
ObjectDBX Classes
 90
     4095
280
     0
281
     0
  0
CLASS
  1
MATERIAL
  2
AcDbMaterial
  3
ObjectDBX Classes
 90
     1153
280
     0
281
     0
  0
CLASS
  1
SCALE
  2
AcDbScale
  3
ObjectDBX Classes
 90
     1153
280
     0
281
     0
  0
CLASS
  1
TABLESTYLE
  2
AcDbTableStyle
  3
ObjectDBX Classes
 90
     4095
280
     0
281
     0
  0
CLASS
  1
MLEADERSTYLE
  2
AcDbMLeaderStyle
  3
ACDB_MLEADERSTYLE_CLASS
 90
     4095
280
     0
281
     0
  0
CLASS
  1
SUN
  2
AcDbSun
  3
SCENEOE
 90
     1153
280
     0
281
     0
  0
CLASS
  1
ACDBPLACEHOLDER
  2
AcDbPlaceHolder
  3
ObjectDBX Classes
 90
        0
280
     0
281
     0
  0
CLASS
  1
LAYOUT
  2
AcDbLayout
  3
ObjectDBX Classes
 90
        0
280
     0
281
     0
  0
ENDSEC
  0
SECTION
  2
TABLES
  0
TABLE
  2
VPORT
  5
8
330
0
100
AcDbSymbolTable
 70
     1
  0
VPORT
  5
29
330
8
100
AcDbSymbolTableRecord
100
AcDbViewportTableRecord
  2
*Active
 70
     0
 10
0.0
 20
0.0
 11
1.0
 21
1.0
 12
333.0
 22
238.5
 13
0.0
 23
0.0
 14
10.0
 24
10.0
 15
10.0
 25
10.0
 16
0.0
 26
0.0
 36
1.0
 17
0.0
 27
0.0
 37
0.0
 40
477.0
 41
1.3962264151
 42
50.0
 43
0.0
 44
0.0
 50
0.0
 51
0.0
 71
     0
 72
  2000
 73
     1
 74
     3
 75
     0
 76
     0
 77
     0
 78
     0
281
     0
 65
     1
110
0.0
120
0.0
130
0.0
111
1.0
121
0.0
131
0.0
112
0.0
122
1.0
132
0.0
 79
     0
146
0.0
  0
ENDTAB
  0
TABLE
  2
LTYPE
  5
5
330
0
100
AcDbSymbolTable
 70
     6
  0
LTYPE
  5
14
330
5
100
AcDbSymbolTableRecord
100
AcDbLinetypeTableRecord
  2
ByBlock
 70
     0
  3

 72
    65
 73
     0
 40
0.0
  0
LTYPE
  5
15
330
5
100
AcDbSymbolTableRecord
100
AcDbLinetypeTableRecord
  2
ByLayer
 70
     0
  3

 72
    65
 73
     0
 40
0.0
  0
LTYPE
  5
16
330
5
100
AcDbSymbolTableRecord
100
AcDbLinetypeTableRecord
  2
Continuous
 70
     0
  3
Solid line
 72
    65
 73
     0
 40
0.0
  0
LTYPE
  5
6E
330
5
100
AcDbSymbolTableRecord
100
AcDbLinetypeTableRecord
  2
HIDDEN
 70
     0
  3
Hidden __ __ __ __ __ __ __ __ __ __ __ __ __ __
 72
    65
 73
     2
 40
1.905
 49
1.27
 74
     0
 49
-0.635
 74
     0
  0
LTYPE
  5
6F
330
5
100
AcDbSymbolTableRecord
100
AcDbLinetypeTableRecord
  2
PHANTOM
 70
     0
  3
Phantom ______  __  __  ______  __  __  ______
 72
    65
 73
     6
 40
12.7
 49
6.35
 74
     0
 49
-1.27
 74
     0
 49
1.27
 74
     0
 49
-1.27
 74
     0
 49
1.27
 74
     0
 49
-1.27
 74
     0
  0
LTYPE
  5
70
330
5
100
AcDbSymbolTableRecord
100
AcDbLinetypeTableRecord
  2
CENTER
 70
     0
  3
Center ____ _ ____ _ ____ _ ____ _ ____ _ ____
 72
    65
 73
     4
 40
10.16
 49
6.35
 74
     0
 49
-1.27
 74
     0
 49
1.27
 74
     0
 49
-1.27
 74
     0
  0
LTYPE
  5
71
330
5
100
AcDbSymbolTableRecord
100
AcDbLinetypeTableRecord
  2
CENTERX2
 70
     0
  3
Center (2x) ________  __  ________  __  _____
 72
    65
 73
     4
 40
20.32
 49
12.7
 74
     0
 49
-2.54
 74
     0
 49
2.54
 74
     0
 49
-2.54
 74
     0
  0
LTYPE
  5
72
330
5
100
AcDbSymbolTableRecord
100
AcDbLinetypeTableRecord
  2
DOT2
 70
     0
  3
Dot (.5x) ........................................
 72
    65
 73
     2
 40
0.635
 49
0.0
 74
     0
 49
-0.635
 74
     0
  0
ENDTAB
  0
TABLE
  2
LAYER
  5
2
330
0
100
AcDbSymbolTable
 70
     2
  0
LAYER
  5
10
330
2
100
AcDbSymbolTableRecord
100
AcDbLayerTableRecord
  2
0
 70
     0
 62
     7
  6
Continuous
370
    -3
390
F
  0
LAYER
  5
73
330
2
100
AcDbSymbolTableRecord
100
AcDbLayerTableRecord
  2
FORMAT
 70
     0
 62
     7
  6
Continuous
370
    -3
390
F
  0
ENDTAB
  0
TABLE
  2
STYLE
  5
3
330
0
100
AcDbSymbolTable
 70
     2
  0
STYLE
  5
11
330
3
100
AcDbSymbolTableRecord
100
AcDbTextStyleTableRecord
  2
Standard
 70
     0
 40
0.0
 41
1.0
 50
0.0
 71
     0
 42
3.5
  3
txt
  4

  0
STYLE
  5
74
330
3
100
AcDbSymbolTableRecord
100
AcDbTextStyleTableRecord
  2
SLDTEXTSTYLE0
 70
     0
 40
0.0
 41
0.605
 50
0.0
 71
     0
 42
3.5
  3
TXT
  4

  0
ENDTAB
  0
TABLE
  2
VIEW
  5
6
330
0
100
AcDbSymbolTable
 70
     0
  0
ENDTAB
  0
TABLE
  2
UCS
  5
7
330
0
100
AcDbSymbolTable
 70
     0
  0
ENDTAB
  0
TABLE
  2
APPID
  5
9
330
0
100
AcDbSymbolTable
 70
     1
  0
APPID
  5
12
330
9
100
AcDbSymbolTableRecord
100
AcDbRegAppTableRecord
  2
ACAD
 70
     0
  0
ENDTAB
  0
TABLE
  2
DIMSTYLE
  5
A
330
0
100
AcDbSymbolTable
 70
     1
100
AcDbDimStyleTable
  0
DIMSTYLE
105
27
330
A
100
AcDbSymbolTableRecord
100
AcDbDimStyleTableRecord
  2
ISO-25
 70
     0
 41
2.5
 42
0.625
 43
3.75
 44
1.25
 73
     0
 74
     0
 77
     1
 78
     8
140
2.5
141
2.5
143
0.0393700787
147
0.625
171
     3
172
     1
178
     0
271
     2
272
     2
274
     3
278
    44
283
     0
284
     8
340
11
  0
ENDTAB
  0
TABLE
  2
BLOCK_RECORD
  5
1
330
0
100
AcDbSymbolTable
 70
     1
  0
BLOCK_RECORD
  5
1F
330
1
100
AcDbSymbolTableRecord
100
AcDbBlockTableRecord
  2
*Model_Space
340
22
  0
BLOCK_RECORD
  5
1B
330
1
100
AcDbSymbolTableRecord
100
AcDbBlockTableRecord
  2
*Paper_Space
340
1E
  0
BLOCK_RECORD
  5
23
330
1
100
AcDbSymbolTableRecord
100
AcDbBlockTableRecord
  2
*Paper_Space0
340
26
  0
ENDTAB
  0
ENDSEC
  0
SECTION
  2
BLOCKS
  0
BLOCK
  5
20
330
1F
100
AcDbEntity
  8
0
100
AcDbBlockBegin
  2
*Model_Space
 70
     0
 10
0.0
 20
0.0
 30
0.0
  3
*Model_Space
  1

  0
ENDBLK
  5
21
330
1F
100
AcDbEntity
  8
0
100
AcDbBlockEnd
  0
BLOCK
  5
1C
330
1B
100
AcDbEntity
 67
     1
  8
0
100
AcDbBlockBegin
  2
*Paper_Space
 70
     0
 10
0.0
 20
0.0
 30
0.0
  3
*Paper_Space
  1

  0
ENDBLK
  5
1D
330
1B
100
AcDbEntity
 67
     1
  8
0
100
AcDbBlockEnd
  0
BLOCK
  5
24
330
23
100
AcDbEntity
  8
0
100
AcDbBlockBegin
  2
*Paper_Space0
 70
     0
 10
0.0
 20
0.0
 30
0.0
  3
*Paper_Space0
  1

  0
ENDBLK
  5
25
330
23
100
AcDbEntity
  8
0
100
AcDbBlockEnd
  0
ENDSEC
  0
SECTION
  2
ENTITIES
  0
MTEXT
  5
75
330
1F
100
AcDbEntity
  8
0
  6
Continuous
 62
     7
370
     0
100
AcDbMText
 10
7.2782978723
 20
22.1884790273
 30
0.0
 40
10.0
 41
0.0
 71
     1
 72
     1
  1
1:1
  7
SLDTEXTSTYLE0
 73
     1
 44
1.0
  0
SPLINE
  5
76
330
1F
100
AcDbEntity
  8
0
  6
Continuous
 62
     7
370
    30
100
AcDbSpline
210
0.0
220
0.0
230
1.0
 70
     8
 71
     3
 72
   147
 73
   143
 74
     0
 42
0.000000001
 43
0.00000001
 40
0.0
 40
0.0
 40
0.0
 40
0.0
 40
0.0034350698558331
 40
0.0074779398887759
 40
0.0115363914419
 40
0.0156391631616023
 40
0.0198179964752663
 40
0.0241091171516298
 40
0.0285544206816142
 40
0.033202626421734
 40
0.0381105951144951
 40
0.0433447536420154
 40
0.0489819962780527
 40
0.0551080535234083
 40
0.0618081970596228
 40
0.0691401062312125
 40
0.0770801832348854
 40
0.0854716288132228
 40
0.0940617587246644
 40
0.1025962711361306
 40
0.1109880925895094
 40
0.1192281952441392
 40
0.1273322139658991
 40
0.1353210916073387
 40
0.1432144191552844
 40
0.1510287563249302
 40
0.1587776139979787
 40
0.1664718941742023
 40
0.1741203869054828
 40
0.1817302066196911
 40
0.1893071454538827
 40
0.1968559506456191
 40
0.2043805399238142
 40
0.2118841684654754
 40
0.2193695586747821
 40
0.2268390015803656
 40
0.2342944365523565
 40
0.241737514395976
 40
0.2491696476294072
 40
0.2565920508198796
 40
0.2640057731556654
 40
0.2714117249147471
 40
0.2788106991032279
 40
0.2862033892465766
 40
0.2935904040976629
 40
0.3009722798589449
 40
0.3083494903889771
 40
0.3157224557655487
 40
0.3230915495020056
 40
0.3304571046543436
 40
0.3378194190103075
 40
0.3451787595155252
 40
0.3525353660625026
 40
0.3598894547457002
 40
0.3672412206671288
 40
0.3745908403623325
 40
0.3819384739045065
 40
0.3892842667348212
 40
0.3966283512590129
 40
0.4039708482439472
 40
0.4113118680422433
 40
0.4186515116690203
 40
0.4259898717506564
 40
0.4333270333629146
 40
0.4406630747729131
 40
0.4479980680974024
 40
0.4553320798879411
 40
0.4626651716523942
 40
0.4699974003201716
 40
0.4773288186585075
 40
0.4846594756453758
 40
0.4919894168040916
 40
0.4993186845043714
 40
0.5066473182333271
 40
0.513975354840012
 40
0.5213028287564391
 40
0.5286297721975199
 40
0.5359562153424416
 40
0.5432821864991968
 40
0.5506077122543244
 40
0.5579328176091171
 40
0.5652575261039919
 40
0.572581859931921
 40
0.5799058400423116
 40
0.5872294862360828
 40
0.5945528172528287
 40
0.6018758508510665
 40
0.6091986038817998
 40
0.6165210923565501
 40
0.623843331509918
 40
0.6311653358575793
 40
0.6384871192498162
 40
0.645808694921226
 40
0.6531300755368856
 40
0.6604512732352423
 40
0.6677722996681188
 40
0.6750931660380782
 40
0.6824138831333666
 40
0.689734461360641
 40
0.6970549107757943
 40
0.70437524111286
 40
0.7116954618114484
 40
0.7190155820425865
 40
0.7263356107333023
 40
0.7336555565900257
 40
0.7409754281208834
 40
0.7482952336571019
 40
0.7556149813735294
 40
0.762934679308467
 40
0.7702543353828512
 40
0.777573957418849
 40
0.7848935531581035
 40
0.7922131302794414
 40
0.7995326964165033
 40
0.806852259174971
 40
0.81417182475499
 40
0.8214913996184535
 40
0.8288109913813255
 40
0.8361306076945989
 40
0.843450256261629
 40
0.8507699448557262
 40
0.858089681338082
 40
0.8654094736760569
 40
0.8727293299619145
 40
0.8800492584322406
 40
0.8873692674878594
 40
0.8946893657146531
 40
0.9020095619051611
 40
0.9093298650811795
 40
0.9166502845174589
 40
0.9239708297665641
 40
0.9312915106851926
 40
0.9386123374618868
 40
0.9459333206465066
 40
0.9532544711814408
 40
0.9605758004349133
 40
0.9678973202364917
 40
0.9752190429151159
 40
0.982540981339699
 40
0.9898631489628938
 40
0.9971855598679444
 40
1.0
 40
1.0
 40
1.0
 40
1.0
 10
316.8809859752035
 20
429.6878799930585
 30
0.0
 10
316.8810821330311
 20
429.6809552467777
 30
0.0
 10
316.8812914628222
 20
429.6658804917927
 30
0.0
 10
316.884196473158
 20
429.6429226473835
 30
0.0
 10
316.8890566295127
 20
429.6193151857167
 30
0.0
 10
316.8958683430097
 20
429.5964332846821
 30
0.0
 10
316.9044303168084
 20
429.5743547951836
 30
0.0
 10
316.9146582164697
 20
429.5530980774014
 30
0.0
 10
316.9264814824716
 20
429.5326251251057
 30
0.0
 10
316.9398930635751
 20
429.5128505227269
 30
0.0
 10
316.9549543266499
 20
429.4936501668965
 30
0.0
 10
316.9718113584121
 20
429.4748694543421
 30
0.0
 10
316.9907065710578
 20
429.4563322557843
 30
0.0
 10
317.0119828716868
 20
429.4378561388734
 30
0.0
 10
317.0360578122479
 20
429.4192844788515
 30
0.0
 10
317.0633289690849
 20
429.4005460967911
 30
0.0
 10
317.0939933071741
 20
429.3817244879572
 30
0.0
 10
317.1278805791478
 20
429.3630642713297
 30
0.0
 10
317.1644246062917
 20
429.344895620755
 30
0.0
 10
317.2029758627872
 20
429.3274493901789
 30
0.0
 10
317.2430723769548
 20
429.3107929384772
 30
0.0
 10
317.2845790107422
 20
429.2948468683129
 30
0.0
 10
317.3275077253451
 20
429.2794977262399
 30
0.0
 10
317.3719168297309
 20
429.2646418980238
 30
0.0
 10
317.4178723854925
 20
429.2501950758455
 30
0.0
 10
317.4654344926519
 20
429.2360913774572
 30
0.0
 10
317.5146537273307
 20
429.2222799166244
 30
0.0
 10
317.5655711695057
 20
429.2087213995849
 30
0.0
 10
317.6182195062932
 20
429.1953853618729
 30
0.0
 10
317.6726243145291
 20
429.1822480623009
 30
0.0
 10
317.7288052315343
 20
429.1692909097526
 30
0.0
 10
317.7867769421001
 20
429.1564992914602
 30
0.0
 10
317.8465499849781
 20
429.1438616963512
 30
0.0
 10
317.9081314043014
 20
429.1313690539913
 30
0.0
 10
317.9715252744958
 20
429.1190142314964
 30
0.0
 10
318.0367331241849
 20
429.1067916469719
 30
0.0
 10
318.1037542800962
 20
429.0946969696537
 30
0.0
 10
318.1725861476794
 20
429.0827268851596
 30
0.0
 10
318.2432244415442
 20
429.0708789100993
 30
0.0
 10
318.315663375933
 20
429.0591512444484
 30
0.0
 10
318.3898958232026
 20
429.0475426530723
 30
0.0
 10
318.4659134465463
 20
429.0360523699446
 30
0.0
 10
318.543706811857
 20
429.0246800201712
 30
0.0
 10
318.6232654825955
 20
429.0134255560995
 30
0.0
 10
318.7045781007387
 20
429.0022892046379
 30
0.0
 10
318.7876324562605
 20
428.9912714235689
 30
0.0
 10
318.8724155471181
 20
428.9803728651182
 30
0.0
 10
318.9589136313372
 20
428.9695943454107
 30
0.0
 10
319.0471122724912
 20
428.9589368187367
 30
0.0
 10
319.1369963796351
 20
428.9484013557648
 30
0.0
 10
319.22855024256
 20
428.9379891250097
 30
0.0
 10
319.3217575630892
 20
428.9277013770001
 30
0.0
 10
319.4166014830093
 20
428.9175394306939
 30
0.0
 10
319.5130646091333
 20
428.9075046617755
 30
0.0
 10
319.6111290359095
 20
428.8975984925305
 30
0.0
 10
319.7107763659261
 20
428.8878223830549
 30
0.0
 10
319.8119877286042
 20
428.8781778235915
 30
0.0
 10
319.9147437973295
 20
428.8686663278245
 30
0.0
 10
320.0190248052332
 20
428.859289426993
 30
0.0
 10
320.1248105598023
 20
428.8500486647026
 30
0.0
 10
320.2320804564743
 20
428.8409455923389
 30
0.0
 10
320.3408134913472
 20
428.8319817649989
 30
0.0
 10
320.4509882731206
 20
428.8231587378673
 30
0.0
 10
320.562583034363
 20
428.8144780629838
 30
0.0
 10
320.6755756421928
 20
428.805941286344
 30
0.0
 10
320.7899436084452
 20
428.7975499452971
 30
0.0
 10
320.9056640993894
 20
428.7893055661973
 30
0.0
 10
321.0227139450507
 20
428.7812096622841
 30
0.0
 10
321.1410696481879
 20
428.7732637317576
 30
0.0
 10
321.2607073929665
 20
428.7654692560299
 30
0.0
 10
321.3816030533664
 20
428.7578276981311
 30
0.0
 10
321.5037322013551
 20
428.7503405012511
 30
0.0
 10
321.6270701148571
 20
428.7430090874049
 30
0.0
 10
321.7515917855425
 20
428.7358348562045
 30
0.0
 10
321.877271926459
 20
428.7288191837294
 30
0.0
 10
322.004084979525
 20
428.7219634214833
 30
0.0
 10
322.1320051229031
 20
428.7152688954289
 30
0.0
 10
322.2610062782673
 20
428.7087369050937
 30
0.0
 10
322.391062117979
 20
428.7023687227395
 30
0.0
 10
322.5221460721825
 20
428.6961655925886
 30
0.0
 10
322.6542313358318
 20
428.6901287301048
 30
0.0
 10
322.7872908756567
 20
428.6842593213202
 30
0.0
 10
322.921297437078
 20
428.678558522206
 30
0.0
 10
323.0562235510777
 20
428.6730274580858
 30
0.0
 10
323.1920415410319
 20
428.6676672230828
 30
0.0
 10
323.3287235295113
 20
428.6624788796035
 30
0.0
 10
323.4662414450539
 20
428.6574634578522
 30
0.0
 10
323.604567028917
 20
428.6526219553748
 30
0.0
 10
323.7436718418083
 20
428.6479553366302
 30
0.0
 10
323.8835272706035
 20
428.6434645325878
 30
0.0
 10
324.0241045350508
 20
428.639150440348
 30
0.0
 10
324.1653746944662
 20
428.6350139227866
 30
0.0
 10
324.3073086544214
 20
428.6310558082195
 30
0.0
 10
324.4498771734262
 20
428.627276890088
 30
0.0
 10
324.593050869608
 20
428.6236779266636
 30
0.0
 10
324.7368002273882
 20
428.6202596407709
 30
0.0
 10
324.8810956041585
 20
428.6170227195275
 30
0.0
 10
325.025907236957
 20
428.6139678141011
 30
0.0
 10
325.1712052491453
 20
428.6110955394834
 30
0.0
 10
325.3169596570868
 20
428.6084064742776
 30
0.0
 10
325.4631403768283
 20
428.6059011605031
 30
0.0
 10
325.6097172307825
 20
428.6035801034126
 30
0.0
 10
325.7566599544148
 20
428.6014437713255
 30
0.0
 10
325.9039382029327
 20
428.5994925954725
 30
0.0
 10
326.0515215579772
 20
428.5977269698561
 30
0.0
 10
326.1993795343191
 20
428.5961472511223
 30
0.0
 10
326.3474815865564
 20
428.5947537584459
 30
0.0
 10
326.4957971158159
 20
428.5935467734289
 30
0.0
 10
326.6442954764564
 20
428.5925265400094
 30
0.0
 10
326.7929459827749
 20
428.5916932643859
 30
0.0
 10
326.9417179157144
 20
428.5910471149498
 30
0.0
 10
327.0905805295731
 20
428.5905882222333
 30
0.0
 10
327.2395030587156
 20
428.5903166788672
 30
0.0
 10
327.3884547242836
 20
428.5902325395508
 30
0.0
 10
327.537404731448
 20
428.5903358210276
 30
0.0
 10
327.6863222778621
 20
428.5906265020161
 30
0.0
 10
327.8351765680827
 20
428.5911045231867
 30
0.0
 10
327.9839368297243
 20
428.5917697872379
 30
0.0
 10
328.1325723183873
 20
428.5926221589759
 30
0.0
 10
328.2810523166588
 20
428.5936614653403
 30
0.0
 10
328.4293461408166
 20
428.5948874954542
 30
0.0
 10
328.5774231475307
 20
428.5963000006881
 30
0.0
 10
328.7252527405615
 20
428.597898694735
 30
0.0
 10
328.8728043774541
 20
428.5996832536979
 30
0.0
 10
329.0200475762287
 20
428.6016533161888
 30
0.0
 10
329.1669519220669
 20
428.6038084834412
 30
0.0
 10
329.3134870739935
 20
428.6061483194343
 30
0.0
 10
329.4596227715519
 20
428.6086723510307
 30
0.0
 10
329.6053288414855
 20
428.6113800681254
 30
0.0
 10
329.7505752043691
 20
428.6142709238172
 30
0.0
 10
329.8953318814069
 20
428.6173443345578
 30
0.0
 10
330.0395690005872
 20
428.620599680448
 30
0.0
 10
330.1832568052149
 20
428.6240363050583
 30
0.0
 10
330.3263656535506
 20
428.6276535170874
 30
0.0
 10
330.4688660516249
 20
428.631450585237
 30
0.0
 10
330.6107285622169
 20
428.6354267584767
 30
0.0
 10
330.7519241760021
 20
428.6395811916266
 30
0.0
 10
330.8924229577853
 20
428.6439132243938
 30
0.0
 10
331.0321991304667
 20
428.6484213413265
 30
0.0
 10
331.1712121319991
 20
428.6531070549638
 30
0.0
 10
331.2811018650638
 20
428.6569643837569
 30
0.0
 10
331.3446028384874
 20
428.6592679061999
 30
0.0
 10
331.3622335294558
 20
428.6599074663539
 30
0.0
  0
SPLINE
  5
77
330
1F
100
AcDbEntity
  8
0
  6
Continuous
 62
     7
370
    30
100
AcDbSpline
210
0.0
220
0.0
230
1.0
 70
     8
 71
     3
 72
    92
 73
    88
 74
     0
 42
0.000000001
 43
0.00000001
 40
0.0
 40
0.0
 40
0.0
 40
0.0
 40
0.0064393321465291
 40
0.0186782539564322
 40
0.0309176194054115
 40
0.0431574953123326
 40
0.0553979117529067
 40
0.0676389004672121
 40
0.0798804949950714
 40
0.0921227308233412
 40
0.1043656455465337
 40
0.1166092790422592
 40
0.1288536736629317
 40
0.1410988744455631
 40
0.1533449293420269
 40
0.1655918894716734
 40
0.1778398093992366
 40
0.190088747440838
 40
0.2023387660015029
 40
0.2145899319480382
 40
0.2268423170215556
 40
0.2390959982946818
 40
0.2513510586790215
 40
0.2636075874894851
 40
0.2758656810728872
 40
0.2881254435091891
 40
0.3003869873957054
 40
0.312650434725119
 40
0.3249159178710421
 40
0.3371835806960408
 40
0.3494535798001755
 40
0.3617260859309453
 40
0.3740012855786748
 40
0.3862793827863969
 40
0.3985606012075083
 40
0.410845186451101
 40
0.4231334087619506
 40
0.4354255660911576
 40
0.4477219876240388
 40
0.4600230378449542
 40
0.4723291212349603
 40
0.4846406877176462
 40
0.4969582389929543
 40
0.5092823359287643
 40
0.5216136072176399
 40
0.5339527595527929
 40
0.5463005896364844
 40
0.5586579984085029
 40
0.5710260079768731
 40
0.5834057818539214
 40
0.5957986492561448
 40
0.6082061344263262
 40
0.6206299921971798
 40
0.6330722513545718
 40
0.6455352678041697
 40
0.6580217901308872
 40
0.6705350409140113
 40
0.6830788181816191
 40
0.6956576227309401
 40
0.708276818790052
 40
0.7209428377225029
 40
0.7336634371755614
 40
0.7464480309975625
 40
0.7593081074741973
 40
0.7722577522568909
 40
0.7853142804900352
 40
0.7984989409460967
 40
0.8118375333934262
 40
0.8253604478339631
 40
0.8391007504465658
 40
0.8530866725946563
 40
0.8673195869407777
 40
0.8817200719285936
 40
0.8944068723041348
 40
0.9060975858842457
 40
0.9167482303863561
 40
0.9264691790344564
 40
0.9354104813369886
 40
0.9437155844206039
 40
0.9515093430501717
 40
0.9588973889964251
 40
0.9667522505121705
 40
0.974239697332845
 40
0.9814431252678093
 40
0.9884450629470118
 40
0.9953126186271111
 40
1.0
 40
1.0
 40
1.0
 40
1.0
 10
331.3622335294558
 20
428.6599074663539
 30
0.0
 10
331.3863291111416
 20
428.6607914180526
 30
0.0
 10
331.4562219794879
 20
428.6633554532564
 30
0.0
 10
331.5712737116327
 20
428.6677316710159
 30
0.0
 10
331.7070818758762
 20
428.673091769274
 30
0.0
 10
331.8419861887364
 20
428.6786249906745
 30
0.0
 10
331.9759731555883
 20
428.6843272567649
 30
0.0
 10
332.1090115253361
 20
428.6901982386079
 30
0.0
 10
332.2410750356065
 20
428.6962365616729
 30
0.0
 10
332.3721363643124
 20
428.7024410929654
 30
0.0
 10
332.5021687590557
 20
428.7088105968657
 30
0.0
 10
332.6311456091655
 20
428.7153438281518
 30
0.0
 10
332.7590405691053
 20
428.7220395079258
 30
0.0
 10
332.8858275341984
 20
428.7288963309781
 30
0.0
 10
333.0114806560071
 20
428.7359129647929
 30
0.0
 10
333.1359743471785
 20
428.7430880508663
 30
0.0
 10
333.25928328922
 20
428.7504202054833
 30
0.0
 10
333.3813824396116
 20
428.7579080207292
 30
0.0
 10
333.5022470392372
 20
428.7655500655338
 30
0.0
 10
333.6218526198921
 20
428.7733448868174
 30
0.0
 10
333.7401750119544
 20
428.7812910107284
 30
0.0
 10
333.8571903522233
 20
428.7893869439936
 30
0.0
 10
333.9728750919543
 20
428.797631175388
 30
0.0
 10
334.0872060051162
 20
428.8060221773442
 30
0.0
 10
334.2001601969007
 20
428.8145584077156
 30
0.0
 10
334.3117151125239
 20
428.8232383117165
 30
0.0
 10
334.4218485463545
 20
428.8320603240599
 30
0.0
 10
334.53053865142
 20
428.8410228713225
 30
0.0
 10
334.6377639493409
 20
428.8501243745674
 30
0.0
 10
334.7435033407551
 20
428.8593632522619
 30
0.0
 10
334.8477361163008
 20
428.8687379235341
 30
0.0
 10
334.9504419682397
 20
428.8782468118182
 30
0.0
 10
335.0516010028123
 20
428.8878883489492
 30
0.0
 10
335.1511937534336
 20
428.8976609797767
 30
0.0
 10
335.2492011948512
 20
428.9075631673814
 30
0.0
 10
335.3456047584143
 20
428.9175933989939
 30
0.0
 10
335.4403863486182
 20
428.9277501927331
 30
0.0
 10
335.5335283611258
 20
428.9380321053047
 30
0.0
 10
335.6250137024948
 20
428.9484377408314
 30
0.0
 10
335.7148258118851
 20
428.9589657610146
 30
0.0
 10
335.802948685068
 20
428.9696148968789
 30
0.0
 10
335.8893669011206
 20
428.9803839623957
 30
0.0
 10
335.9740656522586
 20
428.9912718703525
 30
0.0
 10
336.057030777353
 20
429.002277650916
 30
0.0
 10
336.1382487997814
 20
429.0134004734425
 30
0.0
 10
336.2177069704015
 20
429.0246396722166
 30
0.0
 10
336.2953933165959
 20
429.0359947769726
 30
0.0
 10
336.3712966985472
 20
429.0474655492639
 30
0.0
 10
336.4454068741557
 20
429.059052026023
 30
0.0
 10
336.5177145743376
 20
429.070754572018
 30
0.0
 10
336.5882115908459
 20
429.0825739433789
 30
0.0
 10
336.6568908792764
 20
429.09451136499
 30
0.0
 10
336.7237466805799
 20
429.1065686253731
 30
0.0
 10
336.7887746652472
 20
429.1187481937887
 30
0.0
 10
336.8519721054226
 20
429.1310533657846
 30
0.0
 10
336.9133380816091
 20
429.1434884454653
 30
0.0
 10
336.9728737324385
 20
429.1560589755743
 30
0.0
 10
337.0305825583282
 20
429.1687720304008
 30
0.0
 10
337.0864707928283
 20
429.1816365920386
 30
0.0
 10
337.1405478592256
 20
429.1946640383317
 30
0.0
 10
337.1928269344935
 20
429.2078687820166
 30
0.0
 10
337.2433256476905
 20
429.2212691166228
 30
0.0
 10
337.2920669442559
 20
429.2348883477987
 30
0.0
 10
337.3390801480679
 20
429.2487563217309
 30
0.0
 10
337.3844022409975
 20
429.2629115080998
 30
0.0
 10
337.4280793329051
 20
429.2774038542896
 30
0.0
 10
337.4701681580045
 20
429.2922986881882
 30
0.0
 10
337.5107370637867
 20
429.3076819582268
 30
0.0
 10
337.5498650042923
 20
429.3236668601763
 30
0.0
 10
337.5876346493196
 20
429.3404008525756
 30
0.0
 10
337.6241102711809
 20
429.3580683922446
 30
0.0
 10
337.6592815977347
 20
429.3768757885841
 30
0.0
 10
337.6916819874455
 20
429.3962282627965
 30
0.0
 10
337.7207182361287
 20
429.4157253113262
 30
0.0
 10
337.7459150367592
 20
429.4347580802122
 30
0.0
 10
337.7681408668895
 20
429.4537079060735
 30
0.0
 10
337.7877309793939
 20
429.4726221185645
 30
0.0
 10
337.8050500319685
 20
429.4916417201455
 30
0.0
 10
337.8203877749442
 20
429.5109252187815
 30
0.0
 10
337.8339389367433
 20
429.5306143872942
 30
0.0
 10
337.8462292329132
 20
429.5515312872238
 30
0.0
 10
337.8570915225253
 20
429.5738202346505
 30
0.0
 10
337.8662473738432
 20
429.5975423163234
 30
0.0
 10
337.8732677841746
 20
429.6217102958024
 30
0.0
 10
337.8780198003201
 20
429.6462104250975
 30
0.0
 10
337.8805875378625
 20
429.6683740985056
 30
0.0
 10
337.8806081316722
 20
429.6823120569561
 30
0.0
 10
337.8806164857671
 20
429.6879661359457
 30
0.0
  0
LINE
  5
78
330
1F
100
AcDbEntity
  8
0
  6
Continuous
 62
     7
370
    30
100
AcDbLine
 10
337.8808477966
 20
429.6879676823
 30
0.0
 11
337.8808477966
 21
433.5503015669
 31
0.0
  0
LINE
  5
79
330
1F
100
AcDbEntity
  8
0
  6
Continuous
 62
     7
370
    30
100
AcDbLine
 10
316.8808477966
 20
433.5503015669
 30
0.0
 11
316.8808477966
 21
429.6879676823
 31
0.0
  0
SPLINE
  5
7A
330
1F
100
AcDbEntity
  8
0
  6
Continuous
 62
     7
370
    30
100
AcDbSpline
210
0.0
220
0.0
230
1.0
 70
     8
 71
     3
 72
   213
 73
   209
 74
     0
 42
0.000000001
 43
0.00000001
 40
0.0
 40
0.0
 40
0.0
 40
0.0
 40
0.0021263662658641
 40
0.0055077985892024
 40
0.0090015299117539
 40
0.0126116351078849
 40
0.016339262047527
 40
0.0201829961164791
 40
0.0241392782481255
 40
0.0282028577753798
 40
0.0323672512167936
 40
0.0366251771705256
 40
0.0409689430506465
 40
0.0453907681626873
 40
0.0498830367745931
 40
0.0544384825654105
 40
0.0590503112845893
 40
0.0637122715338223
 40
0.0684186846507572
 40
0.0731644442861943
 40
0.0779449949958499
 40
0.0827562974928603
 40
0.0875947864724458
 40
0.0924573253356474
 40
0.097341160806757
 40
0.1022438793876183
 40
0.107163366802626
 40
0.1120977710238506
 40
0.1170454690794457
 40
0.1220050375982126
 40
0.1269752268910903
 40
0.1319549382875806
 40
0.1369432044084401
 40
0.1419391720494594
 40
0.1469420873630876
 40
0.1519512830464309
 40
0.1569661672716235
 40
0.1619862141227826
 40
0.1670109553323892
 40
0.1720399731358461
 40
0.1770728940875325
 40
0.1821093837029066
 40
0.1871491418103346
 40
0.1921918985129375
 40
0.1972374106749814
 40
0.2022854588597538
 40
0.207335844656472
 40
0.212388388342777
 40
0.2174429268371189
 40
0.2224993119019388
 40
0.2275574085640812
 40
0.2326170937238162
 40
0.2376782549276645
 40
0.2427407892838919
 40
0.2478046025024564
 40
0.2528696080435828
 40
0.2579357263613577
 40
0.2630028842308519
 40
0.2680710141480851
 40
0.2731400537946445
 40
0.2782099455586918
 40
0.2832806361060959
 40
0.2883520759957049
 40
0.2934242193336458
 40
0.2984970234623274
 40
0.3035704486801458
 40
0.3086444579885235
 40
0.3137190168633339
 40
0.3187940930479804
 40
0.3238696563657996
 40
0.3289456785498865
 40
0.3340221330883459
 40
0.3390989950834264
 40
0.3441762411231659
 40
0.349253849164211
 40
0.3543317984247076
 40
0.3594100692862505
 40
0.364221570525289
 40
0.3652161802855337
 40
0.3678903553061851
 40
0.3729694287263387
 40
0.3780487282112364
 40
0.3831282706304683
 40
0.3882080414617225
 40
0.3932880268673675
 40
0.3983682136419807
 40
0.4034485891639177
 40
0.4085291413503222
 40
0.4136098586152568
 40
0.4186907298305916
 40
0.4237717442895661
 40
0.4288528916725596
 40
0.4339341620149957
 40
0.4390155456771386
 40
0.4440970333156399
 40
0.4491786158565451
 40
0.454260284469754
 40
0.4593420305446773
 40
0.464423845667033
 40
0.4695057215965797
 40
0.4745876502457398
 40
0.4796696236589622
 40
0.4847516339927133
 40
0.4898336734960589
 40
0.4949157344916226
 40
0.4999978093569549
 40
0.5050798905061626
 40
0.5101619691123552
 40
0.5152440363436546
 40
0.520326084605786
 40
0.5254081062623402
 40
0.5304900936163621
 40
0.535572038891648
 40
0.5406539342136574
 40
0.545735771589977
 40
0.5508175428902365
 40
0.5558992398253813
 40
0.5609808539260704
 40
0.566062376520374
 40
0.5711437987103016
 40
0.5762251113473347
 40
0.5813063050066225
 40
0.5863873699598092
 40
0.5914682961462837
 40
0.5965490731426767
 40
0.6016296901305147
 40
0.6067101358616254
 40
0.61179039862131
 40
0.6168704661888588
 40
0.6219503257952355
 40
0.6270299640776186
 40
0.6321093670304522
 40
0.637188519952658
 40
0.6422674073906609
 40
0.6473460130767209
 40
0.6524243198620828
 40
0.6575023096445252
 40
0.662579963289508
 40
0.6676572605444597
 40
0.6727341799452415
 40
0.6778106987141618
 40
0.6828867926484221
 40
0.6879624359980628
 40
0.693037601332166
 40
0.6981122593920025
 40
0.703186378929607
 40
0.7082599265301144
 40
0.7133328664159244
 40
0.7184051602305553
 40
0.7234767667996685
 40
0.7285476418665785
 40
0.7336177377989574
 40
0.738687003263257
 40
0.7437553828625925
 40
0.7488228167334916
 40
0.7538892400960286
 40
0.7589545827512845
 40
0.7640187685188616
 40
0.7690817146064782
 40
0.7741433309020848
 40
0.7792035191777121
 40
0.784262172192471
 40
0.7893191726801851
 40
0.7943743922046891
 40
0.799427689863314
 40
0.8044789108155814
 40
0.8095278846106063
 40
0.8145744232820672
 40
0.8196183191744734
 40
0.8246593424581485
 40
0.8296972382831689
 40
0.8347317235138267
 40
0.8397624829749776
 40
0.8447891651298407
 40
0.8498113770946284
 40
0.8548286788790872
 40
0.8598405767228785
 40
0.864846515375307
 40
0.8698458691408817
 40
0.8748379314835103
 40
0.8798219029502314
 40
0.8847968771394674
 40
0.889761824401191
 40
0.894715572918436
 40
0.8996567867847173
 40
0.9045839406656186
 40
0.9094952906232143
 40
0.9143888407028997
 40
0.9192623049517346
 40
0.9241130646834473
 40
0.9289381210659462
 40
0.933734043532209
 40
0.9384969151706476
 40
0.943222277212476
 40
0.9479050760852732
 40
0.9525396183192879
 40
0.9571195409140799
 40
0.9616378075565222
 40
0.9660867441365868
 40
0.9704581299136326
 40
0.9747433627009493
 40
0.9789337164337476
 40
0.9830207059876601
 40
0.9869965655424476
 40
0.9908548320995327
 40
0.9945910056165617
 40
0.9982032353853723
 40
1.0
 40
1.0
 40
1.0
 40
1.0
 10
317.9680388687766
 20
429.6329258451455
 30
0.0
 10
317.9680326494231
 20
429.6329214320913
 30
0.0
 10
317.9680165398059
 20
429.632910001223
 30
0.0
 10
317.9698044832717
 20
429.6343573607462
 30
0.0
 10
317.9733409183715
 20
429.6369230201491
 30
0.0
 10
317.9788418575801
 20
429.6405906634673
 30
0.0
 10
317.9863436698807
 20
429.6451910669035
 30
0.0
 10
317.9959764011911
 20
429.6506547770846
 30
0.0
 10
318.0078214444807
 20
429.6568888915303
 30
0.0
 10
318.0219512255006
 20
429.6638120771485
 30
0.0
 10
318.0384186900998
 20
429.671345388309
 30
0.0
 10
318.057261694259
 20
429.6794155144613
 30
0.0
 10
318.0785038467062
 20
429.687954434632
 30
0.0
 10
318.1021567188579
 20
429.6968998721219
 30
0.0
 10
318.1282218194413
 20
429.7061952957269
 30
0.0
 10
318.1566925849755
 20
429.7157898265496
 30
0.0
 10
318.1875561755809
 20
429.7256379862823
 30
0.0
 10
318.220795047285
 20
429.7356993509277
 30
0.0
 10
318.2563882688993
 20
429.745938139834
 30
0.0
 10
318.2943125884865
 20
429.7563227744288
 30
0.0
 10
318.3345432687693
 20
429.7668254318891
 30
0.0
 10
318.3770547210153
 20
429.7774216127406
 30
0.0
 10
318.4218209701676
 20
429.7880897348981
 30
0.0
 10
318.4688159834748
 20
429.7988107615046
 30
0.0
 10
318.5180138919206
 20
429.8095678659352
 30
0.0
 10
318.5693891296826
 20
429.8203461344847
 30
0.0
 10
318.6229165124902
 20
429.8311323053646
 30
0.0
 10
318.6785712716084
 20
429.8419145414911
 30
0.0
 10
318.736329056512
 20
429.8526822339442
 30
0.0
 10
318.7961659162349
 20
429.8634258327677
 30
0.0
 10
318.8580582668664
 20
429.8741367018035
 30
0.0
 10
318.9219828506902
 20
429.8848069944465
 30
0.0
 10
318.9879166909218
 20
429.895429547466
 30
0.0
 10
319.0558370448358
 20
429.905997790342
 30
0.0
 10
319.1257213571979
 20
429.9165056678717
 30
0.0
 10
319.197547215277
 20
429.9269475740891
 30
0.0
 10
319.2712923062368
 20
429.9373182958192
 30
0.0
 10
319.3469343773779
 20
429.9476129644164
 30
0.0
 10
319.4244511994602
 20
429.9578270144634
 30
0.0
 10
319.5038205331728
 20
429.9679561483791
 30
0.0
 10
319.5850200987102
 20
429.977996306055
 30
0.0
 10
319.6680275483409
 20
429.9879436387638
 30
0.0
 10
319.7528204418129
 20
429.9977944867107
 30
0.0
 10
319.8393762244131
 20
430.0075453596872
 30
0.0
 10
319.9276722074925
 20
430.0171929203742
 30
0.0
 10
320.0176855512625
 20
430.0267339699112
 30
0.0
 10
320.1093932496756
 20
430.0361654354053
 30
0.0
 10
320.2027721172114
 20
430.0454843591031
 30
0.0
 10
320.2977987773988
 20
430.0546878889934
 30
0.0
 10
320.3944496529194
 20
430.0637732706398
 30
0.0
 10
320.4927009571465
 20
430.0727378400741
 30
0.0
 10
320.5925286869885
 20
430.081579017606
 30
0.0
 10
320.6939086169166
 20
430.0902943024255
 30
0.0
 10
320.7968162940667
 20
430.0988812678928
 30
0.0
 10
320.9012270343179
 20
430.1073375574225
 30
0.0
 10
321.0071159192573
 20
430.1156608808902
 30
0.0
 10
321.1144577939514
 20
430.123849011486
 30
0.0
 10
321.22322726545
 20
430.1318997829658
 30
0.0
 10
321.3333987019594
 20
430.1398110872441
 30
0.0
 10
321.4449462326237
 20
430.1475808722891
 30
0.0
 10
321.5578437478625
 20
430.155207140281
 30
0.0
 10
321.6720649002167
 20
430.1626879460009
 30
0.0
 10
321.7875831056595
 20
430.170021395424
 30
0.0
 10
321.9043715453337
 20
430.1772056444894
 30
0.0
 10
322.0224031676797
 20
430.1842388980286
 30
0.0
 10
322.1416506909229
 20
430.1911194088307
 30
0.0
 10
322.2620866058919
 20
430.1978454768304
 30
0.0
 10
322.3836831791433
 20
430.2044154484031
 30
0.0
 10
322.5064124563575
 20
430.2108277157537
 30
0.0
 10
322.6302462660348
 20
430.2170807163922
 30
0.0
 10
322.7551562232768
 20
430.2231729326743
 30
0.0
 10
322.8811137343713
 20
430.2291028914324
 30
0.0
 10
323.0080899994165
 20
430.2348691635808
 30
0.0
 10
323.1360560232216
 20
430.2404703640692
 30
0.0
 10
323.2649825962121
 20
430.2459051507814
 30
0.0
 10
323.3948403881201
 20
430.2511722275654
 30
0.0
 10
323.5233073542817
 20
430.2561809600101
 30
0.0
 10
323.617328748029
 20
430.2597046867148
 30
0.0
 10
323.6908480963022
 20
430.2623954889084
 30
0.0
 10
323.7668595238298
 20
430.2651355783117
 30
0.0
 10
323.8788882066067
 20
430.2690443531063
 30
0.0
 10
324.0127001964509
 20
430.2735123423991
 30
0.0
 10
324.1472732381002
 20
430.2778060697548
 30
0.0
 10
324.2825769331889
 20
430.2819245274358
 30
0.0
 10
324.4185806521198
 20
430.285866748352
 30
0.0
 10
324.5552535686521
 20
430.2896318062486
 30
0.0
 10
324.69256473382
 20
430.2932188181784
 30
0.0
 10
324.8304830638012
 20
430.2966269438492
 30
0.0
 10
324.9689773509391
 20
430.2998553858155
 30
0.0
 10
325.1080162686497
 20
430.3029033894536
 30
0.0
 10
325.247568378049
 20
430.3057702429978
 30
0.0
 10
325.3876021341948
 20
430.3084552775665
 30
0.0
 10
325.5280858925035
 20
430.3109578671927
 30
0.0
 10
325.6689879151848
 20
430.3132774288554
 30
0.0
 10
325.8102763777318
 20
430.315413422513
 30
0.0
 10
325.951919375452
 20
430.3173653511335
 30
0.0
 10
326.0938849300369
 20
430.3191327607279
 30
0.0
 10
326.2361409961686
 20
430.3207152403784
 30
0.0
 10
326.3786554681568
 20
430.3221124222684
 30
0.0
 10
326.5213961866058
 20
430.323323981707
 30
0.0
 10
326.6643309451059
 20
430.3243496371543
 30
0.0
 10
326.8074274969474
 20
430.3251891502403
 30
0.0
 10
326.9506535618539
 20
430.325842325784
 30
0.0
 10
327.0939768327312
 20
430.3263090118063
 30
0.0
 10
327.2373649824287
 20
430.3265890995416
 30
0.0
 10
327.3807856705116
 20
430.3266825234439
 30
0.0
 10
327.5242065381929
 20
430.326589261198
 30
0.0
 10
327.6675952150806
 20
430.3263093338034
 30
0.0
 10
327.8109193378291
 20
430.3258428056157
 30
0.0
 10
327.9541465687483
 20
430.3251897842622
 30
0.0
 10
328.0972446025558
 20
430.3243504205447
 30
0.0
 10
328.2401811612819
 20
430.3233249084465
 30
0.0
 10
328.3829240010265
 20
430.3221134851148
 30
0.0
 10
328.5254409187019
 20
430.3207164308356
 30
0.0
 10
328.6676997587587
 20
430.3191340690094
 30
0.0
 10
328.8096684198925
 20
430.3173667661207
 30
0.0
 10
328.9513148617255
 20
430.3154149317067
 30
0.0
 10
329.0926071114629
 20
430.3132790183218
 30
0.0
 10
329.2335132705189
 20
430.3109595215012
 30
0.0
 10
329.3740015211099
 20
430.3084569797222
 30
0.0
 10
329.5140401328113
 20
430.3057719743647
 30
0.0
 10
329.6535974690735
 20
430.3029051296706
 30
0.0
 10
329.792641993695
 20
430.2998571127031
 30
0.0
 10
329.9311422772472
 20
430.296628633307
 30
0.0
 10
330.0690670034478
 20
430.2932204440702
 30
0.0
 10
330.2063849754794
 20
430.289633340288
 30
0.0
 10
330.343065122247
 20
430.2858681599287
 30
0.0
 10
330.4790765045717
 20
430.2819257836068
 30
0.0
 10
330.614388321315
 20
430.2778071345579
 30
0.0
 10
330.7489699154291
 20
430.2735131786237
 30
0.0
 10
330.8827907799276
 20
430.2690449242428
 30
0.0
 10
331.0158205637707
 20
430.2644034224532
 30
0.0
 10
331.1480290776601
 20
430.2595897669049
 30
0.0
 10
331.2793862997361
 20
430.2546050938876
 30
0.0
 10
331.4098623811703
 20
430.249450582374
 30
0.0
 10
331.539427651647
 20
430.2441274540807
 30
0.0
 10
331.6680526247256
 20
430.2386369735523
 30
0.0
 10
331.7957080030749
 20
430.2329804482683
 30
0.0
 10
331.9223646835707
 20
430.2271592287789
 30
0.0
 10
332.0479937622471
 20
430.2211747088726
 30
0.0
 10
332.1725665390899
 20
430.2150283257805
 30
0.0
 10
332.2960545226618
 20
430.2087215604221
 30
0.0
 10
332.4184294345461
 20
430.2022559376973
 30
0.0
 10
332.5396632135947
 20
430.1956330268335
 30
0.0
 10
332.6597280199665
 20
430.1888544417915
 30
0.0
 10
332.7785962389381
 20
430.1819218417419
 30
0.0
 10
332.8962404844711
 20
430.174836931618
 30
0.0
 10
333.0126336025129
 20
430.1676014627576
 30
0.0
 10
333.1277486740121
 20
430.1602172336452
 30
0.0
 10
333.2415590176228
 20
430.1526860907671
 30
0.0
 10
333.3540381920699
 20
430.1450099295957
 30
0.0
 10
333.4651599981491
 20
430.1371906957211
 30
0.0
 10
333.5748984803255
 20
430.1292303861472
 30
0.0
 10
333.6832279278956
 20
430.1211310507788
 30
0.0
 10
333.7901228756721
 20
430.1128947941244
 30
0.0
 10
333.8955581041475
 20
430.1045237772432
 30
0.0
 10
333.9995086390842
 20
430.0960202199759
 30
0.0
 10
334.1019497504764
 20
430.0873864034935
 30
0.0
 10
334.2028569508216
 20
430.0786246732173
 30
0.0
 10
334.302205992631
 20
430.0697374421572
 30
0.0
 10
334.3999728651016
 20
430.0607271947384
 30
0.0
 10
334.4961337898631
 20
430.0515964911819
 30
0.0
 10
334.5906652157014
 20
430.042347972532
 30
0.0
 10
334.6835438121522
 20
430.032984366423
 30
0.0
 10
334.7747464618402
 20
430.0235084937076
 30
0.0
 10
334.8642502514323
 20
430.0139232760799
 30
0.0
 10
334.952032461053
 20
430.0042317448571
 30
0.0
 10
335.0380705519931
 20
429.9944370511072
 30
0.0
 10
335.1223421525305
 20
429.9845424773497
 30
0.0
 10
335.2048250416554
 20
429.9745514510925
 30
0.0
 10
335.2854971304791
 20
429.9644675605216
 30
0.0
 10
335.3643364410796
 20
429.9542945727168
 30
0.0
 10
335.4413210825248
 20
429.9440364548412
 30
0.0
 10
335.5164292237903
 20
429.9336973988329
 30
0.0
 10
335.5896390632807
 20
429.9232818502385
 30
0.0
 10
335.660928794658
 20
429.9127945419454
 30
0.0
 10
335.7302765686828
 20
429.9022405337259
 30
0.0
 10
335.7976604508061
 20
429.8916252586851
 30
0.0
 10
335.8630583742926
 20
429.8809545779247
 30
0.0
 10
335.9264480887542
 20
429.8702348449964
 30
0.0
 10
335.9878071041146
 20
429.8594729820329
 30
0.0
 10
336.0471126302552
 20
429.8486765698231
 30
0.0
 10
336.1043415129291
 20
429.8378539545353
 30
0.0
 10
336.1594701670239
 20
429.8270143743219
 30
0.0
 10
336.2124745089586
 20
429.8161681096361
 30
0.0
 10
336.2633298909947
 20
429.805326661781
 30
0.0
 10
336.3120110416176
 20
429.7945029649752
 30
0.0
 10
336.3584920180415
 20
429.7837116380264
 30
0.0
 10
336.4027461794369
 20
429.7729692825241
 30
0.0
 10
336.4447461928818
 20
429.7622948351852
 30
0.0
 10
336.484464088468
 20
429.7517099824802
 30
0.0
 10
336.5218713856577
 20
429.7412396457046
 30
0.0
 10
336.5569393200325
 20
429.7309125438646
 30
0.0
 10
336.5896392079184
 20
429.7207618397451
 30
0.0
 10
336.619942996206
 20
429.7108258702358
 30
0.0
 10
336.647824053611
 20
429.7011489560942
 30
0.0
 10
336.6732582726489
 20
429.6917822721876
 30
0.0
 10
336.6962255428087
 20
429.6827847566569
 30
0.0
 10
336.7167117073651
 20
429.6742239697753
 30
0.0
 10
336.7347109085193
 20
429.666176958514
 30
0.0
 10
336.750228900398
 20
429.6587305316506
 30
0.0
 10
336.7632852876636
 20
429.6519825825095
 30
0.0
 10
336.7739218291798
 20
429.646037921289
 30
0.0
 10
336.782190458038
 20
429.6410214825444
 30
0.0
 10
336.7882142852063
 20
429.6370263890313
 30
0.0
 10
336.7919867361219
 20
429.6342913779889
 30
0.0
 10
336.7937692015649
 20
429.6328297313858
 30
0.0
 10
336.7936535530204
 20
429.6329312991082
 30
0.0
 10
336.793615136783
 20
429.6329650379655
 30
0.0
  0
ARC
  5
7B
330
1F
100
AcDbEntity
  8
0
  6
Continuous
 62
     7
370
    30
100
AcDbCircle
 10
365.5339917935
 20
306.8462332202
 30
0.0
 40
0.5000000000000541
100
AcDbArc
 50
269.5
 51
359.2836446887
  0
LINE
  5
7C
330
1F
100
AcDbEntity
  8
0
  6
Continuous
 62
     7
370
    30
100
AcDbLine
 10
356.5808477966
 20
322.2585365969
 30
0.0
 11
353.5160444164
 21
322.231790463
 31
0.0
  0
LINE
  5
7D
330
1F
100
AcDbEntity
  8
0
  6
Continuous
 62
     7
370
    30
100
AcDbLine
 10
363.078765614
 20
306.3676406152
 30
0.0
 11
365.5296285257
 21
306.3462522586
 31
0.0
  0
LINE
  5
7E
330
1F
100
AcDbEntity
  8
0
  6
Continuous
 62
     7
370
    30
100
AcDbLine
 10
353.6982462801
 20
306.4495031673
 30
0.0
 11
359.4794437834
 21
306.399051421
 31
0.0
  0
ARC
  5
7F
330
1F
100
AcDbEntity
  8
0
  6
Continuous
 62
     7
370
    30
100
AcDbCircle
 10
-233.9191522034
 20
314.3414418409
 30
0.0
 40
600.0
100
AcDbArc
 50
359.2836446887
 51
0.0
  0
ARC
  5
80
330
1F
100
AcDbEntity
  8
0
  6
Continuous
 62
     7
370
    30
100
AcDbCircle
 10
-233.9191522034
 20
314.3414418409
 30
0.0
 40
600.0000000000001
100
AcDbArc
 50
0.0
 51
0.7163553113
  0
ARC
  5
81
330
1F
100
AcDbEntity
  8
0
  6
Continuous
 62
     7
370
    30
100
AcDbCircle
 10
357.0808477966
 20
332.1521233602
 30
0.0
 40
0.5
100
AcDbArc
 50
90.6083832687
 51
180.0
  0
SPLINE
  5
82
330
1F
100
AcDbEntity
  8
0
  6
Continuous
 62
     7
370
    30
100
AcDbSpline
210
0.0
220
0.0
230
1.0
 70
     8
 71
     3
 72
    35
 73
    31
 74
     0
 42
0.000000001
 43
0.00000001
 40
0.0
 40
0.0
 40
0.0
 40
0.0
 40
0.02241453302875
 40
0.0457542524561944
 40
0.0700191604721188
 40
0.0952092602997923
 40
0.1213245562006979
 40
0.1478740741887567
 40
0.175316051585346
 40
0.2036504951857123
 40
0.2328774125677396
 40
0.2636207864838012
 40
0.2952934513413858
 40
0.3278954168988927
 40
0.3614266931010814
 40
0.3958872898186783
 40
0.4312772165444043
 40
0.4675964820422596
 40
0.5048450939467025
 40
0.5430230583082668
 40
0.5821303790820265
 40
0.6221670575551546
 40
0.6631330917097082
 40
0.7050284755165892
 40
0.7478531981565132
 40
0.7960337595636716
 40
0.8453387697058319
 40
0.8957681860902179
 40
0.9473219530999292
 40
1.0
 40
1.0
 40
1.0
 40
1.0
 10
365.2923098521251
 20
332.7355254344647
 30
0.0
 10
365.2309153005237
 20
332.7349095239193
 30
0.0
 10
365.1055920644873
 20
332.7336522803912
 30
0.0
 10
364.9138060623275
 20
332.731724198892
 30
0.0
 10
364.7144176953785
 20
332.7297165302176
 30
0.0
 10
364.5074269522618
 20
332.727628638203
 30
0.0
 10
364.2941786244999
 20
332.7254738548855
 30
0.0
 10
364.0747623787167
 20
332.7232527912257
 30
0.0
 10
363.849267874344
 20
332.7209660857826
 30
0.0
 10
363.6164399516994
 20
332.7186006651497
 30
0.0
 10
363.3745694694744
 20
332.7161387534818
 30
0.0
 10
363.1235555806395
 20
332.7135788102267
 30
0.0
 10
362.8632974336472
 20
332.7109192649559
 30
0.0
 10
362.5954032626286
 20
332.7081760709723
 30
0.0
 10
362.3198730044412
 20
332.7053487641502
 30
0.0
 10
362.0367065975813
 20
332.7024368648413
 30
0.0
 10
361.7459039847334
 20
332.6994398777381
 30
0.0
 10
361.4474651157051
 20
332.6963572917255
 30
0.0
 10
361.1413899507764
 20
332.6931885797351
 30
0.0
 10
360.8276784644905
 20
332.689933198585
 30
0.0
 10
360.5063306499165
 20
332.6865905888641
 30
0.0
 10
360.1773465234202
 20
332.6831601746387
 30
0.0
 10
359.8407261299453
 20
332.679641363834
 30
0.0
 10
359.4964695489581
 20
332.6760335460071
 30
0.0
 10
359.1324526051092
 20
332.6722087064247
 30
0.0
 10
358.7481409957493
 20
332.6681593237715
 30
0.0
 10
358.3430005117833
 20
332.6638777796281
 30
0.0
 10
357.9286213095635
 20
332.6594849504299
 30
0.0
 10
357.505003846167
 20
332.6549812007419
 30
0.0
 10
357.2195131626514
 20
332.6519336557467
 30
0.0
 10
357.0752281209578
 20
332.6503934473193
 30
0.0
  0
ARC
  5
83
330
1F
100
AcDbEntity
  8
0
  6
Continuous
 62
     7
370
    30
100
AcDbCircle
 10
365.2974921595
 20
332.2368720072
 30
0.0
 40
0.5000000000000357
100
AcDbArc
 50
1.7806063569
 51
90.5739340309
  0
SPLINE
  5
84
330
1F
100
AcDbEntity
  8
0
  6
Continuous
 62
     7
370
    30
100
AcDbSpline
210
0.0
220
0.0
230
1.0
 70
     8
 71
     3
 72
    31
 73
    27
 74
     0
 42
0.000000001
 43
0.00000001
 40
0.0
 40
0.0
 40
0.0
 40
0.0
 40
0.0078346246636368
 40
0.0371006549750528
 40
0.0656995810549164
 40
0.0938916028575946
 40
0.122508336236121
 40
0.1516925710243192
 40
0.1814470258594238
 40
0.2267268047294497
 40
0.2727778398473861
 40
0.3197337533867189
 40
0.3675530285839054
 40
0.4153645555178356
 40
0.4631062571164755
 40
0.5102593667080575
 40
0.5567615403291669
 40
0.6027506689328869
 40
0.6484872582125083
 40
0.6970993421037233
 40
0.7499601353228529
 40
0.7948784279811155
 40
0.8421466582811923
 40
0.8919298887067836
 40
0.9444498193839329
 40
1.0
 40
1.0
 40
1.0
 40
1.0
 10
366.0301380317304
 20
321.8992988795514
 30
0.0
 10
366.0301795454343
 20
321.8992600189193
 30
0.0
 10
366.030376132466
 20
321.8990759954386
 30
0.0
 10
366.0304110927664
 20
321.902585288482
 30
0.0
 10
366.0302688513245
 20
321.9117293493723
 30
0.0
 10
366.029925810574
 20
321.9265345698827
 30
0.0
 10
366.0295781161279
 20
321.9426540988532
 30
0.0
 10
366.029193000533
 20
321.9609182153985
 30
0.0
 10
366.0287068109079
 20
321.984682330614
 30
0.0
 10
366.0280983503953
 20
322.0153152413832
 30
0.0
 10
366.0273462216652
 20
322.0543746645432
 30
0.0
 10
366.0265226337247
 20
322.0982688311521
 30
0.0
 10
366.0256337695636
 20
322.1467834227423
 30
0.0
 10
366.0246655014706
 20
322.2000436519855
 30
0.0
 10
366.0236320517902
 20
322.2572386656726
 30
0.0
 10
366.0225383211507
 20
322.3178366346333
 30
0.0
 10
366.0213851678604
 20
322.3813142208195
 30
0.0
 10
366.0201744303085
 20
322.4474006971233
 30
0.0
 10
366.0188411205204
 20
322.5177690475351
 30
0.0
 10
366.0174510642672
 20
322.5936061618136
 30
0.0
 10
366.0161093167422
 20
322.6710595200834
 30
0.0
 10
366.0148105502395
 20
322.749720778143
 30
0.0
 10
366.013567494532
 20
322.8283565217538
 30
0.0
 10
366.0122837812692
 20
322.9128920615632
 30
0.0
 10
366.0109501543432
 20
323.0036638510687
 30
0.0
 10
366.0100479469201
 20
323.0670141948872
 30
0.0
 10
366.0095841944106
 20
323.0995775280707
 30
0.0
  0
SPLINE
  5
85
330
1F
100
AcDbEntity
  8
0
  6
Continuous
 62
     7
370
    30
100
AcDbSpline
210
0.0
220
0.0
230
1.0
 70
     8
 71
     3
 72
     9
 73
     5
 74
     0
 42
0.000000001
 43
0.00000001
 40
0.0
 40
0.0
 40
0.0
 40
0.0
 40
0.5006998805080488
 40
1.0
 40
1.0
 40
1.0
 40
1.0
 10
359.4791014631566
 20
306.3990544036548
 30
0.0
 10
359.4851621898142
 20
306.3991485257673
 30
0.0
 10
359.4972666997084
 20
306.3993365068637
 30
0.0
 10
359.5109354097407
 20
306.4014931882885
 30
0.0
 10
359.517760198293
 20
306.4025700195816
 30
0.0
  0
SPLINE
  5
86
330
1F
100
AcDbEntity
  8
0
  6
Continuous
 62
     7
370
    30
100
AcDbSpline
210
0.0
220
0.0
230
1.0
 70
     8
 71
     3
 72
    69
 73
    65
 74
     0
 42
0.000000001
 43
0.00000001
 40
0.0
 40
0.0
 40
0.0
 40
0.0
 40
0.0011946243573958
 40
0.0196665262058223
 40
0.037609310709273
 40
0.0550738802382296
 40
0.0720945736400012
 40
0.0885099713911101
 40
0.1073688273010518
 40
0.1253847734053596
 40
0.1426176244929476
 40
0.1591138095355671
 40
0.1749068414825486
 40
0.191659076704529
 40
0.2073271499860048
 40
0.2219658164600008
 40
0.2356149312380104
 40
0.2483028053489847
 40
0.2598469337823327
 40
0.2704931390174096
 40
0.280246592551554
 40
0.2892059855051917
 40
0.3057276333258779
 40
0.3230033967131647
 40
0.3410697166474019
 40
0.3599776853085903
 40
0.3797969696045823
 40
0.3970688848764158
 40
0.4148659765204466
 40
0.4331346436958777
 40
0.4519318404580474
 40
0.471326859575077
 40
0.4914048113547869
 40
0.5116326516204855
 40
0.5311415187689489
 40
0.5499751020119579
 40
0.5682118473173945
 40
0.5859155397815723
 40
0.6031385376010939
 40
0.6230764619735962
 40
0.64204647006816
 40
0.6601245760481064
 40
0.677370887283894
 40
0.6938295338621291
 40
0.7028858570564865
 40
0.7128088710623873
 40
0.7236920738384268
 40
0.7354958612721418
 40
0.7482279822705655
 40
0.7616508033060155
 40
0.7760057697726432
 40
0.791325288162386
 40
0.8076540895939073
 40
0.8234211077894003
 40
0.8399441049516765
 40
0.8571642328106689
 40
0.87512142815324
 40
0.8938680270804663
 40
0.9101421270014085
 40
0.9270603113981438
 40
0.9445996779349422
 40
0.9625769800817245
 40
0.9810252123580825
 40
1.0
 40
1.0
 40
1.0
 40
1.0
 10
359.5108742450748
 20
306.4013338191456
 30
0.0
 10
359.5108167112728
 20
306.4013191423749
 30
0.0
 10
359.5098695599631
 20
306.4010775257588
 30
0.0
 10
359.5132945463856
 20
306.4018009281059
 30
0.0
 10
359.5212150536315
 20
306.4035162367131
 30
0.0
 10
359.5345488901139
 20
306.4064382804576
 30
0.0
 10
359.5520549900576
 20
306.4102656997345
 30
0.0
 10
359.5747434774452
 20
306.4151889744576
 30
0.0
 10
359.6028124359851
 20
306.4212061097483
 30
0.0
 10
359.6364749426467
 20
306.4283009367379
 30
0.0
 10
359.6732992263121
 20
306.435905708612
 30
0.0
 10
359.7126797614834
 20
306.4438564251469
 30
0.0
 10
359.7555172670347
 20
306.4522885154328
 30
0.0
 10
359.8013334821779
 20
306.4610536479609
 30
0.0
 10
359.8495592021307
 20
306.4699846311841
 30
0.0
 10
359.8975559721071
 20
306.4785786272141
 30
0.0
 10
359.9447912981714
 20
306.4867460026314
 30
0.0
 10
359.9905239813465
 20
306.4943781887485
 30
0.0
 10
360.0343207019674
 20
306.50143216608
 30
0.0
 10
360.075797071638
 20
306.5078818296879
 30
0.0
 10
360.1150262924233
 20
306.5137752186773
 30
0.0
 10
360.16325382933
 20
306.5207803098131
 30
0.0
 10
360.2238220890746
 20
306.5291592423313
 30
0.0
 10
360.3003785200644
 20
306.5390073963901
 30
0.0
 10
360.3836282917601
 20
306.5488338558468
 30
0.0
 10
360.4739854453683
 20
306.5584544221101
 30
0.0
 10
360.5660928995451
 20
306.5671012702538
 30
0.0
 10
360.6588755258475
 20
306.5746490905263
 30
0.0
 10
360.7510764102583
 20
306.5810304683374
 30
0.0
 10
360.8477669365633
 20
306.58648642086
 30
0.0
 10
360.948884611932
 20
306.5908365987528
 30
0.0
 10
361.0545632028733
 20
306.5938992360199
 30
0.0
 10
361.1637906347514
 20
306.5954600666169
 30
0.0
 10
361.2737197814409
 20
306.5953695783392
 30
0.0
 10
361.3813632674954
 20
306.5936735219979
 30
0.0
 10
361.484923867869
 20
306.5905539673254
 30
0.0
 10
361.5844052153207
 20
306.5861858464814
 30
0.0
 10
361.6798930423728
 20
306.5807312075737
 30
0.0
 10
361.7770444430514
 20
306.5739528116842
 30
0.0
 10
361.8746075059803
 20
306.5658545214851
 30
0.0
 10
361.9713114021968
 20
306.5565239636314
 30
0.0
 10
362.0610110561378
 20
306.5467515984769
 30
0.0
 10
362.1440826263418
 20
306.5367457703734
 30
0.0
 10
362.2105529862196
 20
306.5280350063087
 30
0.0
 10
362.2641852304093
 20
306.5205949843423
 30
0.0
 10
362.3084882404867
 20
306.5141998875703
 30
0.0
 10
362.3557430981821
 20
306.5070944588726
 30
0.0
 10
362.4056749790039
 20
306.4992672164661
 30
0.0
 10
362.4575038027626
 20
306.490796407281
 30
0.0
 10
362.5108225957483
 20
306.481717244267
 30
0.0
 10
362.5651961392824
 20
306.4720786918717
 30
0.0
 10
362.6204596190078
 20
306.4618915004477
 30
0.0
 10
362.6742390176266
 20
306.4515935236969
 30
0.0
 10
362.7259588357346
 20
306.4413413691231
 30
0.0
 10
362.7750029987915
 20
306.4313084795353
 30
0.0
 10
362.8221442480647
 20
306.4213779094579
 30
0.0
 10
362.8667459907401
 20
306.4117232142536
 30
0.0
 10
362.9057641992239
 20
306.4030674966305
 30
0.0
 10
362.9394037741295
 20
306.3954548298076
 30
0.0
 10
362.9679074912403
 20
306.388898801598
 30
0.0
 10
362.9926494391024
 20
306.3831278322148
 30
0.0
 10
363.0129003840803
 20
306.3783501579525
 30
0.0
 10
363.0286587542848
 20
306.3746012734491
 30
0.0
 10
363.0344477355051
 20
306.3732189396765
 30
0.0
 10
363.0373829526404
 20
306.3725180478232
 30
0.0
  0
SPLINE
  5
87
330
1F
100
AcDbEntity
  8
0
  6
Continuous
 62
     7
370
    30
100
AcDbSpline
210
0.0
220
0.0
230
1.0
 70
     8
 71
     3
 72
    15
 73
    11
 74
     0
 42
0.000000001
 43
0.00000001
 40
0.0
 40
0.0
 40
0.0
 40
0.0
 40
0.1252193903092066
 40
0.2484464840028974
 40
0.3684066874985913
 40
0.485462632831921
 40
0.5999898980141096
 40
0.7400793497815603
 40
0.8772948501985909
 40
0.9999999999999999
 40
0.9999999999999999
 40
0.9999999999999999
 40
0.9999999999999999
 10
359.5210802006258
 20
306.4032410048039
 30
0.0
 10
359.5239938319975
 20
306.4038894493535
 30
0.0
 10
359.5297747375599
 20
306.4051760214094
 30
0.0
 10
359.5457858645611
 20
306.4087236865128
 30
0.0
 10
359.5665811546654
 20
306.4132865158386
 30
0.0
 10
359.5922059606855
 20
306.4188367311377
 30
0.0
 10
359.6245472410474
 20
306.425732594573
 30
0.0
 10
359.6648403412851
 20
306.4341353322411
 30
0.0
 10
359.7120027916733
 20
306.4437373346292
 30
0.0
 10
359.7477412264248
 20
306.4506983047305
 30
0.0
 10
359.7646128754691
 20
306.4539844879495
 30
0.0
  0
SPLINE
  5
88
330
1F
100
AcDbEntity
  8
0
  6
Continuous
 62
     7
370
    30
100
AcDbSpline
210
0.0
220
0.0
230
1.0
 70
     8
 71
     3
 72
    10
 73
     6
 74
     0
 42
0.000000001
 43
0.00000001
 40
0.0
 40
0.0
 40
0.0
 40
0.0
 40
0.1389239377394394
 40
0.9844541576475967
 40
1.0
 40
1.0
 40
1.0
 40
1.0
 10
363.0435825776332
 20
306.3713455398007
 30
0.0
 10
363.0440765788971
 20
306.3712297112422
 30
0.0
 10
363.0475772110132
 20
306.3704089174478
 30
0.0
 10
363.0489753821464
 20
306.3700942508098
 30
0.0
 10
363.048003902443
 20
306.3703527414563
 30
0.0
 10
363.0479863633765
 20
306.370357408239
 30
0.0
  0
SPLINE
  5
89
330
1F
100
AcDbEntity
  8
0
  6
Continuous
 62
     7
370
    30
100
AcDbSpline
210
0.0
220
0.0
230
1.0
 70
     8
 71
     3
 72
     9
 73
     5
 74
     0
 42
0.000000001
 43
0.00000001
 40
0.0
 40
0.0
 40
0.0
 40
0.0
 40
0.4984989019768644
 40
1.0
 40
1.0
 40
1.0
 40
1.0
 10
363.0407816346242
 20
306.3717745006105
 30
0.0
 10
363.0475481074559
 20
306.3705951776373
 30
0.0
 10
363.0611218040173
 20
306.3682294292502
 30
0.0
 10
363.0730976712496
 20
306.3678352964645
 30
0.0
 10
363.0791035818164
 20
306.3676376384396
 30
0.0
  0
LINE
  5
8A
330
1F
100
AcDbEntity
  8
0
  6
Continuous
 62
     7
370
    30
100
AcDbLine
 10
302.2433605447
 20
449.1151803258
 30
0.0
 11
299.9191522034
 21
295.9000125
 31
0.0
  0
ARC
  5
8B
330
1F
100
AcDbEntity
  8
0
  6
Continuous
 62
     7
370
    30
100
AcDbCircle
 10
303.2432455067
 20
449.1000125
 30
0.0
 40
1.0
100
AcDbArc
 50
90.0
 51
179.1309142735
  0
ARC
  5
8C
330
1F
100
AcDbEntity
  8
0
  6
Continuous
 62
     7
370
    30
100
AcDbCircle
 10
351.5184500865
 20
449.1000125
 30
0.0
 40
1.0
100
AcDbArc
 50
0.8690857265
 51
90.0
  0
LINE
  5
8D
330
1F
100
AcDbEntity
  8
0
  6
Continuous
 62
     7
370
    30
100
AcDbLine
 10
354.8425433897
 20
295.9000125
 30
0.0
 11
354.682642461
 21
306.4409124719
 31
0.0
  0
LINE
  5
8E
330
1F
100
AcDbEntity
  8
0
  6
Continuous
 62
     7
370
    30
100
AcDbLine
 10
354.4429789085
 20
322.2398796978
 30
0.0
 11
352.5183350484
 21
449.1151803258
 31
0.0
  0
SPLINE
  5
8F
330
1F
100
AcDbEntity
  8
0
  6
Continuous
 62
     7
370
    30
100
AcDbSpline
210
0.0
220
0.0
230
1.0
 70
     8
 71
     3
 72
   120
 73
   116
 74
     0
 42
0.000000001
 43
0.00000001
 40
0.0
 40
0.0
 40
0.0
 40
0.0
 40
0.0003944938044507
 40
0.0095529422845869
 40
0.0186878846805766
 40
0.0278019406931878
 40
0.0368973634999051
 40
0.0459761015982268
 40
0.0550398484894403
 40
0.0640900829236691
 40
0.0731281017472897
 40
0.0821550469010014
 40
0.0911719277545049
 40
0.1001796396951491
 40
0.1091789796860347
 40
0.1181706593561811
 40
0.1271553160687016
 40
0.1361335223226451
 40
0.1451057937742868
 40
0.1540725961087567
 40
0.1630343509497955
 40
0.1719914409610561
 40
0.1809442142649987
 40
0.1898929882835547
 40
0.1988380530868554
 40
0.2077796743219601
 40
0.2167180957818807
 40
0.2256535416652955
 40
0.2345862185697834
 40
0.2435163172544913
 40
0.2524440142030081
 40
0.2613694730124778
 40
0.2702928456313229
 40
0.2792142734646708
 40
0.2881338883640006
 40
0.2970518135151704
 40
0.3059681642371156
 40
0.3148830487019317
 40
0.3237965685854796
 40
0.332708819656769
 40
0.3416198923130574
 40
0.3505298720669354
 40
0.3594388399908077
 40
0.3683468731236045
 40
0.3772540448439956
 40
0.3861604252138033
 40
0.3950660812950538
 40
0.4039710774436142
 40
0.4128754755820937
 40
0.4217793354544689
 40
0.4306827148645336
 40
0.4395856699002559
 40
0.4484882551457169
 40
0.4573905238824287
 40
0.4662925282814421
 40
0.4751943195877159
 40
0.4840959482980844
 40
0.4929974643340673
 40
0.5018989172106769
 40
0.5108003562024951
 40
0.5197018188189377
 40
0.5286033496005463
 40
0.5375049979912748
 40
0.5464068137972481
 40
0.5553088473542643
 40
0.5642111496988711
 40
0.5731137727441356
 40
0.5820167694612303
 40
0.5909201940682695
 40
0.5998241022276745
 40
0.6087285512535341
 40
0.6176336003306496
 40
0.6265393107468455
 40
0.635445746140593
 40
0.6443529727658643
 40
0.6532610597766819
 40
0.6621700795336861
 40
0.671080107935837
 40
0.6799912247801218
 40
0.6889035141530179
 40
0.6978170648576508
 40
0.7067319708810991
 40
0.7156483319070758
 40
0.7245662538796169
 40
0.7334858496244803
 40
0.7424072395357916
 40
0.7513305523364368
 40
0.7602559259221267
 40
0.7691835083005607
 40
0.7781134586386387
 40
0.7870459484329942
 40
0.7959811628213299
 40
0.8049193020550223
 40
0.8138605831567786
 40
0.8228052417913456
 40
0.8317535343817966
 40
0.840705740510189
 40
0.8496621656479325
 40
0.8586231442700759
 40
0.867589043417706
 40
0.8765602667855017
 40
0.8855372594265326
 40
0.8945205131857049
 40
0.9035105729964448
 40
0.9125080442044446
 40
0.9215136011188445
 40
0.9305279970370975
 40
0.9395520760479514
 40
0.9485867869910809
 40
0.957633200047219
 40
0.9666925265556466
 40
0.9757661428165343
 40
0.984855618846617
 40
0.9939627533369444
 40
0.9999999999999999
 40
0.9999999999999999
 40
0.9999999999999999
 40
0.9999999999999999
 10
321.4675449228904
 20
430.1490682921392
 30
0.0
 10
321.4685763834166
 20
430.1489320281244
 30
0.0
 10
321.4935539185884
 20
430.1456323000853
 30
0.0
 10
321.5440498635159
 20
430.1393021500907
 30
0.0
 10
321.6190921990832
 20
430.1300949618655
 30
0.0
 10
321.6958877389932
 20
430.1210588519988
 30
0.0
 10
321.7741716901392
 20
430.112171748254
 30
0.0
 10
321.8540031843232
 20
430.1034371561826
 30
0.0
 10
321.9353522761888
 20
430.0948524627416
 30
0.0
 10
322.0182105377576
 20
430.0864172804683
 30
0.0
 10
322.1025617444899
 20
430.0781311186391
 30
0.0
 10
322.188389907654
 20
430.0699939240129
 30
0.0
 10
322.2756772946644
 20
430.0620058686998
 30
0.0
 10
322.3644051016072
 20
430.0541673506099
 30
0.0
 10
322.4545533966109
 20
430.0464789461888
 30
0.0
 10
322.546101241838
 20
430.0389413833381
 30
0.0
 10
322.6390267541441
 20
430.0315555150121
 30
0.0
 10
322.733307170879
 20
430.0243222976353
 30
0.0
 10
322.8289189048934
 20
430.0172427723699
 30
0.0
 10
322.9258375945229
 20
430.0103180490684
 30
0.0
 10
323.0240381482371
 20
430.0035492923891
 30
0.0
 10
323.1234947850585
 20
429.9969377097555
 30
0.0
 10
323.2241810712966
 20
429.9904845408674
 30
0.0
 10
323.3260699541557
 20
429.9841910485322
 30
0.0
 10
323.4291337926541
 20
429.9780585106173
 30
0.0
 10
323.5333443862332
 20
429.9720882129666
 30
0.0
 10
323.6386730013718
 20
429.9662814431409
 30
0.0
 10
323.7450903964768
 20
429.9606394848723
 30
0.0
 10
323.8525668452761
 20
429.9551636131328
 30
0.0
 10
323.9610721589133
 20
429.9498550897396
 30
0.0
 10
324.0705757069092
 20
429.9447151594254
 30
0.0
 10
324.181046437136
 20
429.9397450463175
 30
0.0
 10
324.2924528949276
 20
429.9349459507731
 30
0.0
 10
324.4047632414342
 20
429.9303190465315
 30
0.0
 10
324.517945271314
 20
429.9258654781432
 30
0.0
 10
324.6319664298441
 20
429.9215863586453
 30
0.0
 10
324.7467938295185
 20
429.9174827674573
 30
0.0
 10
324.8623942661993
 20
429.9135557484722
 30
0.0
 10
324.978734234869
 20
429.9098063083223
 30
0.0
 10
325.0957799450368
 20
429.906235414804
 30
0.0
 10
325.2134973358361
 20
429.902843995443
 30
0.0
 10
325.3318520908518
 20
429.8996329361901
 30
0.0
 10
325.4508096527087
 20
429.8966030802323
 30
0.0
 10
325.5703352374483
 20
429.8937552269119
 30
0.0
 10
325.6903938487216
 20
429.8910901307427
 30
0.0
 10
325.8109502918162
 20
429.8886085005171
 30
0.0
 10
325.9319691875409
 20
429.8863109984952
 30
0.0
 10
326.0534149859823
 20
429.884198239671
 30
0.0
 10
326.1752519801504
 20
429.8822707911129
 30
0.0
 10
326.2974443195268
 20
429.8805291713678
 30
0.0
 10
326.4199560235271
 20
429.8789738499312
 30
0.0
 10
326.5427509948886
 20
429.8776052467766
 30
0.0
 10
326.6657930329948
 20
429.8764237319416
 30
0.0
 10
326.7890458471428
 20
429.8754296251674
 30
0.0
 10
326.9124730697647
 20
429.8746231955925
 30
0.0
 10
327.0360382696081
 20
429.8740046614939
 30
0.0
 10
327.1597049648848
 20
429.8735741900801
 30
0.0
 10
327.2834366363915
 20
429.8733318973288
 30
0.0
 10
327.4071967406106
 20
429.8732778478724
 30
0.0
 10
327.53094866863
 20
429.8734120548714
 30
0.0
 10
327.6546557914841
 20
429.8737344796208
 30
0.0
 10
327.7782814950739
 20
429.8742450314784
 30
0.0
 10
327.901789247225
 20
429.8749435683572
 30
0.0
 10
328.0251425782902
 20
429.8758298969815
 30
0.0
 10
328.148305072437
 20
429.8769037729836
 30
0.0
 10
328.2712403807533
 20
429.8781649011055
 30
0.0
 10
328.3939122343768
 20
429.8796129354483
 30
0.0
 10
328.5162844576522
 20
429.8812474797702
 30
0.0
 10
328.6383209813256
 20
429.8830680878368
 30
0.0
 10
328.7599858557814
 20
429.8850742638235
 30
0.0
 10
328.8812432643311
 20
429.8872654627741
 30
0.0
 10
329.0020575365626
 20
429.8896410911162
 30
0.0
 10
329.1223931617604
 20
429.8922005072397
 30
0.0
 10
329.2422148024071
 20
429.8949430221393
 30
0.0
 10
329.3614873077791
 20
429.8978679001262
 30
0.0
 10
329.4801757276499
 20
429.9009743596148
 30
0.0
 10
329.5982453261171
 20
429.9042615739882
 30
0.0
 10
329.7156615955702
 20
429.9077286725502
 30
0.0
 10
329.8323902708175
 20
429.9113747415707
 30
0.0
 10
329.9483973433973
 20
429.9151988254328
 30
0.0
 10
330.0636490760943
 20
429.9191999278899
 30
0.0
 10
330.1781120176936
 20
429.9233770134466
 30
0.0
 10
330.2917530180006
 20
429.9277290088723
 30
0.0
 10
330.4045392431656
 20
429.9322548048638
 30
0.0
 10
330.5164381913532
 20
429.9369532578731
 30
0.0
 10
330.6274177088042
 20
429.9418231921183
 30
0.0
 10
330.7374460063421
 20
429.9468634018002
 30
0.0
 10
330.8464916763873
 20
429.9520726535478
 30
0.0
 10
330.9545237105482
 20
429.9574496891253
 30
0.0
 10
331.0615115178686
 20
429.962993228428
 30
0.0
 10
331.167424943825
 20
429.9687019728136
 30
0.0
 10
331.2722342901799
 20
429.9745746088058
 30
0.0
 10
331.3759103358123
 20
429.9806098122314
 30
0.0
 10
331.4784243586702
 20
429.9868062528456
 30
0.0
 10
331.5797481590068
 20
429.9931625995238
 30
0.0
 10
331.6798540840948
 20
429.999677526102
 30
0.0
 10
331.7787150546404
 20
430.0063497179697
 30
0.0
 10
331.876304593162
 20
430.0131778795337
 30
0.0
 10
331.9725968546376
 20
430.0201607426978
 30
0.0
 10
332.0675666597938
 20
430.0272970765287
 30
0.0
 10
332.1611895314346
 20
430.0345856983145
 30
0.0
 10
332.2534417344372
 20
430.0420254862574
 30
0.0
 10
332.3443003196001
 20
430.0496153941304
 30
0.0
 10
332.433743173652
 20
430.0573544681431
 30
0.0
 10
332.5217490704252
 20
430.0652418669118
 30
0.0
 10
332.6082977462193
 20
430.0732768833997
 30
0.0
 10
332.6933699186019
 20
430.0814589757862
 30
0.0
 10
332.7769475569247
 20
430.0897877846212
 30
0.0
 10
332.8590132601223
 20
430.0982632250939
 30
0.0
 10
332.9395530301449
 20
430.1068853275675
 30
0.0
 10
333.018546418007
 20
430.1156550551543
 30
0.0
 10
333.0960039833909
 20
430.1245715111449
 30
0.0
 10
333.1718278593719
 20
430.1336427068247
 30
0.0
 10
333.2379095155343
 20
430.1418050272097
 30
0.0
 10
333.2779634149175
 20
430.1470012297492
 30
0.0
 10
333.2939307408811
 20
430.1490726750016
 30
0.0
  0
SPLINE
  5
90
330
1F
100
AcDbEntity
  8
0
  6
Continuous
 62
     7
370
    30
100
AcDbSpline
210
0.0
220
0.0
230
1.0
 70
     8
 71
     3
 72
    16
 73
    12
 74
     0
 42
0.000000001
 43
0.00000001
 40
0.0
 40
0.0
 40
0.0
 40
0.0
 40
0.0639795163737554
 40
0.1828948960608638
 40
0.302043525205195
 40
0.421486101695198
 40
0.5411836804004193
 40
0.6611032951422948
 40
0.781216852269936
 40
0.9015003532634781
 40
1.0
 40
1.0
 40
1.0
 40
1.0
 10
319.4976517336571
 20
429.9282459943049
 30
0.0
 10
319.5050050327824
 20
429.9301285976243
 30
0.0
 10
319.5260255242689
 20
429.9355102972359
 30
0.0
 10
319.5623166462323
 20
429.9443819656788
 30
0.0
 10
319.6071808957144
 20
429.9548532414905
 30
0.0
 10
319.6541725444216
 20
429.9653094197286
 30
0.0
 10
319.703252381634
 20
429.9757433890305
 30
0.0
 10
319.7543897207356
 20
429.9861466453014
 30
0.0
 10
319.8076315541318
 20
429.9965085579601
 30
0.0
 10
319.8593463582985
 20
430.0062038741692
 30
0.0
 10
319.8942285960198
 20
430.0124111049914
 30
0.0
 10
319.9099331332687
 20
430.0152056988599
 30
0.0
  0
SPLINE
  5
91
330
1F
100
AcDbEntity
  8
0
  6
Continuous
 62
     7
370
    30
100
AcDbSpline
210
0.0
220
0.0
230
1.0
 70
     8
 71
     3
 72
    31
 73
    27
 74
     0
 42
0.000000001
 43
0.00000001
 40
0.0
 40
0.0
 40
0.0
 40
0.0
 40
0.0174471513761748
 40
0.0633665938076429
 40
0.1092445665088684
 40
0.1550680929770278
 40
0.2008297460160355
 40
0.2465208571891478
 40
0.2921312760167977
 40
0.3376490831000251
 40
0.3830602460192815
 40
0.4283482085692745
 40
0.4734934041646321
 40
0.5184726861739765
 40
0.5632586727913091
 40
0.607819013860597
 40
0.6521156048503091
 40
0.6961038032371545
 40
0.7397317505931427
 40
0.7829399764959676
 40
0.8256615649070527
 40
0.8678233048776098
 40
0.9093484258477464
 40
0.9501617282695192
 40
0.9871948406507898
 40
0.9999999999999999
 40
0.9999999999999999
 40
0.9999999999999999
 40
0.9999999999999999
 10
334.851938276919
 20
430.0151933156964
 30
0.0
 10
334.8592660350863
 20
430.0138943105453
 30
0.0
 10
334.8858798395576
 20
430.009176432538
 30
0.0
 10
334.9303502108021
 20
430.0009926188868
 30
0.0
 10
334.9845915052575
 20
429.9906256602716
 30
0.0
 10
335.0367569100503
 20
429.9802101519459
 30
0.0
 10
335.0868820187087
 20
429.9697558464086
 30
0.0
 10
335.1349305872423
 20
429.9592701162934
 30
0.0
 10
335.180885860023
 20
429.9487620462723
 30
0.0
 10
335.2247253354752
 20
429.9382417310816
 30
0.0
 10
335.2664273933036
 20
429.9277207863275
 30
0.0
 10
335.3059694092451
 20
429.9172126154505
 30
0.0
 10
335.343328161724
 20
429.9067328429194
 30
0.0
 10
335.3784796629242
 20
429.8962998296648
 30
0.0
 10
335.4113992112455
 20
429.8859353239367
 30
0.0
 10
335.442061496454
 20
429.8756652707974
 30
0.0
 10
335.4704408777365
 20
429.8655208126033
 30
0.0
 10
335.4965118728351
 20
429.8555395271244
 30
0.0
 10
335.5202500846834
 20
429.8457668913994
 30
0.0
 10
335.54163331842
 20
429.8362581550866
 30
0.0
 10
335.5606445559189
 20
429.8270800177709
 30
0.0
 10
335.5772716333718
 20
429.8183142598664
 30
0.0
 10
335.5915236350945
 20
429.8100551288743
 30
0.0
 10
335.6031009218541
 20
429.8026168073193
 30
0.0
 10
335.6104266623312
 20
429.797393698068
 30
0.0
 10
335.6138316952919
 20
429.7947577845542
 30
0.0
 10
335.6147065649078
 20
429.7940805280724
 30
0.0
  0
SPLINE
  5
92
330
1F
100
AcDbEntity
  8
0
  6
Continuous
 62
     7
370
    30
100
AcDbSpline
210
0.0
220
0.0
230
1.0
 70
     8
 71
     3
 72
    30
 73
    26
 74
     0
 42
0.000000001
 43
0.00000001
 40
0.0
 40
0.0
 40
0.0
 40
0.0
 40
0.0231249001712231
 40
0.0704453534340799
 40
0.1186526090105227
 40
0.1672253082135705
 40
0.2153829149322762
 40
0.2629583252601905
 40
0.3099604993617575
 40
0.3564580573226088
 40
0.4025299333184937
 40
0.4482482546821543
 40
0.4936740091788727
 40
0.538857229144679
 40
0.5838385120311125
 40
0.6286507311163042
 40
0.6733205652086173
 40
0.7178697614450781
 40
0.7623161434681133
 40
0.8066744051558641
 40
0.8509567326805814
 40
0.8951732921978524
 40
0.9393326133438611
 40
0.9834418921480403
 40
0.9999999999999999
 40
0.9999999999999999
 40
0.9999999999999999
 40
0.9999999999999999
 10
318.1792173084077
 20
429.6250823815103
 30
0.0
 10
318.1829159734395
 20
429.6222473509321
 30
0.0
 10
318.1941832119343
 20
429.6136110009544
 30
0.0
 10
318.2144767869521
 20
429.5998646626117
 30
0.0
 10
318.2409362887661
 20
429.5839174276895
 30
0.0
 10
318.2695918913056
 20
429.5685109314886
 30
0.0
 10
318.3002028543936
 20
429.5536341860898
 30
0.0
 10
318.3325910660185
 20
429.5392770069533
 30
0.0
 10
318.366714070688
 20
429.525365228193
 30
0.0
 10
318.4025803546168
 20
429.5118261125562
 30
0.0
 10
318.4402149534973
 20
429.4985974577166
 30
0.0
 10
318.4796461147727
 20
429.4856299393236
 30
0.0
 10
318.5208994984806
 20
429.4728853385409
 30
0.0
 10
318.5639964756165
 20
429.460334345061
 30
0.0
 10
318.6089538727249
 20
429.4479545271195
 30
0.0
 10
318.6557842900443
 20
429.4357287215547
 30
0.0
 10
318.7044965969949
 20
429.4236437998899
 30
0.0
 10
318.7550963608561
 20
429.4116897355844
 30
0.0
 10
318.8075865088296
 20
429.3998589159918
 30
0.0
 10
318.8619668810861
 20
429.3881455733601
 30
0.0
 10
318.9182376190891
 20
429.3765455390212
 30
0.0
 10
318.9763879989372
 20
429.3650553613267
 30
0.0
 10
319.0364392187271
 20
429.3536742131902
 30
0.0
 10
319.0854304007342
 20
429.344740095056
 30
0.0
 10
319.1144834888337
 20
429.3396039934502
 30
0.0
 10
319.1224130238394
 20
429.3382021838617
 30
0.0
  0
SPLINE
  5
93
330
1F
100
AcDbEntity
  8
0
  6
Continuous
 62
     7
370
    30
100
AcDbSpline
210
0.0
220
0.0
230
1.0
 70
     8
 71
     3
 72
    31
 73
    27
 74
     0
 42
0.000000001
 43
0.00000001
 40
0.0
 40
0.0
 40
0.0
 40
0.0
 40
0.0230242112488419
 40
0.0668714664149539
 40
0.1107258959591759
 40
0.1545906190077173
 40
0.1984665957711438
 40
0.2423549016234755
 40
0.2862567438222023
 40
0.3301734814736284
 40
0.374106649100598
 40
0.4180579845705672
 40
0.4620294623238624
 40
0.5060233330735134
 40
0.5500421714441307
 40
0.5940889333970042
 40
0.6381670257766301
 40
0.6822803909477062
 40
0.7264336103145212
 40
0.7706320315858376
 40
0.814881926051392
 40
0.8591906839659014
 40
0.903567058523709
 40
0.9480214719923609
 40
0.9903223356602451
 40
1.0
 40
1.0
 40
1.0
 40
1.0
 10
334.5733681804149
 20
429.1923416785067
 30
0.0
 10
334.5887770910834
 20
429.1940291214024
 30
0.0
 10
334.6335306959355
 20
429.198930126684
 30
0.0
 10
334.7063505744709
 20
429.2071359101326
 30
0.0
 10
334.7912564546815
 20
429.2169966143485
 30
0.0
 10
334.8744344905032
 20
429.2269756415471
 30
0.0
 10
334.9558970450589
 20
429.2370693485357
 30
0.0
 10
335.0356192428617
 20
429.2472765934184
 30
0.0
 10
335.1135865221151
 20
429.2575955889255
 30
0.0
 10
335.1897823095784
 20
429.2680248080977
 30
0.0
 10
335.2641913587208
 20
429.2785627614081
 30
0.0
 10
335.3367988935627
 20
429.2892080801541
 30
0.0
 10
335.4075908821392
 20
429.2999595223303
 30
0.0
 10
335.476554013294
 20
429.3108160049488
 30
0.0
 10
335.5436757607203
 20
429.321776636283
 30
0.0
 10
335.6089444316594
 20
429.3328407569501
 30
0.0
 10
335.6723492339819
 20
429.3440079894788
 30
0.0
 10
335.7338803385719
 20
429.3552783001852
 30
0.0
 10
335.7935290069969
 20
429.3666520731289
 30
0.0
 10
335.8512875413322
 20
429.3781302125317
 30
0.0
 10
335.9071499773785
 20
429.3897142337544
 30
0.0
 10
335.961110095477
 20
429.4014065202477
 30
0.0
 10
336.0131695814151
 20
429.4132101210618
 30
0.0
 10
336.062464772092
 20
429.4249299181578
 30
0.0
 10
336.0973419902064
 20
429.433615279095
 30
0.0
 10
336.1156372406223
 20
429.4383220173599
 30
0.0
 10
336.1190435566402
 20
429.4391983452362
 30
0.0
  0
SPLINE
  5
94
330
1F
100
AcDbEntity
  8
0
  6
Continuous
 62
     7
370
    30
100
AcDbSpline
210
0.0
220
0.0
230
1.0
 70
     8
 71
     3
 72
    31
 73
    27
 74
     0
 42
0.000000001
 43
0.00000001
 40
0.0
 40
0.0
 40
0.0
 40
0.0
 40
0.0230388920397424
 40
0.0668451689771255
 40
0.1106491806102659
 40
0.1544504773320183
 40
0.1982492303995645
 40
0.242045598594723
 40
0.2858397293310857
 40
0.3296317596663979
 40
0.3734218172134601
 40
0.4172100209599298
 40
0.4609964820083104
 40
0.5047813042445906
 40
0.5485645849432591
 40
0.5923464153160765
 40
0.6361268810104013
 40
0.6799060625621277
 40
0.7236840358087713
 40
0.7674608722660632
 40
0.8112366394722227
 40
0.855011401303061
 40
0.898785218261061
 40
0.9425581477406182
 40
0.9863302442722393
 40
1.0
 40
1.0
 40
1.0
 40
1.0
 10
321.6297168019321
 20
429.0667079852202
 30
0.0
 10
321.6490414961658
 20
429.0653675443389
 30
0.0
 10
321.7051102710552
 20
429.061478381741
 30
0.0
 10
321.7989364991365
 20
429.0551534470962
 30
0.0
 10
321.9116001990124
 20
429.0477839430743
 30
0.0
 10
322.0255495169449
 20
429.0405681774415
 30
0.0
 10
322.1407345857884
 20
429.0335052634382
 30
0.0
 10
322.2571351601193
 20
429.0265974424307
 30
0.0
 10
322.3747228154427
 20
429.0198460704996
 30
0.0
 10
322.4934709401252
 20
429.0132527021018
 30
0.0
 10
322.6133520681292
 20
429.0068187986407
 30
0.0
 10
322.7343386034289
 20
429.0005458055363
 30
0.0
 10
322.8564026356353
 20
428.9944351306285
 30
0.0
 10
322.9795159990974
 20
428.9884881490843
 30
0.0
 10
323.1036502666267
 20
428.9827062012312
 30
0.0
 10
323.2287767611148
 20
428.9770905924439
 30
0.0
 10
323.3548665608359
 20
428.9716425921244
 30
0.0
 10
323.4818905120363
 20
428.9663634344743
 30
0.0
 10
323.6098192186403
 20
428.9612543132054
 30
0.0
 10
323.738623116176
 20
428.9563163988865
 30
0.0
 10
323.8682722317106
 20
428.9515507719863
 30
0.0
 10
323.9987371155028
 20
428.9469586706423
 30
0.0
 10
324.1299853999486
 20
428.9425405640192
 30
0.0
 10
324.2619946771895
 20
428.9382996085958
 30
0.0
 10
324.3642834953545
 20
428.9351619085295
 30
0.0
 10
324.4225598072258
 20
428.933438849359
 30
0.0
 10
324.4364281439291
 20
428.9330288034249
 30
0.0
  0
SPLINE
  5
95
330
1F
100
AcDbEntity
  8
0
  6
Continuous
 62
     7
370
    30
100
AcDbSpline
210
0.0
220
0.0
230
1.0
 70
     8
 71
     3
 72
    31
 73
    27
 74
     0
 42
0.000000001
 43
0.00000001
 40
0.0
 40
0.0
 40
0.0
 40
0.0
 40
0.0230352378009782
 40
0.0668038381211622
 40
0.1105729281725214
 40
0.1543422812690934
 40
0.1981119290856182
 40
0.2418819040590049
 40
0.2856522394758654
 40
0.3294229695689371
 40
0.3731941296183886
 40
0.4169657560589298
 40
0.4607378865932186
 40
0.5045105603121333
 40
0.548283817823138
 40
0.592057701387142
 40
0.6358322550650851
 40
0.6796075248750589
 40
0.7233835589614651
 40
0.7671604077769507
 40
0.81093812427909
 40
0.8547167641427674
 40
0.8984963859907213
 40
0.942277051643455
 40
0.9860588263908178
 40
1.0
 40
1.0
 40
1.0
 40
1.0
 10
328.3982914953385
 20
428.8957953843332
 30
0.0
 10
328.4228069068443
 20
428.89603825785
 30
0.0
 10
328.493903354637
 20
428.8967426084295
 30
0.0
 10
328.6113905689124
 20
428.8980505788032
 30
0.0
 10
328.7506331701192
 20
428.8997799995158
 30
0.0
 10
328.8895546745649
 20
428.9016971802276
 30
0.0
 10
329.0281264287354
 20
428.9037984728505
 30
0.0
 10
329.1663152087343
 20
428.9060842535779
 30
0.0
 10
329.3040892026846
 20
428.908553767715
 30
0.0
 10
329.4414163443193
 20
428.9112065103025
 30
0.0
 10
329.5782647692938
 20
428.9140418563911
 30
0.0
 10
329.7146027026919
 20
428.9170591603432
 30
0.0
 10
329.8503984989367
 20
428.9202577294735
 30
0.0
 10
329.9856206408021
 20
428.9236368313879
 30
0.0
 10
330.1202377495244
 20
428.9271956922836
 30
0.0
 10
330.2542185913207
 20
428.9309334977939
 30
0.0
 10
330.3875320870811
 20
428.9348493927872
 30
0.0
 10
330.5201473128607
 20
428.9389424828998
 30
0.0
 10
330.6520335339029
 20
428.9432118302802
 30
0.0
 10
330.7831601136347
 20
428.9476564708551
 30
0.0
 10
330.9134968891609
 20
428.9522753514008
 30
0.0
 10
331.0430128056469
 20
428.957067565992
 30
0.0
 10
331.1716810487512
 20
428.9620314752199
 30
0.0
 10
331.2994599251236
 20
428.9671679952042
 30
0.0
 10
331.3975314893223
 20
428.9712640852327
 30
0.0
 10
331.4529918471928
 20
428.9736487634029
 30
0.0
 10
331.4663865628045
 20
428.9742247078638
 30
0.0
  0
LINE
  5
96
330
1F
100
AcDbEntity
  8
0
  6
Continuous
 62
     7
370
    30
100
AcDbLine
 10
323.9628538477
 20
333.1578829706
 30
0.0
 11
324.0176579098
 21
332.9176782675
 31
0.0
  0
LINE
  5
97
330
1F
100
AcDbEntity
  8
0
  6
Continuous
 62
     7
370
    30
100
AcDbLine
 10
330.7440376833
 20
332.9176782675
 30
0.0
 11
330.7988417454
 21
333.1578829706
 31
0.0
  0
LINE
  5
98
330
1F
100
AcDbEntity
  8
0
  6
Continuous
 62
     7
370
    30
100
AcDbLine
 10
323.9628538477
 20
315.2133709634
 30
0.0
 11
324.0176579098
 21
314.9731662603
 31
0.0
  0
LINE
  5
99
330
1F
100
AcDbEntity
  8
0
  6
Continuous
 62
     7
370
    30
100
AcDbLine
 10
330.7440376833
 20
314.9731662603
 30
0.0
 11
330.7988417454
 21
315.2133709634
 31
0.0
  0
LWPOLYLINE
  5
9A
330
1F
100
AcDbEntity
  8
0
  6
Continuous
 62
     7
370
    30
100
AcDbPolyline
 90
        3
 70
   128
 43
0.0
 10
366.0301767459
 20
321.8982986003
 10
366.0322400992
 20
321.8784670351
 10
366.0339527142
 20
321.8429016782
  0
LINE
  5
9B
330
1F
100
AcDbEntity
  8
0
  6
Continuous
 62
     7
370
    30
100
AcDbLine
 10
356.5808477966
 20
317.6249247691
 30
0.0
 11
356.5808477966
 21
331.5227062562
 31
0.0
  0
LINE
  5
9C
330
1F
100
AcDbEntity
  8
0
  6
Continuous
 62
     7
370
    30
100
AcDbLine
 10
356.5808477966
 20
331.5227062562
 30
0.0
 11
356.5808477966
 21
332.1521233602
 31
0.0
  0
SPLINE
  5
9D
330
1F
100
AcDbEntity
  8
0
  6
Continuous
 62
     7
370
    30
100
AcDbSpline
210
0.0
220
0.0
230
1.0
 70
     8
 71
     3
 72
    12
 73
     8
 74
     0
 42
0.000000001
 43
0.00000001
 40
0.0
 40
0.0
 40
0.0
 40
0.0
 40
0.1866686205486599
 40
0.3733345547577395
 40
0.559999369484689
 40
0.7799979318302995
 40
1.0
 40
1.0
 40
1.0
 40
1.0
 10
366.0101371032346
 20
323.0954510501293
 30
0.0
 10
366.0008781276669
 20
323.6651409910525
 30
0.0
 10
365.982360309777
 20
324.8045126745171
 30
0.0
 10
365.9482603307625
 20
326.5135704996422
 30
0.0
 10
365.9070948595906
 20
328.3244128629877
 30
0.0
 10
365.8578807417188
 20
330.2370962574747
 30
0.0
 10
365.8174642431877
 20
331.5802267208747
 30
0.0
 10
365.7972558329076
 20
332.2517973034523
 30
0.0
  0
ARC
  5
9E
330
1F
100
AcDbEntity
  8
0
  6
Continuous
 62
     7
370
    30
100
AcDbCircle
 10
365.2970783369
 20
332.7355702917
 30
0.0
 40
0.0047686741330038
100
AcDbArc
 50
164.4718473731
 51
180.5352581004
  0
LINE
  5
9F
330
1F
100
AcDbEntity
  8
0
  6
Continuous
 62
     7
370
    30
100
AcDbLine
 10
365.7972558329
 20
332.2517973035
 30
0.0
 11
365.7972507271
 21
332.2524082279
 31
0.0
  0
LWPOLYLINE
  5
A0
330
1F
100
AcDbEntity
  8
0
  6
Continuous
 62
     7
370
    30
100
AcDbPolyline
 90
       67
 70
   128
 43
0.0
 10
327.3808477966
 20
434.347551411
 10
327.1033721445
 20
434.3472348303
 10
326.8260866604
 20
434.3462853054
 10
326.5491813819
 20
434.344703487
 10
326.2728460859
 20
434.3424904592
 10
325.9972701591
 20
434.3396477387
 10
325.7226424672
 20
434.3361772737
 10
325.4491512264
 20
434.3320814427
 10
325.1769838739
 20
434.3273630528
 10
324.9063269397
 20
434.3220253378
 10
324.6373659185
 20
434.3160719558
 10
324.3702851427
 20
434.3095069871
 10
324.1052676562
 20
434.3023349308
 10
323.8424950887
 20
434.2945607024
 10
323.5821475314
 20
434.28618963
 10
323.3244034135
 20
434.2772274506
 10
323.06943938
 20
434.2676803065
 10
322.8174301704
 20
434.2575547409
 10
322.5685484993
 20
434.2468576932
 10
322.3229649378
 20
434.2355964947
 10
322.0808477966
 20
434.2237788633
 10
321.8423630106
 20
434.2114128981
 10
321.6076740254
 20
434.1985070743
 10
321.3769416852
 20
434.1850702368
 10
321.1503241223
 20
434.1711115945
 10
320.9279766491
 20
434.156640714
 10
320.7100516515
 20
434.1416675129
 10
320.4966984843
 20
434.1262022531
 10
320.2880633692
 20
434.1102555337
 10
320.0842892942
 20
434.0938382838
 10
319.885515916
 20
434.076961755
 10
319.6918794639
 20
434.0596375136
 10
319.5035126465
 20
434.0418774328
 10
319.3205445612
 20
434.0236936843
 10
319.1431006051
 20
434.0050987306
 10
318.9713023895
 20
433.9861053156
 10
318.8052676562
 20
433.9667264564
 10
318.6451101972
 20
433.9469754344
 10
318.4909397764
 20
433.9268657859
 10
318.3428620544
 20
433.9064112931
 10
318.2009785165
 20
433.8856259744
 10
318.0653864024
 20
433.8645240751
 10
317.9361786402
 20
433.8431200574
 10
317.8134437825
 20
433.8214285905
 10
317.6972659456
 20
433.7994645407
 10
317.587724752
 20
433.777242961
 10
317.4848952757
 20
433.7547790809
 10
317.388847991
 20
433.7320882962
 10
317.2996487239
 20
433.7091861579
 10
317.217358607
 20
433.686088362
 10
317.1420340379
 20
433.6628107386
 10
317.0737266404
 20
433.6393692411
 10
317.0124832288
 20
433.6157799349
 10
316.9583457764
 20
433.5920589872
 10
316.9113513863
 20
433.568222655
 10
316.871532266
 20
433.5442872745
 10
316.8389157057
 20
433.5202692499
 10
316.813524059
 20
433.4961850419
 10
316.7953747282
 20
433.4720511567
 10
316.7844801518
 20
433.4478841344
 10
316.7808477966
 20
433.4237005378
 10
316.7844801518
 20
433.3995169413
 10
316.7953747282
 20
433.375349919
 10
316.813524059
 20
433.3512160337
 10
316.8389157057
 20
433.3271318258
 10
316.871532266
 20
433.3031138012
 10
316.8808477966
 20
433.2970995087
  0
LWPOLYLINE
  5
A1
330
1F
100
AcDbEntity
  8
0
  6
Continuous
 62
     7
370
    30
100
AcDbPolyline
 90
       67
 70
   128
 43
0.0
 10
337.8808477966
 20
433.2970995087
 10
337.8901633271
 20
433.3031138012
 10
337.9227798875
 20
433.3271318258
 10
337.9481715342
 20
433.3512160337
 10
337.966320865
 20
433.375349919
 10
337.9772154413
 20
433.3995169413
 10
337.9808477966
 20
433.4237005378
 10
337.9772154413
 20
433.4478841344
 10
337.966320865
 20
433.4720511567
 10
337.9481715342
 20
433.4961850419
 10
337.9227798875
 20
433.5202692499
 10
337.8901633271
 20
433.5442872745
 10
337.8503442069
 20
433.568222655
 10
337.8033498168
 20
433.5920589872
 10
337.7492123644
 20
433.6157799349
 10
337.6879689528
 20
433.6393692411
 10
337.6196615552
 20
433.6628107386
 10
337.5443369862
 20
433.686088362
 10
337.4620468693
 20
433.7091861579
 10
337.3728476022
 20
433.7320882962
 10
337.2768003175
 20
433.7547790809
 10
337.1739708412
 20
433.777242961
 10
337.0644296476
 20
433.7994645407
 10
336.9482518107
 20
433.8214285905
 10
336.825516953
 20
433.8431200574
 10
336.6963091908
 20
433.8645240751
 10
336.5607170767
 20
433.8856259744
 10
336.4188335387
 20
433.9064112931
 10
336.2707558168
 20
433.9268657859
 10
336.116585396
 20
433.9469754344
 10
335.956427937
 20
433.9667264564
 10
335.7903932037
 20
433.9861053156
 10
335.618594988
 20
434.0050987306
 10
335.4411510319
 20
434.0236936843
 10
335.2581829466
 20
434.0418774328
 10
335.0698161293
 20
434.0596375136
 10
334.8761796772
 20
434.076961755
 10
334.6774062989
 20
434.0938382838
 10
334.473632224
 20
434.1102555337
 10
334.2649971089
 20
434.1262022531
 10
334.0516439417
 20
434.1416675129
 10
333.8337189441
 20
434.156640714
 10
333.6113714709
 20
434.1711115945
 10
333.384753908
 20
434.1850702368
 10
333.1540215677
 20
434.1985070743
 10
332.9193325826
 20
434.2114128981
 10
332.6808477966
 20
434.2237788633
 10
332.4387306553
 20
434.2355964947
 10
332.1931470938
 20
434.2468576932
 10
331.9442654228
 20
434.2575547409
 10
331.6922562132
 20
434.2676803065
 10
331.4372921797
 20
434.2772274506
 10
331.1795480618
 20
434.28618963
 10
330.9192005045
 20
434.2945607024
 10
330.656427937
 20
434.3023349308
 10
330.3914104504
 20
434.3095069871
 10
330.1243296747
 20
434.3160719558
 10
329.8553686535
 20
434.3220253378
 10
329.5847117193
 20
434.3273630528
 10
329.3125443668
 20
434.3320814427
 10
329.039053126
 20
434.3361772737
 10
328.7644254341
 20
434.3396477387
 10
328.4888495072
 20
434.3424904592
 10
328.2125142113
 20
434.344703487
 10
327.9356089328
 20
434.3462853054
 10
327.6583234486
 20
434.3472348303
 10
327.3808477966
 20
434.347551411
  0
LINE
  5
A2
330
1F
100
AcDbEntity
  8
0
  6
Continuous
 62
     7
370
    30
100
AcDbLine
 10
299.9196118793
 20
295.9000125
 30
0.0
 11
301.6080798887
 21
295.9000125
 31
0.0
  0
ELLIPSE
  5
A3
330
1F
100
AcDbEntity
  8
0
  6
Continuous
 62
     7
370
    30
100
AcDbEllipse
 10
353.6918873215
 20
314.4426749074
 30
0.0
 11
-0.08808638004580872
 21
8.399999585367596
 31
0.0
210
0.0
220
0.0
230
1.0
 40
0.0299624615
 41
1.234133020054298
 42
3.453255012718463
  0
ELLIPSE
  5
A4
330
1F
100
AcDbEntity
  8
0
  6
Continuous
 62
     7
370
    30
100
AcDbEllipse
 10
353.6918873215
 20
314.4426749074
 30
0.0
 11
-0.08808638004580872
 21
8.399999585367596
 31
0.0
210
0.0
220
0.0
230
1.0
 40
0.0299624615
 41
5.899666787322313
 42
7.517318327233918
  0
LINE
  5
A5
330
1F
100
AcDbEntity
  8
0
  6
Continuous
 62
     7
370
    30
100
AcDbLine
 10
353.1536157045
 20
295.9000125
 30
0.0
 11
354.8420837138
 21
295.9000125
 31
0.0
  0
LINE
  5
A6
330
1F
100
AcDbEntity
  8
0
  6
Continuous
 62
     7
370
    30
100
AcDbLine
 10
308.0237759882
 20
450.1000125
 30
0.0
 11
346.737919605
 21
450.1000125
 31
0.0
  0
LINE
  5
A7
330
1F
100
AcDbEntity
  8
0
  6
Continuous
 62
     7
370
    30
100
AcDbLine
 10
303.2432455067
 20
450.1000125
 30
0.0
 11
308.0237759882
 21
450.1000125
 31
0.0
  0
LINE
  5
A8
330
1F
100
AcDbEntity
  8
0
  6
Continuous
 62
     7
370
    30
100
AcDbLine
 10
346.737919605
 20
450.1000125
 30
0.0
 11
351.5184500865
 21
450.1000125
 31
0.0
  0
LINE
  5
A9
330
1F
100
AcDbEntity
  8
0
  6
Continuous
 62
     7
370
    30
100
AcDbLine
 10
302.6087178764
 20
295.9000125
 30
0.0
 11
301.6080798887
 21
295.9000125
 31
0.0
  0
LINE
  5
AA
330
1F
100
AcDbEntity
  8
0
  6
Continuous
 62
     7
370
    30
100
AcDbLine
 10
353.1536157045
 20
295.9000125
 30
0.0
 11
352.1529777168
 21
295.9000125
 31
0.0
  0
CIRCLE
  5
AB
330
1F
100
AcDbEntity
  8
0
  6
Continuous
 62
     7
370
    30
100
AcDbCircle
 10
327.3810411656
 20
333.6668688455
 30
0.0
 40
3.596310974755099
  0
CIRCLE
  5
AC
330
1F
100
AcDbEntity
  8
0
  6
Continuous
 62
     7
370
    30
100
AcDbCircle
 10
327.3806544276
 20
315.7223568383
 30
0.0
 40
3.596310974753621
  0
LINE
  5
AD
330
1F
100
AcDbEntity
  8
0
  6
Continuous
 62
     7
370
    30
100
AcDbLine
 10
302.6087178764
 20
295.9000125
 30
0.0
 11
352.1529777168
 21
295.9000125
 31
0.0
  0
ARC
  5
AE
330
1F
100
AcDbEntity
  8
0
  6
Continuous
 62
     7
370
    30
100
AcDbCircle
 10
327.3950971866
 20
333.8719437241
 30
0.0
 40
3.585797098023183
100
AcDbArc
 50
306.5418939756
 51
358.4062536362
  0
ARC
  5
AF
330
1F
100
AcDbEntity
  8
0
  6
Continuous
 62
     7
370
    30
100
AcDbCircle
 10
327.3663909182
 20
333.8718355932
 30
0.0
 40
3.58558668399545
100
AcDbArc
 50
181.5921113706
 51
233.4597410177
  0
ARC
  5
B0
330
1F
100
AcDbEntity
  8
0
  6
Continuous
 62
     7
370
    30
100
AcDbCircle
 10
327.3950971866
 20
315.9274317169
 30
0.0
 40
3.585797098023276
100
AcDbArc
 50
306.5418939755
 51
358.4062536363
  0
ARC
  5
B1
330
1F
100
AcDbEntity
  8
0
  6
Continuous
 62
     7
370
    30
100
AcDbCircle
 10
327.3663909182
 20
315.927323586
 30
0.0
 40
3.585586683995147
100
AcDbArc
 50
181.5921113705
 51
233.4597410177
  0
LINE
  5
B2
330
1F
100
AcDbEntity
  8
0
  6
Continuous
 62
     7
370
    30
100
AcDbLine
 10
299.9196118793
 20
295.9000125
 30
0.0
 11
299.9191522034
 21
295.9000125
 31
0.0
  0
LINE
  5
B3
330
1F
100
AcDbEntity
  8
0
  6
Continuous
 62
     7
370
    30
100
AcDbLine
 10
354.8425433897
 20
295.9000125
 30
0.0
 11
354.8420837138
 21
295.9000125
 31
0.0
  0
ARC
  5
B4
330
1F
100
AcDbEntity
  8
0
  6
Continuous
 62
     7
370
    30
100
AcDbCircle
 10
329.1276267219
 20
487.76660642
 30
0.0
 40
57.85303212053202
100
AcDbArc
 50
272.3565617156
 51
274.6532319144
  0
LINE
  5
B5
330
1F
100
AcDbEntity
  8
0
  6
Continuous
 62
     7
370
    30
100
AcDbLine
 10
336.188764831
 20
429.7781451719
 30
0.0
 11
336.188764831
 21
429.5331982454
 31
0.0
  0
LINE
  5
B6
330
1F
100
AcDbEntity
  8
0
  6
Continuous
 62
     7
370
    30
100
AcDbLine
 10
318.1415287034
 20
429.7105909987
 30
0.0
 11
318.1415287034
 21
429.7027971271
 31
0.0
  0
ARC
  5
B7
330
1F
100
AcDbEntity
  8
0
  6
Continuous
 62
     7
370
    30
100
AcDbCircle
 10
324.7130056315
 20
475.277480057
 30
0.0
 40
45.33043921251474
100
AcDbArc
 50
265.1787193354
 51
266.0295436612
  0
LINE
  5
B8
330
1F
100
AcDbEntity
  8
0
  6
Continuous
 62
     7
370
    30
100
AcDbLine
 10
321.5742314433
 20
430.0558390453
 30
0.0
 11
321.5742314433
 21
429.1596224471
 31
0.0
  0
ARC
  5
B9
330
1F
100
AcDbEntity
  8
0
  6
Continuous
 62
     7
370
    30
100
AcDbCircle
 10
327.2527306393
 20
527.39656677
 30
0.0
 40
97.5172212531901
100
AcDbArc
 50
268.5253201906
 51
269.0046405978
  0
LINE
  5
BA
330
1F
100
AcDbEntity
  8
0
  6
Continuous
 62
     7
370
    30
100
AcDbLine
 10
331.5064372829
 20
429.9625011518
 30
0.0
 11
331.5064372829
 21
429.0662845536
 31
0.0
  0
LINE
  5
BB
330
1F
100
AcDbEntity
  8
0
  6
Continuous
 62
     7
370
    30
100
AcDbLine
 10
319.1846776333
 20
429.9250183714
 30
0.0
 11
319.1846776333
 21
429.7129081273
 31
0.0
  0
LINE
  5
BC
330
1F
100
AcDbEntity
  8
0
  6
Continuous
 62
     7
370
    30
100
AcDbLine
 10
335.1943225852
 20
429.945451338
 30
0.0
 11
335.1943225852
 21
429.5624575065
 31
0.0
  0
LINE
  5
BD
330
1F
100
AcDbEntity
  8
0
  6
Continuous
 62
     7
370
    30
100
AcDbLine
 10
333.8209521651
 20
430.1104053471
 30
0.0
 11
333.8209521651
 21
429.3434097995
 31
0.0
  0
LINE
  5
BE
330
1F
100
AcDbEntity
  8
0
  6
Continuous
 62
     7
370
    30
100
AcDbLine
 10
331.0406449216
 20
429.9619488261
 30
0.0
 11
331.0406449216
 21
429.1482598766
 31
0.0
  0
LINE
  5
BF
330
1F
100
AcDbEntity
  8
0
  6
Continuous
 62
     7
370
    30
100
AcDbLine
 10
328.2923605744
 20
429.8784458778
 30
0.0
 11
328.2923605744
 21
429.0780084022
 31
0.0
  0
LINE
  5
C0
330
1F
100
AcDbEntity
  8
0
  6
Continuous
 62
     7
370
    30
100
AcDbLine
 10
324.7431077377
 20
429.917648539
 30
0.0
 11
324.7431077377
 21
429.1113625018
 31
0.0
  0
LINE
  5
C1
330
1F
100
AcDbEntity
  8
0
  6
Continuous
 62
     7
370
    30
100
AcDbLine
 10
322.2298171606
 20
430.0662497325
 30
0.0
 11
322.2298171606
 21
429.2310596208
 31
0.0
  0
LINE
  5
C2
330
1F
100
AcDbEntity
  8
0
  6
Continuous
 62
     7
370
    30
100
AcDbLine
 10
319.9907229063
 20
430.0238278861
 30
0.0
 11
319.9907229063
 21
429.4733793637
 31
0.0
  0
ARC
  5
C3
330
1F
100
AcDbEntity
  8
0
  6
Continuous
 62
     7
370
    30
100
AcDbCircle
 10
327.3808329961
 20
488.1601785734
 30
0.0
 40
58.28664757259145
100
AcDbArc
 50
264.3258866732
 51
275.6742301323
  0
ARC
  5
C4
330
1F
100
AcDbEntity
  8
0
  6
Continuous
 62
     7
370
    30
100
AcDbCircle
 10
327.3808494989
 20
493.1376056544
 30
0.0
 40
63.1580577007993
100
AcDbArc
 50
265.2819836665
 51
274.7179984149
  0
LINE
  5
C5
330
1F
100
AcDbEntity
  8
0
  6
Continuous
 62
     7
370
    30
100
AcDbLine
 10
319.4726642227
 20
429.9254528687
 30
0.0
 11
319.2366940704
 21
429.9323957679
 31
0.0
  0
LWPOLYLINE
  5
C6
330
1F
100
AcDbEntity
  8
0
  6
Continuous
 62
     7
370
    30
100
AcDbPolyline
 90
        3
 70
   128
 43
0.0
 10
319.4976685528
 20
429.9282503383
 10
319.4874799409
 20
429.9262429394
 10
319.4726642227
 20
429.9254528687
  0
LINE
  5
C7
330
1F
100
AcDbEntity
  8
0
  6
Continuous
 62
     7
370
    30
100
AcDbLine
 10
336.3737048282
 20
429.7799377523
 30
0.0
 11
335.676365477
 21
429.773178604
 31
0.0
  0
ARC
  5
C8
330
1F
100
AcDbEntity
  8
0
  6
Continuous
 62
     7
370
    30
100
AcDbCircle
 10
335.6753209511
 20
429.8714926417
 30
0.0
 40
0.0983195862318208
100
AcDbArc
 50
231.9519842952
 51
270.6087093383
  0
LINE
  5
C9
330
1F
100
AcDbEntity
  8
0
  6
Continuous
 62
     7
370
    30
100
AcDbLine
 10
318.2408762205
 20
429.6041804574
 30
0.0
 11
319.0853301161
 21
429.6123655529
 31
0.0
  0
ARC
  5
CA
330
1F
100
AcDbEntity
  8
0
  6
Continuous
 62
     7
370
    30
100
AcDbCircle
 10
318.2398864533
 20
429.7025335804
 30
0.0
 40
0.0983581030298736
100
AcDbArc
 50
179.8464780239
 51
270.5765710977
  0
ARC
  5
CB
330
1F
100
AcDbEntity
  8
0
  6
Continuous
 62
     7
370
    30
100
AcDbCircle
 10
319.0840910654
 20
429.7129444955
 30
0.0
 40
0.1005865744282671
100
AcDbArc
 50
270.705801673
 51
359.9792840439
  0
LINE
  5
CC
330
1F
100
AcDbEntity
  8
0
  6
Continuous
 62
     7
370
    30
100
AcDbLine
 10
319.9011456349
 20
429.3699334103
 30
0.0
 11
319.139738828
 21
429.3370695938
 31
0.0
  0
ARC
  5
CD
330
1F
100
AcDbEntity
  8
0
  6
Continuous
 62
     7
370
    30
100
AcDbCircle
 10
319.8909501187
 20
429.4692689822
 30
0.0
 40
0.0998574202463754
100
AcDbArc
 50
275.8601531263
 51
2.3591043226
  0
LWPOLYLINE
  5
CE
330
1F
100
AcDbEntity
  8
0
  6
Continuous
 62
     7
370
    30
100
AcDbPolyline
 90
        3
 70
   128
 43
0.0
 10
319.139738828
 20
429.3370695938
 10
319.1257258555
 20
429.3376907567
 10
319.1223998909
 20
429.3382044963
  0
ARC
  5
CF
330
1F
100
AcDbEntity
  8
0
  6
Continuous
 62
     7
370
    30
100
AcDbCircle
 10
336.0948005855
 20
429.5304079372
 30
0.0
 40
0.0940056660024109
100
AcDbArc
 50
269.5462035371
 51
1.7009226777
  0
LINE
  5
D0
330
1F
100
AcDbEntity
  8
0
  6
Continuous
 62
     7
370
    30
100
AcDbLine
 10
335.2890313705
 20
429.4600912881
 30
0.0
 11
336.0940560457
 21
429.4364052197
 31
0.0
  0
ARC
  5
D1
330
1F
100
AcDbEntity
  8
0
  6
Continuous
 62
     7
370
    30
100
AcDbCircle
 10
335.2949205197
 20
429.5605350935
 30
0.0
 40
0.1006163014201127
100
AcDbArc
 50
178.9052186326
 51
266.6445163417
  0
LINE
  5
D2
330
1F
100
AcDbEntity
  8
0
  6
Continuous
 62
     7
370
    30
100
AcDbLine
 10
334.5625399409
 20
429.1921338373
 30
0.0
 11
333.8990140363
 21
429.2383884574
 31
0.0
  0
ARC
  5
D3
330
1F
100
AcDbEntity
  8
0
  6
Continuous
 62
     7
370
    30
100
AcDbCircle
 10
333.9189582889
 20
429.3347351094
 30
0.0
 40
0.0983892806691726
100
AcDbArc
 50
174.9418339045
 51
258.3046644133
  0
LINE
  5
D4
330
1F
100
AcDbEntity
  8
0
  6
Continuous
 62
     7
370
    30
100
AcDbLine
 10
334.5733562184
 20
429.1923403762
 30
0.0
 11
334.5625399409
 21
429.1921338373
 31
0.0
  0
LINE
  5
D5
330
1F
100
AcDbEntity
  8
0
  6
Continuous
 62
     7
370
    30
100
AcDbLine
 10
321.5742314433
 20
430.0558390453
 30
0.0
 11
321.9340224485
 21
430.0950443725
 31
0.0
  0
LINE
  5
D6
330
1F
100
AcDbEntity
  8
0
  6
Continuous
 62
     7
370
    30
100
AcDbLine
 10
331.3963146829
 20
429.9818817524
 30
0.0
 11
331.5064372829
 21
429.9625011518
 31
0.0
  0
ARC
  5
D7
330
1F
100
AcDbEntity
  8
0
  6
Continuous
 62
     7
370
    30
100
AcDbCircle
 10
324.6156704989
 20
429.0904904946
 30
0.0
 40
0.1291351637874135
100
AcDbArc
 50
317.6685296097
 51
9.3014707631
  0
ARC
  5
D8
330
1F
100
AcDbEntity
  8
0
  6
Continuous
 62
     7
370
    30
100
AcDbCircle
 10
322.1317064815
 20
429.2171274247
 30
0.0
 40
0.0990949617648241
100
AcDbArc
 50
291.1000459872
 51
8.0822427471
  0
LINE
  5
D9
330
1F
100
AcDbEntity
  8
0
  6
Continuous
 62
     7
370
    30
100
AcDbLine
 10
324.7111351309
 20
429.0035284653
 30
0.0
 11
324.4393679734
 21
428.9333659418
 31
0.0
  0
LINE
  5
DA
330
1F
100
AcDbEntity
  8
0
  6
Continuous
 62
     7
370
    30
100
AcDbLine
 10
321.6366681783
 20
429.0668463654
 30
0.0
 11
322.1673804257
 21
429.1246764585
 31
0.0
  0
LWPOLYLINE
  5
DB
330
1F
100
AcDbEntity
  8
0
  6
Continuous
 62
     7
370
    30
100
AcDbPolyline
 90
       11
 70
   128
 43
0.0
 10
321.5742314433
 20
429.1596224471
 10
321.5750001432
 20
429.1441285251
 10
321.5772873147
 20
429.1291836405
 10
321.5810366401
 20
429.1151557862
 10
321.5861557987
 20
429.1023903744
 10
321.5925187396
 20
429.0912017319
 10
321.5999687863
 20
429.0818653602
 10
321.6083224938
 20
429.0746111519
 10
321.6173741661
 20
429.0696177294
 10
321.6269009211
 20
429.0670080476
 10
321.6366681783
 20
429.0668463654
  0
LINE
  5
DC
330
1F
100
AcDbEntity
  8
0
  6
Continuous
 62
     7
370
    30
100
AcDbLine
 10
324.4393679734
 20
428.9333659418
 30
0.0
 11
324.4364347625
 21
428.9330286108
 31
0.0
  0
LWPOLYLINE
  5
DD
330
1F
100
AcDbEntity
  8
0
  6
Continuous
 62
     7
370
    30
100
AcDbPolyline
 90
       11
 70
   128
 43
0.0
 10
331.4620761057
 20
428.9745121052
 10
331.4690157227
 20
428.9745167846
 10
331.4757844633
 20
428.9769733295
 10
331.4822156587
 20
428.9818212517
 10
331.4881509514
 20
428.9889411792
 10
331.4934441949
 20
428.9981577958
 10
331.497965052
 20
429.0092441579
 10
331.501602204
 20
429.0219272822
 10
331.5042660924
 20
429.0358948684
 10
331.5058911232
 20
429.050802988
 10
331.5064372829
 20
429.0662845536
  0
LINE
  5
DE
330
1F
100
AcDbEntity
  8
0
  6
Continuous
 62
     7
370
    30
100
AcDbLine
 10
331.0850060989
 20
429.040873081
 30
0.0
 11
331.4620761057
 21
428.9745121052
 31
0.0
  0
ARC
  5
DF
330
1F
100
AcDbEntity
  8
0
  6
Continuous
 62
     7
370
    30
100
AcDbCircle
 10
331.1478124365
 20
429.1296743343
 30
0.0
 40
0.1087671763165333
100
AcDbArc
 50
170.1613288696
 51
234.7294299538
  0
ARC
  5
E0
330
1F
100
AcDbEntity
  8
0
  6
Continuous
 62
     7
370
    30
100
AcDbCircle
 10
328.602237065
 20
429.0549565827
 30
0.0
 40
0.3107327240818881
100
AcDbArc
 50
175.7455834434
 51
195.9111998732
  0
LINE
  5
E1
330
1F
100
AcDbEntity
  8
0
  6
Continuous
 62
     7
370
    30
100
AcDbLine
 10
328.3973226518
 20
428.896171067
 30
0.0
 11
328.3034092141
 21
428.9697700735
 31
0.0
  0
LINE
  5
E2
330
1F
100
AcDbEntity
  8
0
  6
Continuous
 62
     7
370
    30
100
AcDbLine
 10
328.398288898
 20
428.8957953619
 30
0.0
 11
328.3973226518
 21
428.896171067
 31
0.0
  0
CIRCLE
  5
E3
330
1F
100
AcDbEntity
  8
0
  6
Continuous
 62
     7
370
    30
100
AcDbCircle
 10
327.3737254787
 20
333.6804715154
 30
0.0
 40
3.441967167304164
  0
ARC
  5
E4
330
1F
100
AcDbEntity
  8
0
  6
Continuous
 62
     7
370
    30
100
AcDbCircle
 10
327.4018211631
 20
333.932933364
 30
0.0
 40
3.484315133411389
100
AcDbArc
 50
347.1476247396
 51
19.5078252275
  0
ARC
  5
E5
330
1F
100
AcDbEntity
  8
0
  6
Continuous
 62
     7
370
    30
100
AcDbCircle
 10
327.3599066298
 20
333.9329314918
 30
0.0
 40
3.484346109979906
100
AcDbArc
 50
160.4923225668
 51
192.8522274662
  0
CIRCLE
  5
E6
330
1F
100
AcDbEntity
  8
0
  6
Continuous
 62
     7
370
    30
100
AcDbCircle
 10
327.3737254787
 20
315.7359595082
 30
0.0
 40
3.44196716730496
  0
ARC
  5
E7
330
1F
100
AcDbEntity
  8
0
  6
Continuous
 62
     7
370
    30
100
AcDbCircle
 10
327.3598944054
 20
315.9884201953
 30
0.0
 40
3.484334349953412
100
AcDbArc
 50
160.4922664581
 51
192.8522835749
  0
ARC
  5
E8
330
1F
100
AcDbEntity
  8
0
  6
Continuous
 62
     7
370
    30
100
AcDbCircle
 10
327.4018011878
 20
315.9884201953
 30
0.0
 40
3.48433434995481
100
AcDbArc
 50
347.1477164251
 51
19.5077335419
  0
LWPOLYLINE
  5
E9
330
1F
100
AcDbEntity
  8
0
  6
Continuous
 62
     8
370
     0
100
AcDbPolyline
 90
      241
 70
   128
 43
0.0
 10
319.3375300385
 20
430.0494798743
 10
319.5087060897
 20
430.0676383181
 10
319.6852773137
 20
430.0854000062
 10
319.8671226973
 20
430.1027527656
 10
320.0541176127
 20
430.1196847036
 10
320.2461339031
 20
430.1361842159
 10
320.4430399699
 20
430.1522399946
 10
320.6447008637
 20
430.1678410358
 10
320.8509783761
 20
430.1829766474
 10
321.0617311349
 20
430.1976364561
 10
321.2768147005
 20
430.2118104149
 10
321.4960816655
 20
430.2254888096
 10
321.7193817553
 20
430.2386622658
 10
321.9465619312
 20
430.251321755
 10
322.1774664951
 20
430.2634586011
 10
322.4119371966
 20
430.275064486
 10
322.6498133412
 20
430.2861314557
 10
322.8909319006
 20
430.2966519253
 10
323.135127624
 20
430.3066186848
 10
323.382233152
 20
430.3160249034
 10
323.6320791307
 20
430.3248641345
 10
323.8844943281
 20
430.3331303202
 10
324.1393057517
 20
430.3408177952
 10
324.3963387662
 20
430.347921291
 10
324.6554172141
 20
430.354435939
 10
324.916363536
 20
430.3603572747
 10
325.1789988923
 20
430.3656812396
 10
325.4431432858
 20
430.3704041851
 10
325.7086156853
 20
430.3745228744
 10
325.9752341491
 20
430.3780344845
 10
326.2428159503
 20
430.380936609
 10
326.5111777016
 20
430.3832272587
 10
326.7801354814
 20
430.3849048638
 10
327.0495049595
 20
430.3859682746
 10
327.3191015233
 20
430.3864167622
 10
327.588740405
 20
430.3862500193
 10
327.8582368074
 20
430.3854681601
 10
328.1274060313
 20
430.3840717206
 10
328.3960636014
 20
430.3820616576
 10
328.6640253934
 20
430.379439349
 10
328.9311077595
 20
430.3762065917
 10
329.1971276549
 20
430.3723656015
 10
329.4619027628
 20
430.3679190107
 10
329.7252516195
 20
430.3628698669
 10
329.986993739
 20
430.3572216303
 10
330.2469497363
 20
430.3509781721
 10
330.5049414504
 20
430.3441437713
 10
330.7607920668
 20
430.3367231117
 10
331.0143262382
 20
430.3287212791
 10
331.265370205
 20
430.3201437576
 10
331.5137519142
 20
430.3109964257
 10
331.7593011373
 20
430.3012855527
 10
332.0018495873
 20
430.2910177938
 10
332.2412310334
 20
430.2802001861
 10
332.4772814156
 20
430.2688401434
 10
332.7098389568
 20
430.2569454513
 10
332.9387442737
 20
430.2445242618
 10
333.1638404859
 20
430.2315850879
 10
333.3849733238
 20
430.2181367973
 10
333.601991234
 20
430.2041886069
 10
333.8147454832
 20
430.189750076
 10
334.0230902603
 20
430.1748311001
 10
334.2268827763
 20
430.1594419039
 10
334.4259833618
 20
430.1435930345
 10
334.6202555633
 20
430.1272953537
 10
334.8095662364
 20
430.1105600313
 10
334.9937856369
 20
430.0933985368
 10
335.1727875101
 20
430.0758226318
 10
335.346449177
 20
430.057844362
 10
335.5146516186
 20
430.0394760488
 10
335.6772795574
 20
430.0207302809
 10
335.8342215363
 20
430.0016199057
 10
335.985369995
 20
429.9821580205
 10
336.1306213441
 20
429.9623579635
 10
336.2698760354
 20
429.9422333048
 10
336.4030386308
 20
429.9217978366
 10
336.5300178673
 20
429.9010655646
 10
336.6507267196
 20
429.8800506974
 10
336.7650824599
 20
429.8587676378
 10
336.8730067145
 20
429.8372309719
 10
336.9744255176
 20
429.8154554601
 10
337.0692693617
 20
429.7934560261
 10
337.1574732456
 20
429.7712477472
 10
337.2389767188
 20
429.7488458439
 10
337.3137239229
 20
429.7262656694
 10
337.3816636298
 20
429.7035226989
 10
337.4427492771
 20
429.6806325193
 10
337.4969389997
 20
429.6576108185
 10
337.5441956587
 20
429.6344733743
 10
337.5844868667
 20
429.6112360441
 10
337.6177850103
 20
429.5879147535
 10
337.6440672684
 20
429.5645254857
 10
337.6633156285
 20
429.5410842706
 10
337.6755168988
 20
429.5176071737
 10
337.6806627171
 20
429.4941102849
 10
337.6787495568
 20
429.4706097079
 10
337.669778729
 20
429.4471215488
 10
337.6537563819
 20
429.4236619052
 10
337.6306934964
 20
429.4002468551
 10
337.6006058786
 20
429.3768924461
 10
337.5635141491
 20
429.3536146841
 10
337.5194437288
 20
429.3304295225
 10
337.4684248212
 20
429.3073528514
 10
337.4104923922
 20
429.2844004861
 10
337.3456861458
 20
429.2615881573
 10
337.274050497
 20
429.2389314993
 10
337.1956345412
 20
429.2164460398
 10
337.1104920208
 20
429.1941471893
 10
337.0186812883
 20
429.1720502303
 10
336.9202652661
 20
429.1501703069
 10
336.8153114037
 20
429.1285224146
 10
336.7038916312
 20
429.1071213896
 10
336.5860823102
 20
429.0859818993
 10
336.4619641812
 20
429.0651184316
 10
336.3316223087
 20
429.0445452852
 10
336.1951460224
 20
429.02427656
 10
336.0526288564
 20
429.0043261471
 10
335.9041684849
 20
428.9847077195
 10
335.7498666551
 20
428.9654347228
 10
335.5898291178
 20
428.9465203656
 10
335.4241655547
 20
428.927977611
 10
335.2529895034
 20
428.9098191672
 10
335.0764182795
 20
428.8920574791
 10
334.8945728959
 20
428.8747047197
 10
334.7075779804
 20
428.8577727817
 10
334.5155616901
 20
428.8412732693
 10
334.3186556232
 20
428.8252174907
 10
334.1169947295
 20
428.8096164495
 10
333.910717217
 20
428.7944808379
 10
333.6999644583
 20
428.7798210292
 10
333.4848808927
 20
428.7656470704
 10
333.2656139276
 20
428.7519686756
 10
333.0423138378
 20
428.7387952194
 10
332.815133662
 20
428.7261357302
 10
332.5842290981
 20
428.7139988842
 10
332.3497583966
 20
428.7023929993
 10
332.1118822519
 20
428.6913260296
 10
331.8707636926
 20
428.6808055599
 10
331.6265679692
 20
428.6708388004
 10
331.3794624412
 20
428.6614325819
 10
331.1296164625
 20
428.6525933507
 10
330.877201265
 20
428.6443271651
 10
330.6223898415
 20
428.6366396901
 10
330.365356827
 20
428.6295361943
 10
330.1062783791
 20
428.6230215462
 10
329.8453320572
 20
428.6171002106
 10
329.5826967009
 20
428.6117762456
 10
329.3185523073
 20
428.6070533001
 10
329.0530799079
 20
428.6029346109
 10
328.7864614441
 20
428.5994230007
 10
328.5188796429
 20
428.5965208763
 10
328.2505178915
 20
428.5942302266
 10
327.9815601117
 20
428.5925526215
 10
327.7121906337
 20
428.5914892107
 10
327.4425940699
 20
428.5910407231
 10
327.1729551882
 20
428.591207466
 10
326.9034587858
 20
428.5919893251
 10
326.6342895619
 20
428.5933857647
 10
326.3656319917
 20
428.5953958276
 10
326.0976701998
 20
428.5980181363
 10
325.8305878337
 20
428.6012508935
 10
325.5645679383
 20
428.6050918837
 10
325.2997928304
 20
428.6095384745
 10
325.0364439736
 20
428.6145876184
 10
324.7747018542
 20
428.6202358549
 10
324.5147458569
 20
428.6264793131
 10
324.2567541428
 20
428.633313714
 10
324.0009035264
 20
428.6407343736
 10
323.747369355
 20
428.6487362062
 10
323.4963253882
 20
428.6573137277
 10
323.247943679
 20
428.6664610595
 10
323.0023944558
 20
428.6761719326
 10
322.7598460059
 20
428.6864396914
 10
322.5204645598
 20
428.6972572992
 10
322.2844141776
 20
428.7086173419
 10
322.0518566364
 20
428.720512034
 10
321.8229513195
 20
428.7329332234
 10
321.5978551073
 20
428.7458723974
 10
321.3767222694
 20
428.759320688
 10
321.1597043592
 20
428.7732688784
 10
320.94695011
 20
428.7877074093
 10
320.7386053328
 20
428.8026263852
 10
320.5348128169
 20
428.8180155813
 10
320.3357122314
 20
428.8338644508
 10
320.1414400298
 20
428.8501621315
 10
319.9521293568
 20
428.866897454
 10
319.7679099563
 20
428.8840589485
 10
319.5889080831
 20
428.9016348534
 10
319.4152464162
 20
428.9196131232
 10
319.2470439745
 20
428.9379814365
 10
319.0844160358
 20
428.9567272044
 10
318.9274740569
 20
428.9758375796
 10
318.7763255981
 20
428.9952994648
 10
318.6310742491
 20
429.0150995217
 10
318.4918195577
 20
429.0352241805
 10
318.3586569624
 20
429.0556596486
 10
318.2316777259
 20
429.0763919207
 10
318.1109688736
 20
429.0974067878
 10
317.9966131333
 20
429.1186898475
 10
317.8886888786
 20
429.1402265133
 10
317.7872700756
 20
429.1620020252
 10
317.6924262315
 20
429.1840014592
 10
317.6042223475
 20
429.2062097381
 10
317.5227188744
 20
429.2286116413
 10
317.4479716703
 20
429.2511918159
 10
317.3800319634
 20
429.2739347864
 10
317.3189463161
 20
429.296824966
 10
317.2647565935
 20
429.3198466668
 10
317.2174999345
 20
429.3429841109
 10
317.1772087264
 20
429.3662214412
 10
317.1439105829
 20
429.3895427318
 10
317.1176283248
 20
429.4129319996
 10
317.0983799647
 20
429.4363732146
 10
317.0861786944
 20
429.4598503116
 10
317.081032876
 20
429.4833472003
 10
317.0829460364
 20
429.5068477773
 10
317.0919168642
 20
429.5303359365
 10
317.1079392113
 20
429.5537955801
 10
317.1310020968
 20
429.5772106302
 10
317.1610897146
 20
429.6005650392
 10
317.198181444
 20
429.6238428012
 10
317.2422518644
 20
429.6470279627
 10
317.293270772
 20
429.6701046339
 10
317.3512032009
 20
429.6930569991
 10
317.4160094473
 20
429.715869328
 10
317.4876450962
 20
429.738525986
 10
317.566061052
 20
429.7610114454
 10
317.6512035723
 20
429.7833102959
 10
317.7430143049
 20
429.805407255
 10
317.841430327
 20
429.8272871784
 10
317.9463841894
 20
429.8489350707
 10
318.0578039619
 20
429.8703360956
 10
318.175613283
 20
429.8914755859
 10
318.2997314119
 20
429.9123390537
 10
318.4300732845
 20
429.9329122001
 10
318.5665495707
 20
429.9531809253
 10
318.7090667367
 20
429.9731313382
 10
318.8575271083
 20
429.9927497658
 10
319.0118289381
 20
430.0120227625
 10
319.1718664754
 20
430.0309371197
 10
319.3375300385
 20
430.0494798743
  0
LWPOLYLINE
  5
EA
330
1F
100
AcDbEntity
  8
0
  6
Continuous
 62
     8
370
     0
100
AcDbPolyline
 90
       96
 70
   128
 43
0.0
 10
319.1813491111
 20
430.2596071854
 10
319.3558489692
 20
430.2781182203
 10
319.5358487607
 20
430.2962247956
 10
319.7212251226
 20
430.3139145018
 10
319.9118510072
 20
430.3311752153
 10
320.1075957692
 20
430.3479951065
 10
320.3083252548
 20
430.3643626478
 10
320.5139018941
 20
430.3802666219
 10
320.7241847951
 20
430.3956961288
 10
320.9390298405
 20
430.410640594
 10
321.158289786
 20
430.4250897753
 10
321.381814362
 20
430.43903377
 10
321.6094503759
 20
430.4524630214
 10
321.8410418173
 20
430.465368326
 10
322.0764299649
 20
430.4777408389
 10
322.3154534956
 20
430.4895720808
 10
322.5579485945
 20
430.5008539431
 10
322.8037490677
 20
430.5115786938
 10
323.0526864556
 20
430.5217389826
 10
323.3045901492
 20
430.5313278461
 10
323.5592875061
 20
430.5403387128
 10
323.8166039695
 20
430.548765407
 10
324.0763631877
 20
430.5566021533
 10
324.3383871345
 20
430.563843581
 10
324.6024962319
 20
430.5704847271
 10
324.8685094727
 20
430.5765210401
 10
325.1362445446
 20
430.5819483831
 10
325.4055179555
 20
430.5867630363
 10
325.6761451588
 20
430.5909617
 10
325.9479406802
 20
430.5945414968
 10
326.2207182445
 20
430.5974999732
 10
326.4942909037
 20
430.5998351015
 10
326.7684711646
 20
430.6015452815
 10
327.043071118
 20
430.602629341
 10
327.3179025665
 20
430.6030865371
 10
327.5927771546
 20
430.6029165565
 10
327.8675064969
 20
430.6021195156
 10
328.1419023077
 20
430.6006959607
 10
328.4157765297
 20
430.5986468675
 10
328.6889414632
 20
430.5959736402
 10
328.9612098947
 20
430.592678111
 10
329.2323952249
 20
430.5887625384
 10
329.5023115971
 20
430.584229606
 10
329.7707740239
 20
430.5790824205
 10
330.0375985146
 20
430.5733245095
 10
330.3026022011
 20
430.5669598191
 10
330.5656034631
 20
430.5599927114
 10
330.8264220526
 20
430.5524279614
 10
331.0848792177
 20
430.5442707534
 10
331.3407978246
 20
430.5355266781
 10
331.5940024796
 20
430.5262017281
 10
331.8443196488
 20
430.5163022945
 10
332.0915777774
 20
430.5058351616
 10
332.3356074069
 20
430.4948075033
 10
332.5762412917
 20
430.4832268772
 10
332.8133145133
 20
430.4711012202
 10
333.0466645936
 20
430.4584388426
 10
333.2761316061
 20
430.4452484226
 10
333.5015582855
 20
430.4315390001
 10
333.7227901357
 20
430.417319971
 10
333.9396755354
 20
430.4026010803
 10
334.1520658422
 20
430.3873924156
 10
334.3598154943
 20
430.3717044001
 10
334.5627821106
 20
430.3555477856
 10
334.7608265879
 20
430.338933645
 10
334.9538131964
 20
430.3218733649
 10
335.1416096726
 20
430.3043786375
 10
335.3240873103
 20
430.2864614528
 10
335.5011210485
 20
430.2681340904
 10
335.6725895569
 20
430.2494091109
 10
335.8383753198
 20
430.2302993475
 10
335.9983647157
 20
430.210817897
 10
336.152448096
 20
430.1909781111
 10
336.3005198596
 20
430.1707935871
 10
336.4424785255
 20
430.1502781582
 10
336.5782268023
 20
430.1294458849
 10
336.707671655
 20
430.1083110444
 10
336.8307243686
 20
430.0868881216
 10
336.9473006087
 20
430.0651917987
 10
337.0573204799
 20
430.0432369451
 10
337.1607085802
 20
430.0210386078
 10
337.2573940523
 20
429.9986120003
 10
337.347310633
 20
429.9759724927
 10
337.4303966979
 20
429.953135601
 10
337.506595304
 20
429.9301169765
 10
337.5758542285
 20
429.9069323949
 10
337.6381260048
 20
429.8835977459
 10
337.6933679551
 20
429.8601290217
 10
337.7415422191
 20
429.8365423068
 10
337.7826157807
 20
429.8128537663
 10
337.8165604901
 20
429.789079635
 10
337.8433530834
 20
429.7652362067
 10
337.8629751981
 20
429.7413398225
 10
337.8754133862
 20
429.7174068596
 10
337.8806591234
 20
429.6934537205
 10
337.8808477966
 20
429.6879658744
  0
ARC
  5
EB
330
1F
100
AcDbEntity
  8
0
  6
Continuous
 62
     8
370
     0
100
AcDbCircle
 10
318.9359024157
 20
426.3326600013
 30
0.0
 40
3.934610306902014
100
AcDbArc
 50
86.4234840067
 51
121.4867884402
  0
LWPOLYLINE
  5
EC
330
1F
100
AcDbEntity
  8
0
  6
Continuous
 62
     8
370
     0
100
AcDbPolyline
 90
      241
 70
   128
 43
0.0
 10
319.8646409551
 20
430.0127316005
 10
320.0245991523
 20
430.0297000486
 10
320.1895989548
 20
430.0462977419
 10
320.35952728
 20
430.0625133053
 10
320.5342676676
 20
430.0783356254
 10
320.7137003593
 20
430.0937538584
 10
320.8977023808
 20
430.1087574374
 10
321.0861476262
 20
430.1233360798
 10
321.2789069448
 20
430.1374797939
 10
321.4758482288
 20
430.1511788865
 10
321.6768365046
 20
430.1644239688
 10
321.8817340248
 20
430.1772059634
 10
322.0904003629
 20
430.1895161101
 10
322.3026925093
 20
430.2013459722
 10
322.5184649698
 20
430.212687442
 10
322.7375698646
 20
430.2235327466
 10
322.9598570301
 20
430.2338744533
 10
323.1851741219
 20
430.2437054744
 10
323.4133667188
 20
430.2530190721
 10
323.6442784291
 20
430.2618088634
 10
323.8777509973
 20
430.2700688242
 10
324.1136244132
 20
430.2777932935
 10
324.3517370207
 20
430.2849769774
 10
324.5919256294
 20
430.2916149525
 10
324.8340256261
 20
430.2977026696
 10
325.0778710875
 20
430.3032359563
 10
325.3232948941
 20
430.3082110204
 10
325.5701288447
 20
430.3126244524
 10
325.8182037716
 20
430.3164732273
 10
326.0673496567
 20
430.3197547076
 10
326.3173957478
 20
430.3224666441
 10
326.5681706758
 20
430.3246071784
 10
326.8195025721
 20
430.3261748433
 10
327.0712191863
 20
430.3271685645
 10
327.3231480046
 20
430.3275876609
 10
327.5751163674
 20
430.3274318454
 10
327.8269515882
 20
430.3267012246
 10
328.0784810718
 20
430.3253962993
 10
328.3295324324
 20
430.3235179639
 10
328.5799336119
 20
430.3210675056
 10
328.8295129979
 20
430.318046604
 10
329.0780995411
 20
430.3144573293
 10
329.3255228728
 20
430.3103021414
 10
329.5716134213
 20
430.3055838882
 10
329.8162025285
 20
430.3003058033
 10
330.0591225652
 20
430.294471504
 10
330.3002070461
 20
430.2880849889
 10
330.5392907441
 20
430.2811506349
 10
330.776209803
 20
430.2736731946
 10
331.0108018504
 20
430.2656577925
 10
331.2429061086
 20
430.257109922
 10
331.472363505
 20
430.2480354415
 10
331.6990167808
 20
430.2384405701
 10
331.9227105994
 20
430.2283318837
 10
332.143291652
 20
430.2177163102
 10
332.3606087635
 20
430.206601125
 10
332.5745129956
 20
430.194993946
 10
332.784857749
 20
430.1829027281
 10
332.991498864
 20
430.170335758
 10
333.1942947189
 20
430.1573016485
 10
333.3931063277
 20
430.1438093325
 10
333.5877974348
 20
430.1298680571
 10
333.7782346087
 20
430.1154873767
 10
333.9642873332
 20
430.1006771473
 10
334.1458280971
 20
430.0854475191
 10
334.3227324815
 20
430.0698089295
 10
334.4948792448
 20
430.0537720967
 10
334.6621504063
 20
430.0373480114
 10
334.8244313267
 20
430.0205479298
 10
334.9816107868
 20
430.0033833659
 10
335.1335810636
 20
429.9858660834
 10
335.2802380043
 20
429.9680080879
 10
335.4214810975
 20
429.9498216182
 10
335.5572135423
 20
429.9313191385
 10
335.6873423144
 20
429.9125133294
 10
335.8117782301
 20
429.8934170796
 10
335.9304360072
 20
429.8740434766
 10
336.0432343236
 20
429.8544057981
 10
336.150095873
 20
429.8345175028
 10
336.2509474178
 20
429.8143922212
 10
336.3457198394
 20
429.7940437461
 10
336.4343481855
 20
429.7734860233
 10
336.5167717146
 20
429.7527331422
 10
336.5929339379
 20
429.7317993256
 10
336.6627826574
 20
429.7106989205
 10
336.7262700025
 20
429.6894463882
 10
336.783352462
 20
429.6680562941
 10
336.8339909144
 20
429.6465432978
 10
336.8781506548
 20
429.6249221433
 10
336.9158014181
 20
429.6032076486
 10
336.9469174006
 20
429.5814146958
 10
336.9714772768
 20
429.5595582207
 10
336.9894642146
 20
429.5376532026
 10
337.0008658866
 20
429.5157146541
 10
337.0056744788
 20
429.4937576109
 10
337.0038866956
 20
429.4717971211
 10
336.9955037621
 20
429.4498482353
 10
336.9805314238
 20
429.4279259964
 10
336.9589799418
 20
429.4060454286
 10
336.9308640864
 20
429.3842215278
 10
336.896203127
 20
429.362469251
 10
336.8550208182
 20
429.3408035062
 10
336.8073453846
 20
429.319239142
 10
336.7532095004
 20
429.2977909374
 10
336.6926502676
 20
429.2764735921
 10
336.6257091905
 20
429.2553017159
 10
336.5524321472
 20
429.2342898189
 10
336.4728693582
 20
429.2134523016
 10
336.3870753517
 20
429.1928034451
 10
336.2951089267
 20
429.1723574009
 10
336.1970331124
 20
429.1521281819
 10
336.0929151251
 20
429.1321296521
 10
335.982826322
 20
429.1123755175
 10
335.8668421525
 20
429.0928793166
 10
335.7450421064
 20
429.0736544111
 10
335.6175096593
 20
429.0547139769
 10
335.4843322156
 20
429.0360709946
 10
335.3456010484
 20
429.0177382414
 10
335.2014112372
 20
428.9997282816
 10
335.0518616025
 20
428.9820534582
 10
334.8970546381
 20
428.9647258848
 10
334.7370964409
 20
428.9477574367
 10
334.5720966384
 20
428.9311597434
 10
334.4021683131
 20
428.91494418
 10
334.2274279255
 20
428.8991218599
 10
334.0479952339
 20
428.8837036269
 10
333.8639932124
 20
428.8687000478
 10
333.6755479669
 20
428.8541214055
 10
333.4827886484
 20
428.8399776914
 10
333.2858473643
 20
428.8262785988
 10
333.0848590886
 20
428.8130335164
 10
332.8799615684
 20
428.8002515218
 10
332.6712952303
 20
428.7879413751
 10
332.4590030838
 20
428.7761115131
 10
332.2432306234
 20
428.7647700433
 10
332.0241257286
 20
428.7539247386
 10
331.8018385631
 20
428.7435830319
 10
331.5765214713
 20
428.7337520109
 10
331.3483288744
 20
428.7244384132
 10
331.1174171641
 20
428.7156486219
 10
330.8839445958
 20
428.7073886611
 10
330.64807118
 20
428.6996641918
 10
330.4099585725
 20
428.6924805079
 10
330.1697699637
 20
428.6858425327
 10
329.927669967
 20
428.6797548157
 10
329.6838245056
 20
428.674221529
 10
329.438400699
 20
428.6692464648
 10
329.1915667484
 20
428.6648330329
 10
328.9434918215
 20
428.6609842579
 10
328.6943459365
 20
428.6577027777
 10
328.4442998454
 20
428.6549908411
 10
328.1935249174
 20
428.6528503069
 10
327.9421930211
 20
428.6512826419
 10
327.6904764068
 20
428.6502889208
 10
327.4385475886
 20
428.6498698243
 10
327.1865792258
 20
428.6500256399
 10
326.9347440049
 20
428.6507562607
 10
326.6832145214
 20
428.652061186
 10
326.4321631608
 20
428.6539395214
 10
326.1817619813
 20
428.6563899796
 10
325.9321825953
 20
428.6594108813
 10
325.683596052
 20
428.663000156
 10
325.4361727204
 20
428.6671553438
 10
325.1900821719
 20
428.671873597
 10
324.9454930647
 20
428.677151682
 10
324.702573028
 20
428.6829859812
 10
324.461488547
 20
428.6893724964
 10
324.2224048491
 20
428.6963068504
 10
323.9854857902
 20
428.7037842907
 10
323.7508937428
 20
428.7117996928
 10
323.5187894846
 20
428.7203475632
 10
323.2893320882
 20
428.7294220437
 10
323.0626788123
 20
428.7390169151
 10
322.8389849938
 20
428.7491256016
 10
322.6184039411
 20
428.7597411751
 10
322.4010868296
 20
428.7708563602
 10
322.1871825975
 20
428.7824635393
 10
321.9768378441
 20
428.7945547572
 10
321.7701967292
 20
428.8071217273
 10
321.5674008743
 20
428.8201558368
 10
321.3685892655
 20
428.8336481527
 10
321.1738981584
 20
428.8475894282
 10
320.9834609845
 20
428.8619701085
 10
320.79740826
 20
428.8767803379
 10
320.615867496
 20
428.8920099662
 10
320.4389631117
 20
428.9076485557
 10
320.2668163484
 20
428.9236853886
 10
320.0995451869
 20
428.9401094739
 10
319.9372642664
 20
428.9569095555
 10
319.7800848064
 20
428.9740741194
 10
319.6281145296
 20
428.9915914018
 10
319.4814575889
 20
429.0094493974
 10
319.3402144957
 20
429.0276358671
 10
319.2044820509
 20
429.0461383468
 10
319.0743532788
 20
429.0649441558
 10
318.9499173631
 20
429.0840404057
 10
318.831259586
 20
429.1034140087
 10
318.7184612695
 20
429.1230516872
 10
318.6115997202
 20
429.1429399825
 10
318.5107481754
 20
429.1630652641
 10
318.4159757538
 20
429.1834137392
 10
318.3273474077
 20
429.2039714619
 10
318.2449238786
 20
429.2247243431
 10
318.1687616553
 20
429.2456581597
 10
318.0989129357
 20
429.2667585647
 10
318.0354255907
 20
429.288011097
 10
317.9783431312
 20
429.3094011912
 10
317.9277046788
 20
429.3309141875
 10
317.8835449384
 20
429.352535342
 10
317.845894175
 20
429.3742498367
 10
317.8147781926
 20
429.3960427894
 10
317.7902183164
 20
429.4178992646
 10
317.7722313786
 20
429.4398042827
 10
317.7608297066
 20
429.4617428311
 10
317.7560211144
 20
429.4836998744
 10
317.7578088976
 20
429.5056603642
 10
317.766191831
 20
429.5276092499
 10
317.7811641694
 20
429.5495314889
 10
317.8027156514
 20
429.5714120567
 10
317.8308315067
 20
429.5932359575
 10
317.8654924662
 20
429.6149882342
 10
317.9066747749
 20
429.6366539791
 10
317.9543502086
 20
429.6582183433
 10
318.0084860928
 20
429.6796665478
 10
318.0690453256
 20
429.7009838931
 10
318.1359864027
 20
429.7221557694
 10
318.2092634459
 20
429.7431676664
 10
318.288826235
 20
429.7640051836
 10
318.3746202415
 20
429.7846540402
 10
318.4665866665
 20
429.8051000843
 10
318.5646624807
 20
429.8253293034
 10
318.6687804681
 20
429.8453278332
 10
318.7788692711
 20
429.8650819678
 10
318.8948534406
 20
429.8845781687
 10
319.0166534868
 20
429.9038030741
 10
319.1441859339
 20
429.9227435084
 10
319.2773633776
 20
429.9413864906
 10
319.4160945448
 20
429.9597192439
 10
319.560284356
 20
429.9777292037
 10
319.7098339907
 20
429.9954040271
 10
319.8646409551
 20
430.0127316005
  0
ARC
  5
ED
330
1F
100
AcDbEntity
  8
0
  6
Continuous
 62
     8
370
     0
100
AcDbCircle
 10
335.9403861567
 20
430.8379772136
 30
0.0
 40
1.406001909013054
100
AcDbArc
 50
278.0183765646
 51
303.8851422666
  0
ARC
  5
EE
330
1F
100
AcDbEntity
  8
0
  6
Continuous
 62
     8
370
     0
100
AcDbCircle
 10
329.4387897213
 20
481.9779254305
 30
0.0
 40
53.0142389310809
100
AcDbArc
 50
272.2237624525
 51
275.4168804706
  0
ARC
  5
EF
330
1F
100
AcDbEntity
  8
0
  6
Continuous
 62
     8
370
     0
100
AcDbCircle
 10
327.3797250024
 20
533.5573277455
 30
0.0
 40
104.6367586084972
100
AcDbArc
 50
268.4444113572
 51
270.5369545651
  0
ARC
  5
F0
330
1F
100
AcDbEntity
  8
0
  6
Continuous
 62
     8
370
     0
100
AcDbCircle
 10
323.3837472312
 20
458.5431512978
 30
0.0
 40
29.50252712462149
100
AcDbArc
 50
261.8380355251
 51
266.5142594859
  0
ARC
  5
F1
330
1F
100
AcDbEntity
  8
0
  6
Continuous
 62
     8
370
     0
100
AcDbCircle
 10
318.756812183
 20
430.7002975853
 30
0.0
 40
1.255852148198666
100
AcDbArc
 50
235.0316588442
 51
261.5452619063
  0
LWPOLYLINE
  5
F2
330
1F
100
AcDbEntity
  8
0
  6
Continuous
 62
     8
370
     0
100
AcDbPolyline
 90
       15
 70
   128
 43
0.0
 10
365.5296285257
 20
314.3414418409
 10
365.5283635924
 20
315.5729857325
 10
365.5245687979
 20
316.8045244267
 10
365.5182441581
 20
318.0360527264
 10
365.5093896998
 20
319.2675654342
 10
365.4980054603
 20
320.4990573531
 10
365.4840914877
 20
321.7305232859
 10
365.4676478406
 20
322.9619580356
 10
365.4486745886
 20
324.1933564055
 10
365.4271718115
 20
325.4247131988
 10
365.4031396003
 20
326.656023219
 10
365.3765780563
 20
327.8872812698
 10
365.3474872917
 20
329.1184821551
 10
365.3158674291
 20
330.349620679
 10
365.281718602
 20
331.580691646
  0
LWPOLYLINE
  5
F3
330
1F
100
AcDbEntity
  8
0
  6
Continuous
 62
     8
370
     0
100
AcDbPolyline
 90
       15
 70
   128
 43
0.0
 10
365.7858360266
 20
331.5950696692
 10
365.8200133347
 20
330.3629719541
 10
365.8516595692
 20
329.1308066257
 10
365.8807745964
 20
327.898578884
 10
365.9073582935
 20
326.6662939291
 10
365.9314105483
 20
325.4339569614
 10
365.9529312592
 20
324.2015731816
 10
365.9719203355
 20
322.9691477906
 10
365.988377697
 20
321.7366859894
 10
366.0023032743
 20
320.5041929791
 10
366.0136970085
 20
319.271673961
 10
366.0225588517
 20
318.0391341366
 10
366.0288887664
 20
316.8065787075
 10
366.0326867259
 20
315.574012875
 10
366.0339527142
 20
314.3414418409
  0
LINE
  5
F4
330
1F
100
AcDbEntity
  8
0
  6
Continuous
 62
     8
370
     0
100
AcDbLine
 10
365.5296285257
 20
306.3462522586
 30
0.0
 11
365.5296285257
 21
314.3414418409
 31
0.0
  0
LINE
  5
F5
330
1F
100
AcDbEntity
  8
0
  6
Continuous
 62
     8
370
     0
100
AcDbLine
 10
366.0339527142
 20
314.3414418409
 30
0.0
 11
366.0339527142
 21
306.8399820036
 31
0.0
  0
SPLINE
  5
F6
330
1F
100
AcDbEntity
  8
0
  6
Continuous
 62
     8
370
     0
100
AcDbSpline
210
0.0
220
0.0
230
1.0
 70
     8
 71
     3
 72
    44
 73
    40
 74
     0
 42
0.000000001
 43
0.00000001
 40
0.0
 40
0.0
 40
0.0
 40
0.0
 40
0.0269750607759807
 40
0.0538624909464862
 40
0.080556778977104
 40
0.1071622010617829
 40
0.1337859877655453
 40
0.1605388824801675
 40
0.1874641981066441
 40
0.2119928475282198
 40
0.236397872281144
 40
0.2607694509785932
 40
0.2851982442426409
 40
0.3097779453023147
 40
0.3344588221513218
 40
0.3611827301057092
 40
0.3877977151131473
 40
0.4144233970083137
 40
0.441178118944617
 40
0.4681069908395835
 40
0.4948721829972204
 40
0.5215152719240536
 40
0.5508145345694208
 40
0.5802470156612549
 40
0.6098531163729182
 40
0.639264078279066
 40
0.6685548351923886
 40
0.6951945811898933
 40
0.7219500046094102
 40
0.7488678220951558
 40
0.7756339391866066
 40
0.802269731027329
 40
0.8288768152103475
 40
0.8555562107033312
 40
0.8851086369842804
 40
0.9146245839580485
 40
0.9439483359297638
 40
0.9732191236417201
 40
1.0
 40
1.0
 40
1.0
 40
1.0
 10
360.0073817495127
 20
306.5026165925394
 30
0.0
 10
360.034715858816
 20
306.5069593542604
 30
0.0
 10
360.0892952804198
 20
306.5156307698997
 30
0.0
 10
360.1772031585006
 20
306.5283795546077
 30
0.0
 10
360.2688764460744
 20
306.5406405093776
 30
0.0
 10
360.3645194451605
 20
306.5522285441383
 30
0.0
 10
360.4640337421169
 20
306.5629933938313
 30
0.0
 10
360.5674276364017
 20
306.5727718848899
 30
0.0
 10
360.6711336840803
 20
306.5811106176877
 30
0.0
 10
360.7741242183723
 20
306.5879486326316
 30
0.0
 10
360.8755075450268
 20
306.5932986145668
 30
0.0
 10
360.9782423118352
 20
306.5972986987607
 30
0.0
 10
361.0823395321926
 20
306.5998904328078
 30
0.0
 10
361.1876124352616
 20
306.6010124328743
 30
0.0
 10
361.2965109429161
 20
306.6006057546255
 30
0.0
 10
361.408254936117
 20
306.5985081755853
 30
0.0
 10
361.5221843806733
 20
306.5945983836111
 30
0.0
 10
361.6350556686111
 20
306.5889892814021
 30
0.0
 10
361.7467659753598
 20
306.5817397779464
 30
0.0
 10
361.8565734153872
 20
306.5729671348439
 30
0.0
 10
361.9636724441816
 20
306.5628440841699
 30
0.0
 10
362.0708708415209
 20
306.5511983128818
 30
0.0
 10
362.177774851278
 20
306.5380540849383
 30
0.0
 10
362.283808945299
 20
306.5234947335144
 30
0.0
 10
362.384901788779
 20
306.5082279808477
 30
0.0
 10
362.4803347256505
 20
306.4925827349746
 30
0.0
 10
362.566891188848
 20
306.4773509389628
 30
0.0
 10
362.6451946153975
 20
306.4627400863291
 30
0.0
 10
362.7158379317771
 20
306.4488912171009
 30
0.0
 10
362.7809051412455
 20
306.435567793996
 30
0.0
 10
362.8399710343242
 20
306.4230048060043
 30
0.0
 10
362.8927471968591
 20
306.4114045020258
 30
0.0
 10
362.9392461888655
 20
306.4008927967491
 30
0.0
 10
362.9808233442092
 20
306.3912667253929
 30
0.0
 10
363.0164390948165
 20
306.3828448317307
 30
0.0
 10
363.0450208639398
 20
306.3759692053463
 30
0.0
 10
363.0650486574407
 20
306.3710914984454
 30
0.0
 10
363.0771056878564
 20
306.3681300045459
 30
0.0
 10
363.0782294086568
 20
306.3678528325788
 30
0.0
 10
363.0787663102514
 20
306.3677204028231
 30
0.0
  0
SPLINE
  5
F7
330
1F
100
AcDbEntity
  8
0
  6
Continuous
 62
     8
370
     0
100
AcDbSpline
210
0.0
220
0.0
230
1.0
 70
     8
 71
     3
 72
    20
 73
    16
 74
     0
 42
0.000000001
 43
0.00000001
 40
0.0
 40
0.0
 40
0.0
 40
0.0
 40
0.0077910109124206
 40
0.0867184247009685
 40
0.1658333637309415
 40
0.2454463626424739
 40
0.3251489573446293
 40
0.4043346172182863
 40
0.4833095045954452
 40
0.5623744445708873
 40
0.6498087056218272
 40
0.7375954161696933
 40
0.8249718195135338
 40
0.9123040528750291
 40
1.0
 40
1.0
 40
1.0
 40
1.0
 10
359.4794444947936
 20
306.3991329363488
 30
0.0
 10
359.4793319264912
 20
306.3991070884909
 30
0.0
 10
359.4780789766538
 20
306.3988193869919
 30
0.0
 10
359.4826223983597
 20
306.3998639603171
 30
0.0
 10
359.4930779889024
 20
306.4022571976569
 30
0.0
 10
359.5113132475414
 20
306.4063996472324
 30
0.0
 10
359.5362347498732
 20
306.4119926110386
 30
0.0
 10
359.5679199818425
 20
306.4189893885872
 30
0.0
 10
359.6061066275545
 20
306.4272524408489
 30
0.0
 10
359.652303474677
 20
306.4370068021394
 30
0.0
 10
359.7072889969154
 20
306.4482622496103
 30
0.0
 10
359.7715266924342
 20
306.4609197310803
 30
0.0
 10
359.8430717950471
 20
306.4743666249576
 30
0.0
 10
359.9210435207528
 20
306.4883478141127
 30
0.0
 10
359.9785624978778
 20
306.4978537485257
 30
0.0
 10
360.0073817495127
 20
306.5026165925394
 30
0.0
  0
LINE
  5
F8
330
1F
100
AcDbEntity
  8
0
  6
Continuous
 62
     8
370
     0
100
AcDbLine
 10
356.3825931037
 20
317.5440076165
 30
0.0
 11
356.3825931037
 21
321.6925952117
 31
0.0
  0
SPLINE
  5
F9
330
1F
100
AcDbEntity
  8
0
  6
Continuous
 62
     8
370
     0
100
AcDbSpline
210
0.0
220
0.0
230
1.0
 70
     8
 71
     3
 72
    23
 73
    19
 74
     0
 42
0.000000001
 43
0.00000001
 40
0.0
 40
0.0
 40
0.0
 40
0.0
 40
0.0701897761356269
 40
0.1403481600595842
 40
0.2103518972281484
 40
0.2802509051933046
 40
0.3500998520692008
 40
0.4199577031618605
 40
0.4898901436032182
 40
0.5599726195356608
 40
0.6217818017853826
 40
0.6834365935151412
 40
0.744938459052684
 40
0.8063562900545489
 40
0.8546112568275137
 40
0.9029211586702482
 40
0.9513542258445878
 40
0.9999999999999999
 40
0.9999999999999999
 40
0.9999999999999999
 40
0.9999999999999999
 10
357.0764845288319
 20
314.3414418409296
 30
0.0
 10
357.0536868227825
 20
314.4172037983938
 30
0.0
 10
357.0081016069039
 20
314.5686938289655
 30
0.0
 10
356.9403091242647
 20
314.7956956988042
 30
0.0
 10
356.8735901360698
 20
315.0222854418073
 30
0.0
 10
356.8084349143463
 20
315.2483907128175
 30
0.0
 10
356.7452963465188
 20
315.4741309815773
 30
0.0
 10
356.6846579410328
 20
315.6996331328497
 30
0.0
 10
356.6270711785612
 20
315.9250370216568
 30
0.0
 10
356.5753203144835
 20
316.1413718584584
 30
0.0
 10
356.5296262974813
 20
316.3483485266265
 30
0.0
 10
356.490041891811
 20
316.5456215422697
 30
0.0
 10
356.4552929097227
 20
316.7418375239819
 30
0.0
 10
356.4281519934366
 20
316.9230759241863
 30
0.0
 10
356.4079379006333
 20
317.0895975035739
 30
0.0
 10
356.3939512958889
 20
317.2416823787621
 30
0.0
 10
356.3845054732316
 20
317.3933919922874
 30
0.0
 10
356.3832314906614
 20
317.4937291263535
 30
0.0
 10
356.3825931036808
 20
317.5440076164582
 30
0.0
  0
SPLINE
  5
FA
330
1F
100
AcDbEntity
  8
0
  6
Continuous
 62
     8
370
     0
100
AcDbSpline
210
0.0
220
0.0
230
1.0
 70
     8
 71
     3
 72
    10
 73
     6
 74
     0
 42
0.000000001
 43
0.00000001
 40
0.0
 40
0.0
 40
0.0
 40
0.0
 40
0.3744633121442142
 40
0.7479995894999703
 40
1.0
 40
1.0
 40
1.0
 40
1.0
 10
356.4615922867089
 20
321.8950893654716
 30
0.0
 10
356.474511769198
 20
321.9173724866203
 30
0.0
 10
356.5003187502425
 20
321.9618835640249
 30
0.0
 10
356.5409362776554
 20
322.0147244912736
 30
0.0
 10
356.569386492926
 20
322.0433838469015
 30
0.0
 10
356.5808477965813
 20
322.0549294037378
 30
0.0
  0
SPLINE
  5
FB
330
1F
100
AcDbEntity
  8
0
  6
Continuous
 62
     8
370
     0
100
AcDbSpline
210
0.0
220
0.0
230
1.0
 70
     8
 71
     3
 72
    13
 73
     9
 74
     0
 42
0.000000001
 43
0.00000001
 40
0.0
 40
0.0
 40
0.0
 40
0.0
 40
0.1405693992903638
 40
0.2805511256046044
 40
0.4203476909766721
 40
0.560169744181212
 40
0.7800603678483778
 40
1.0
 40
1.0
 40
1.0
 40
1.0
 10
356.3825931036808
 20
321.6925952116775
 30
0.0
 10
356.38310716248
 20
321.7030864539706
 30
0.0
 10
356.3841331309728
 20
321.7240250782313
 30
0.0
 10
356.3915534485488
 20
321.7542597263136
 30
0.0
 10
356.4021006985451
 20
321.7835480262214
 30
0.0
 10
356.4177763736936
 20
321.8172487295756
 30
0.0
 10
356.4390263601433
 20
321.8548568780233
 30
0.0
 10
356.4540697524458
 20
321.88167754015
 30
0.0
 10
356.4615922867089
 20
321.8950893654716
 30
0.0
  0
LINE
  5
FC
330
1F
100
AcDbEntity
  8
0
  6
Continuous
 62
     8
370
     0
100
AcDbLine
 10
357.0764845288
 20
331.5227062562
 30
0.0
 11
357.0764845288
 21
314.3414418409
 31
0.0
  0
LINE
  5
FD
330
1F
100
AcDbEntity
  8
0
  6
Continuous
 62
     8
370
     0
100
AcDbLine
 10
365.281718602
 20
331.580691646
 30
0.0
 11
357.0764845288
 21
331.5227062562
 31
0.0
  0
LINE
  5
FE
330
1F
100
AcDbEntity
  8
0
  6
Continuous
 62
     8
370
     0
100
AcDbLine
 10
357.0764845288
 20
332.0117614342
 30
0.0
 11
365.281718602
 21
332.069746824
 31
0.0
  0
SPLINE
  5
FF
330
1F
100
AcDbEntity
  8
0
  6
Continuous
 62
     8
370
     0
100
AcDbSpline
210
0.0
220
0.0
230
1.0
 70
     8
 71
     3
 72
    20
 73
    16
 74
     0
 42
0.000000001
 43
0.00000001
 40
0.0
 40
0.0
 40
0.0
 40
0.0
 40
0.0628610183071534
 40
0.1255554356745497
 40
0.1881775109353471
 40
0.2507942790418319
 40
0.3134555668845421
 40
0.3956426998644771
 40
0.4778864392601982
 40
0.5600041070839057
 40
0.6479174030690332
 40
0.735827178050401
 40
0.823794736417472
 40
0.9118755820529505
 40
1.0
 40
1.0
 40
1.0
 40
1.0
 10
356.5808477965812
 20
317.6249247690598
 30
0.0
 10
356.5816314675398
 20
317.5573369016697
 30
0.0
 10
356.5831967324891
 20
317.4223402954261
 30
0.0
 10
356.5944403257209
 20
317.2186775408202
 30
0.0
 10
356.6107118291537
 20
317.0146136531183
 30
0.0
 10
356.6319037322781
 20
316.8099609352839
 30
0.0
 10
356.6597349472765
 20
316.5834750318316
 30
0.0
 10
356.6950875116207
 20
316.3350086748914
 30
0.0
 10
356.738332296837
 20
316.0647413164232
 30
0.0
 10
356.7866343239634
 20
315.7877880515299
 30
0.0
 10
356.8394603936064
 20
315.5042808636695
 30
0.0
 10
356.8962724216921
 20
315.2140836794729
 30
0.0
 10
356.9551625784615
 20
314.9235170566148
 30
0.0
 10
357.0154493549137
 20
314.632595411823
 30
0.0
 10
357.0561361171639
 20
314.4385090292216
 30
0.0
 10
357.0764845288319
 20
314.3414418409296
 30
0.0
  0
LWPOLYLINE
  5
100
330
1F
100
AcDbEntity
  8
0
  6
Continuous
 62
     8
370
     0
100
AcDbPolyline
 90
       15
 70
   128
 43
0.0
 10
356.3825931037
 20
317.5440076165
 10
356.4048504115
 20
317.5445894015
 10
356.4268092135
 20
317.5461702681
 10
356.4481964217
 20
317.5487305559
 10
356.4687460565
 20
317.5522384242
 10
356.4882025548
 20
317.5566502479
 10
356.5063239481
 20
317.5619111597
 10
356.5228848717
 20
317.567955733
 10
356.5376793677
 20
317.5747087951
 10
356.550523446
 20
317.5820863623
 10
356.5612573727
 20
317.5899966845
 10
356.5697476566
 20
317.5983413857
 10
356.5758887092
 20
317.6070166881
 10
356.5796041582
 20
317.6159147022
 10
356.5808477966
 20
317.6249247691
  0
ARC
  5
101
330
1F
100
AcDbEntity
  8
0
  6
Continuous
 62
     8
370
     0
100
AcDbCircle
 10
339.8425073828
 20
332.3746601128
 30
0.0
 40
25.95503924826471
100
AcDbArc
 50
358.2787943133
 51
359.7287791917
  0
ARC
  5
102
330
1F
100
AcDbEntity
  8
0
  6
Continuous
 62
     8
370
     0
100
AcDbCircle
 10
339.3600093993
 20
332.8486876088
 30
0.0
 40
25.9334100482828
100
AcDbArc
 50
358.2787943133
 51
359.7287791918
  0
ARC
  5
103
330
1F
100
AcDbEntity
  8
0
  6
Continuous
 62
     8
370
     0
100
AcDbCircle
 10
365.3024500571
 20
332.2307622161
 30
0.0
 40
0.4952526937719099
100
AcDbArc
 50
2.434281335
 51
91.0784292003
  0
LINE
  5
104
330
1F
100
AcDbEntity
  8
0
  6
Continuous
 62
     8
370
     0
100
AcDbLine
 10
357.0764845288
 20
332.6411785381
 30
0.0
 11
357.0764845288
 21
332.0117614342
 31
0.0
  0
SPLINE
  5
105
330
1F
100
AcDbEntity
  8
0
  6
Continuous
 62
     8
370
     0
100
AcDbSpline
210
0.0
220
0.0
230
1.0
 70
     8
 71
     3
 72
     9
 73
     5
 74
     0
 42
0.000000001
 43
0.00000001
 40
0.0
 40
0.0
 40
0.0
 40
0.0
 40
0.5599999969701227
 40
1.0
 40
1.0
 40
1.0
 40
1.0
 10
365.2931288917949
 20
332.7259271851688
 30
0.0
 10
363.7593414709543
 20
332.7104398157954
 30
0.0
 10
361.0204353474915
 20
332.6827837989078
 30
0.0
 10
358.2815806180742
 20
332.6538912567739
 30
0.0
 10
357.0764845288322
 20
332.6411785381474
 30
0.0
  0
ARC
  5
106
330
1F
100
AcDbEntity
  8
0
  6
Continuous
 62
     8
370
     0
100
AcDbCircle
 10
357.0753342507
 20
332.1466632778
 30
0.0
 40
0.4945165981463328
100
AcDbArc
 50
89.8667261324
 51
179.3673700032
  0
ARC
  5
107
330
1F
100
AcDbEntity
  8
0
  6
Continuous
 62
     8
370
     0
100
AcDbCircle
 10
356.3878614273
 20
321.8856483438
 30
0.0
 40
0.1931250037267599
100
AcDbArc
 50
268.4368147307
 51
357.8288991837
  0
ARC
  5
108
330
1F
100
AcDbEntity
  8
0
  6
Continuous
 62
     8
370
     0
100
AcDbCircle
 10
357.0219196999
 20
332.6419505245
 30
0.0
 40
0.0545702896765776
100
AcDbArc
 50
359.1894301132
 51
10.7136432075
  0
ARC
  5
109
330
1F
100
AcDbEntity
  8
0
  6
Continuous
 62
     8
370
     0
100
AcDbCircle
 10
365.2071919738
 20
332.726328726
 30
0.0
 40
0.0859378561007961
100
AcDbArc
 50
359.7322870225
 51
7.030232397
  0
ARC
  5
10A
330
1F
100
AcDbEntity
  8
0
  6
Continuous
 62
     8
370
     0
100
AcDbCircle
 10
356.4702351067
 20
322.0893117138
 30
0.0
 40
0.1944145542624352
100
AcDbArc
 50
267.4520407372
 51
304.6772281272
  0
LINE
  5
10B
330
1F
100
AcDbEntity
  8
0
  6
Continuous
 62
     8
370
     0
100
AcDbLine
 10
346.8009701533
 20
434.5512829308
 30
0.0
 11
307.9607254399
 21
434.5512829308
 31
0.0
  0
LINE
  5
10C
330
1F
100
AcDbEntity
  8
0
  6
Continuous
 62
     8
370
     0
100
AcDbLine
 10
307.9607254399
 20
435.7382866242
 30
0.0
 11
346.8009701533
 21
435.7382866242
 31
0.0
  0
LINE
  5
10D
330
1F
100
AcDbEntity
  8
0
  6
Continuous
 62
     8
370
     0
100
AcDbLine
 10
346.8009701533
 20
435.7382866242
 30
0.0
 11
346.737919605
 21
449.2908214954
 31
0.0
  0
LINE
  5
10E
330
1F
100
AcDbEntity
  8
0
  6
Continuous
 62
     8
370
     0
100
AcDbLine
 10
308.0237759882
 20
449.2908214954
 30
0.0
 11
307.9607254399
 21
435.7382866242
 31
0.0
  0
LINE
  5
10F
330
1F
100
AcDbEntity
  8
0
  6
Continuous
 62
     8
370
     0
100
AcDbLine
 10
346.737919605
 20
449.2908214954
 30
0.0
 11
308.0237759882
 21
449.2908214954
 31
0.0
  0
LINE
  5
110
330
1F
100
AcDbEntity
  8
0
  6
Continuous
 62
     8
370
     0
100
AcDbLine
 10
306.961228917
 20
435.557949413
 30
0.0
 11
307.0242794652
 21
449.1104842841
 31
0.0
  0
LINE
  5
111
330
1F
100
AcDbEntity
  8
0
  6
Continuous
 62
     8
370
     0
100
AcDbLine
 10
347.7374161279
 20
449.1104842841
 30
0.0
 11
347.8004666762
 21
435.557949413
 31
0.0
  0
LINE
  5
112
330
1F
100
AcDbEntity
  8
0
  6
Continuous
 62
     8
370
     0
100
AcDbLine
 10
307.9607254399
 20
434.5512829308
 30
0.0
 11
304.3439208027
 21
424.3050055584
 31
0.0
  0
LINE
  5
113
330
1F
100
AcDbEntity
  8
0
  6
Continuous
 62
     8
370
     0
100
AcDbLine
 10
303.3444242797
 20
425.3116720406
 30
0.0
 11
306.961228917
 21
435.557949413
 31
0.0
  0
LINE
  5
114
330
1F
100
AcDbEntity
  8
0
  6
Continuous
 62
     8
370
     0
100
AcDbLine
 10
347.8004666762
 20
435.557949413
 30
0.0
 11
351.4172713134
 21
425.3116720406
 31
0.0
  0
LINE
  5
115
330
1F
100
AcDbEntity
  8
0
  6
Continuous
 62
     8
370
     0
100
AcDbLine
 10
350.4177747905
 20
424.3050055584
 30
0.0
 11
346.8009701533
 21
434.5512829308
 31
0.0
  0
LINE
  5
116
330
1F
100
AcDbEntity
  8
0
  6
Continuous
 62
     8
370
     0
100
AcDbLine
 10
304.3439208027
 20
424.3050055584
 30
0.0
 11
350.4177747905
 21
424.3050055584
 31
0.0
  0
LINE
  5
117
330
1F
100
AcDbEntity
  8
0
  6
Continuous
 62
     8
370
     0
100
AcDbLine
 10
307.0242794652
 20
449.1104842841
 30
0.0
 11
302.2437489837
 21
449.1104842841
 31
0.0
  0
ELLIPSE
  5
118
330
1F
100
AcDbEntity
  8
0
  6
Continuous
 62
     8
370
     0
100
AcDbEllipse
 10
303.3209477701
 20
422.3230879464
 30
0.0
 11
0.03145942144499259
 21
2.999999851916983
 31
0.0
210
0.0
220
0.0
230
1.0
 40
0.0299624615
 41
0.087580663172011
 42
1.492570711028613
  0
LINE
  5
119
330
1F
100
AcDbEntity
  8
0
  6
Continuous
 62
     8
370
     0
100
AcDbLine
 10
301.6080798887
 20
295.9000125
 30
0.0
 11
303.2337936948
 21
422.5584652335
 31
0.0
  0
LINE
  5
11A
330
1F
100
AcDbEntity
  8
0
  6
Continuous
 62
     8
370
     0
100
AcDbLine
 10
302.2437489837
 20
449.1104842841
 30
0.0
 11
299.9196118793
 21
295.9000125
 31
0.0
  0
ELLIPSE
  5
11B
330
1F
100
AcDbEntity
  8
0
  6
Continuous
 62
     8
370
     0
100
AcDbEllipse
 10
351.440747823
 20
422.3230879464
 30
0.0
 11
-0.03145942144493574
 21
2.999999851916925
 31
0.0
210
0.0
220
0.0
230
1.0
 40
0.0299624615
 41
4.790614596150983
 42
6.195604644007345
  0
LINE
  5
11C
330
1F
100
AcDbEntity
  8
0
  6
Continuous
 62
     8
370
     0
100
AcDbLine
 10
352.5179466094
 20
449.1104842841
 30
0.0
 11
347.7374161279
 21
449.1104842841
 31
0.0
  0
LINE
  5
11D
330
1F
100
AcDbEntity
  8
0
  6
Continuous
 62
     8
370
     0
100
AcDbLine
 10
354.8420837138
 20
295.9000125
 30
0.0
 11
354.6821827242
 21
306.440916484
 31
0.0
  0
LINE
  5
11E
330
1F
100
AcDbEntity
  8
0
  6
Continuous
 62
     8
370
     0
100
AcDbLine
 10
354.4425192934
 20
322.2398756868
 30
0.0
 11
352.5179466094
 21
449.1104842841
 31
0.0
  0
LINE
  5
11F
330
1F
100
AcDbEntity
  8
0
  6
Continuous
 62
     8
370
     0
100
AcDbLine
 10
351.5279018983
 20
422.5584652335
 30
0.0
 11
353.1536157045
 21
295.9000125
 31
0.0
  0
ARC
  5
120
330
1F
100
AcDbEntity
  8
0
  6
Continuous
 62
     8
370
     0
100
AcDbCircle
 10
303.2434742713
 20
449.1002346986
 30
0.0
 40
0.9997778275923389
100
AcDbArc
 50
90.0131101601
 51
179.4126012159
  0
ARC
  5
121
330
1F
100
AcDbEntity
  8
0
  6
Continuous
 62
     8
370
     0
100
AcDbCircle
 10
351.5182363606
 20
449.1002498888
 30
0.0
 40
0.9997626340298189
100
AcDbArc
 50
0.5865371226
 51
89.9877515015
  0
ELLIPSE
  5
122
330
1F
100
AcDbEntity
  8
0
  6
Continuous
 62
     8
370
     0
100
AcDbEllipse
 10
304.320444293
 20
422.3126161622
 30
0.0
 11
0.03149478502609782
 21
1.999999499233411
 31
0.0
210
0.0
220
0.0
230
1.0
 40
0.044937509
 41
0.0879741112511724
 42
1.492964159106989
  0
ELLIPSE
  5
123
330
1F
100
AcDbEntity
  8
0
  6
Continuous
 62
     8
370
     0
100
AcDbEllipse
 10
350.4412513001
 20
422.3126161622
 30
0.0
 11
-0.03149478502604098
 21
1.999999499233411
 31
0.0
210
0.0
220
0.0
230
1.0
 40
0.044937509
 41
4.790221148072458
 42
6.195211195928605
  0
LINE
  5
124
330
1F
100
AcDbEntity
  8
0
  6
Continuous
 62
     8
370
     0
100
AcDbLine
 10
350.5284053754
 20
422.4695343537
 30
0.0
 11
304.2332902178
 21
422.4695343537
 31
0.0
  0
LINE
  5
125
330
1F
100
AcDbEntity
  8
0
  6
Continuous
 62
     8
370
     0
100
AcDbLine
 10
304.2332902178
 20
422.4695343537
 30
0.0
 11
302.6087178764
 21
295.9000125
 31
0.0
  0
LINE
  5
126
330
1F
100
AcDbEntity
  8
0
  6
Continuous
 62
     8
370
     0
100
AcDbLine
 10
352.1529777168
 20
295.9000125
 30
0.0
 11
350.5284053754
 21
422.4695343537
 31
0.0
  0
LINE
  5
127
330
1F
100
AcDbEntity
  8
0
  6
Continuous
 62
     8
370
     0
100
AcDbLine
 10
302.2433605447
 20
449.1151803258
 30
0.0
 11
302.2437489837
 21
449.1104842841
 31
0.0
  0
LINE
  5
128
330
1F
100
AcDbEntity
  8
0
  6
Continuous
 62
     8
370
     0
100
AcDbLine
 10
352.5179466094
 20
449.1104842841
 30
0.0
 11
352.5183350484
 21
449.1151803258
 31
0.0
  0
ARC
  5
129
330
1F
100
AcDbEntity
  8
0
  6
Continuous
 62
     8
370
     0
100
AcDbCircle
 10
320.2176521162
 20
431.7130131945
 30
0.0
 40
2.251101188786175
100
AcDbArc
 50
242.6854507222
 51
264.214294255
  0
ARC
  5
12A
330
1F
100
AcDbEntity
  8
0
  6
Continuous
 62
     8
370
     0
100
AcDbCircle
 10
332.8517605882
 20
439.8348373478
 30
0.0
 40
10.53609910328301
100
AcDbArc
 50
275.2779686562
 51
282.8463185411
  0
ARC
  5
12B
330
1F
100
AcDbEntity
  8
0
  6
Continuous
 62
     8
370
     0
100
AcDbCircle
 10
327.5482444757
 20
511.9808048601
 30
0.0
 40
82.90613589666265
100
AcDbArc
 50
270.5142596975
 51
272.4142849067
  0
ARC
  5
12C
330
1F
100
AcDbEntity
  8
0
  6
Continuous
 62
     8
370
     0
100
AcDbCircle
 10
326.505587501
 20
492.5640362631
 30
0.0
 40
63.47714661487802
100
AcDbArc
 50
266.1376771612
 51
268.4089450007
  0
ARC
  5
12D
330
1F
100
AcDbEntity
  8
0
  6
Continuous
 62
     8
370
     0
100
AcDbCircle
 10
327.3808351614
 20
489.4640944351
 30
0.0
 40
59.60389760335437
100
AcDbArc
 50
264.336277631
 51
275.6638202958
  0
ARC
  5
12E
330
1F
100
AcDbEntity
  8
0
  6
Continuous
 62
     8
370
     0
100
AcDbCircle
 10
320.8514542133
 20
424.4298219709
 30
0.0
 40
5.665952770994113
100
AcDbArc
 50
99.8477448519
 51
104.0841402914
  0
ARC
  5
12F
330
1F
100
AcDbEntity
  8
0
  6
Continuous
 62
     8
370
     0
100
AcDbCircle
 10
334.64338225
 20
427.7778826176
 30
0.0
 40
2.246833420757747
100
AcDbArc
 50
62.6289785145
 51
83.9750595734
  0
ARC
  5
130
330
1F
100
AcDbEntity
  8
0
  6
Continuous
 62
     8
370
     0
100
AcDbCircle
 10
320.1308255019
 20
431.6367143178
 30
0.0
 40
2.278387263803703
100
AcDbArc
 50
242.6854507222
 51
264.214294255
  0
ARC
  5
131
330
1F
100
AcDbEntity
  8
0
  6
Continuous
 62
     8
370
     0
100
AcDbCircle
 10
319.4003046504
 20
431.8598571948
 30
0.0
 40
2.53620815930704
100
AcDbArc
 50
242.7966233417
 51
264.1031216355
  0
ARC
  5
132
330
1F
100
AcDbEntity
  8
0
  6
Continuous
 62
     8
370
     0
100
AcDbCircle
 10
332.9180746826
 20
439.8569848245
 30
0.0
 40
10.66380939543463
100
AcDbArc
 50
275.2779686562
 51
282.8463185411
  0
ARC
  5
133
330
1F
100
AcDbEntity
  8
0
  6
Continuous
 62
     8
370
     0
100
AcDbCircle
 10
333.4905210746
 20
440.8366383017
 30
0.0
 40
11.69374656261656
100
AcDbArc
 50
275.2599496249
 51
282.8643375724
  0
ARC
  5
134
330
1F
100
AcDbEntity
  8
0
  6
Continuous
 62
     8
370
     0
100
AcDbCircle
 10
326.4949782853
 20
493.2253255448
 30
0.0
 40
64.24656657382201
100
AcDbArc
 50
266.1376771612
 51
268.4089450007
  0
ARC
  5
135
330
1F
100
AcDbEntity
  8
0
  6
Continuous
 62
     8
370
     0
100
AcDbCircle
 10
326.4095958588
 20
499.7934112947
 30
0.0
 40
70.88743065828938
100
AcDbArc
 50
266.1392921236
 51
268.4073300383
  0
ARC
  5
136
330
1F
100
AcDbEntity
  8
0
  6
Continuous
 62
     8
370
     0
100
AcDbCircle
 10
327.5502735263
 20
512.8774489124
 30
0.0
 40
83.9110587556599
100
AcDbArc
 50
270.5142596975
 51
272.4142849067
  0
ARC
  5
137
330
1F
100
AcDbEntity
  8
0
  6
Continuous
 62
     8
370
     0
100
AcDbCircle
 10
327.5697217095
 20
521.2592356832
 30
0.0
 40
92.36677231886145
100
AcDbArc
 50
270.5133737426
 51
272.4151708617
  0
LINE
  5
138
330
1F
100
AcDbEntity
  8
0
  6
Continuous
 62
     7
370
    30
100
AcDbLine
 10
634.948149662
 20
430.6031029811
 30
0.0
 11
634.6213153872
 21
434.3388358367
 31
0.0
  0
LINE
  5
139
330
1F
100
AcDbEntity
  8
0
  6
Continuous
 62
     7
370
    30
100
AcDbLine
 10
613.7012267272
 20
432.508565239
 30
0.0
 11
614.0280610021
 21
428.7728323834
 31
0.0
  0
ARC
  5
13A
330
1F
100
AcDbEntity
  8
0
  6
Continuous
 62
     7
370
    30
100
AcDbCircle
 10
614.2272999417
 20
428.790263532
 30
0.0
 40
0.1999999999999897
100
AcDbArc
 50
185.0
 51
275.0
  0
ARC
  5
13B
330
1F
100
AcDbEntity
  8
0
  6
Continuous
 62
     7
370
    30
100
AcDbCircle
 10
634.7489107224
 20
430.5856718326
 30
0.0
 40
0.1999999999999897
100
AcDbArc
 50
275.0
 51
5.0
  0
ARC
  5
13C
330
1F
100
AcDbEntity
  8
0
  6
Continuous
 62
     7
370
    30
100
AcDbCircle
 10
506.0288895876
 20
316.0197887308
 30
0.0
 40
5.000000000000064
100
AcDbArc
 50
313.1716635935
 51
37.8283364065
  0
ARC
  5
13D
330
1F
100
AcDbEntity
  8
0
  6
Continuous
 62
     7
370
    30
100
AcDbCircle
 10
507.4411533107
 20
333.964300738
 30
0.0
 40
4.99999999999999
100
AcDbArc
 50
313.1716635935
 51
37.8283364065
  0
LINE
  5
13E
330
1F
100
AcDbEntity
  8
0
  6
Continuous
 62
     7
370
    30
100
AcDbLine
 10
630.9149512441
 20
430.0494798743
 30
0.0
 11
634.7663418709
 21
430.3864328929
 31
0.0
  0
LINE
  5
13F
330
1F
100
AcDbEntity
  8
0
  6
Continuous
 62
     7
370
    30
100
AcDbLine
 10
614.2447310902
 20
428.5910245923
 30
0.0
 11
630.9149512441
 21
430.0494798743
 31
0.0
  0
LINE
  5
140
330
1F
100
AcDbEntity
  8
0
  6
Continuous
 62
     7
370
    30
100
AcDbLine
 10
449.7922969829
 20
295.9000125
 30
0.0
 11
473.8070037607
 21
449.2547228863
 31
0.0
  0
LINE
  5
141
330
1F
100
AcDbEntity
  8
0
  6
Continuous
 62
     7
370
    30
100
AcDbLine
 10
450.8327946773
 20
295.9000125
 30
0.0
 11
449.7922969829
 21
295.9000125
 31
0.0
  0
LINE
  5
142
330
1F
100
AcDbEntity
  8
0
  6
Continuous
 62
     7
370
    30
100
AcDbLine
 10
450.8327946773
 20
295.9000125
 30
0.0
 11
507.1793842464
 21
295.9000125
 31
0.0
  0
LINE
  5
143
330
1F
100
AcDbEntity
  8
0
  6
Continuous
 62
     7
370
    30
100
AcDbLine
 10
518.1145873277
 20
422.4695343537
 30
0.0
 11
508.1533499258
 21
295.9000125
 31
0.0
  0
LINE
  5
144
330
1F
100
AcDbEntity
  8
0
  6
Continuous
 62
     7
370
    30
100
AcDbLine
 10
508.1533499258
 20
295.9000125
 30
0.0
 11
507.1793842464
 21
295.9000125
 31
0.0
  0
ARC
  5
145
330
1F
100
AcDbEntity
  8
0
  6
Continuous
 62
     7
370
    30
100
AcDbCircle
 10
474.7949636265
 20
449.1000125
 30
0.0
 40
1.000000000000109
100
AcDbArc
 50
90.0
 51
171.1
  0
LINE
  5
146
330
1F
100
AcDbEntity
  8
0
  6
Continuous
 62
     7
370
    30
100
AcDbLine
 10
474.7949636265
 20
450.1000125
 30
0.0
 11
634.3280951233
 21
450.1000125
 31
0.0
  0
ARC
  5
147
330
1F
100
AcDbEntity
  8
0
  6
Continuous
 62
     7
370
    30
100
AcDbCircle
 10
520.1084219951
 20
422.3126161622
 30
0.0
 40
2.00000000000054
100
AcDbArc
 50
95.0
 51
175.5
  0
LINE
  5
148
330
1F
100
AcDbEntity
  8
0
  6
Continuous
 62
     7
370
    30
100
AcDbLine
 10
637.0495967839
 20
434.5512829308
 30
0.0
 11
519.9341105096
 21
424.3050055584
 31
0.0
  0
ARC
  5
149
330
1F
100
AcDbEntity
  8
0
  6
Continuous
 62
     7
370
    30
100
AcDbCircle
 10
636.9624410411
 20
435.5474776288
 30
0.0
 40
1.000000000000453
100
AcDbArc
 50
275.0
 51
11.0
  0
LINE
  5
14A
330
1F
100
AcDbEntity
  8
0
  6
Continuous
 62
     7
370
    30
100
AcDbLine
 10
635.3097223067
 20
449.2908214954
 30
0.0
 11
637.9440682246
 21
435.7382866242
 31
0.0
  0
ARC
  5
14B
330
1F
100
AcDbEntity
  8
0
  6
Continuous
 62
     7
370
    30
100
AcDbCircle
 10
634.3280951233
 20
449.1000125
 30
0.0
 40
1.0
100
AcDbArc
 50
11.0
 51
90.0
  0
LINE
  5
14C
330
1F
100
AcDbEntity
  8
0
  6
Continuous
 62
     8
370
     0
100
AcDbLine
 10
631.0219747511
 20
430.2596071854
 30
0.0
 11
634.948149662
 21
430.6031029811
 31
0.0
  0
LINE
  5
14D
330
1F
100
AcDbEntity
  8
0
  6
Continuous
 62
     8
370
     0
100
AcDbLine
 10
614.0280610021
 20
428.7728323834
 30
0.0
 11
631.0219747511
 21
430.2596071854
 31
0.0
  0
ARC
  5
14E
330
1F
100
AcDbEntity
  8
0
  6
Continuous
 62
     8
370
     0
100
AcDbCircle
 10
471.8865523493
 20
432.0379654205
 30
0.0
 40
17.32353518366012
100
AcDbArc
 50
80.2344624579
 51
83.6352256405
  0
LINE
  5
14F
330
1F
100
AcDbEntity
  8
0
  6
Continuous
 62
     8
370
     0
100
AcDbLine
 10
474.8249142928
 20
449.1104842841
 30
0.0
 11
450.8327946773
 21
295.9000125
 31
0.0
  0
LINE
  5
150
330
1F
100
AcDbEntity
  8
0
  6
Continuous
 62
     8
370
     0
100
AcDbLine
 10
634.3580457896
 20
449.1104842841
 30
0.0
 11
474.8249142928
 21
449.1104842841
 31
0.0
  0
LINE
  5
151
330
1F
100
AcDbEntity
  8
0
  6
Continuous
 62
     8
370
     0
100
AcDbLine
 10
636.9923917075
 20
435.557949413
 30
0.0
 11
634.3580457896
 21
449.1104842841
 31
0.0
  0
LINE
  5
152
330
1F
100
AcDbEntity
  8
0
  6
Continuous
 62
     8
370
     0
100
AcDbLine
 10
519.8769054332
 20
425.3116720406
 30
0.0
 11
636.9923917075
 21
435.557949413
 31
0.0
  0
ARC
  5
153
330
1F
100
AcDbEntity
  8
0
  6
Continuous
 62
     8
370
     0
100
AcDbCircle
 10
520.1383726615
 20
422.3230879464
 30
0.0
 40
2.999999999999903
100
AcDbArc
 50
95.0
 51
175.5
  0
LINE
  5
154
330
1F
100
AcDbEntity
  8
0
  6
Continuous
 62
     8
370
     0
100
AcDbLine
 10
507.1793842464
 20
295.9000125
 30
0.0
 11
517.1476206603
 21
422.5584652335
 31
0.0
  0
ARC
  5
155
330
1F
100
AcDbEntity
  8
0
  6
Continuous
 62
     8
370
     0
100
AcDbCircle
 10
515.8518296206
 20
403.1675251588
 30
0.0
 40
19.43418718140778
100
AcDbArc
 50
83.3137831039
 51
86.1769186644
  0
ARC
  5
156
330
1F
100
AcDbEntity
  8
0
  6
Continuous
 62
     8
370
     0
100
AcDbCircle
 10
466.2931171978
 20
449.3474644473
 30
0.0
 40
8.535087654361844
100
AcDbArc
 50
358.4089550203
 51
5.0584004244
  0
ARC
  5
157
330
1F
100
AcDbEntity
  8
0
  6
Continuous
 62
     8
370
     0
100
AcDbCircle
 10
625.8262486949
 20
449.3474644473
 30
0.0
 40
8.535087654113642
100
AcDbArc
 50
358.4089550202
 51
5.0584004245
  0
ARC
  5
158
330
1F
100
AcDbEntity
  8
0
  6
Continuous
 62
     8
370
     0
100
AcDbCircle
 10
511.6919226801
 20
424.3415915875
 30
0.0
 40
8.242269029521047
100
AcDbArc
 50
359.7456729537
 51
6.7591392733
  0
ARC
  5
159
330
1F
100
AcDbEntity
  8
0
  6
Continuous
 62
     8
370
     0
100
AcDbCircle
 10
628.8074089542
 20
434.5878689598
 30
0.0
 40
8.242269029647481
100
AcDbArc
 50
359.7456729538
 51
6.7591392733
  0
ARC
  5
15A
330
1F
100
AcDbEntity
  8
0
  6
Continuous
 62
     8
370
     0
100
AcDbCircle
 10
647.5672376944
 20
382.3535792276
 30
0.0
 40
54.2451138303211
100
AcDbArc
 50
100.2184462352
 51
101.2415454172
  0
ARC
  5
15B
330
1F
100
AcDbEntity
  8
0
  6
Continuous
 62
     8
370
     0
100
AcDbCircle
 10
644.9328917772
 20
395.9061140952
 30
0.0
 40
54.24511383393158
100
AcDbArc
 50
100.2184462352
 51
101.2415454171
  0
LINE
  5
15C
330
1F
100
AcDbEntity
  8
0
  6
Continuous
 62
     7
370
    30
100
AcDbLine
 10
51.9719389979
 20
428.7728323834
 30
0.0
 11
52.2987732728
 21
432.508565239
 31
0.0
  0
LINE
  5
15D
330
1F
100
AcDbEntity
  8
0
  6
Continuous
 62
     7
370
    30
100
AcDbLine
 10
31.3786846128
 20
434.3388358367
 30
0.0
 11
31.051850338
 21
430.6031029811
 31
0.0
  0
ARC
  5
15E
330
1F
100
AcDbEntity
  8
0
  6
Continuous
 62
     7
370
    30
100
AcDbCircle
 10
31.2510892776
 20
430.5856718326
 30
0.0
 40
0.2000000000000251
100
AcDbArc
 50
175.0
 51
265.0
  0
ARC
  5
15F
330
1F
100
AcDbEntity
  8
0
  6
Continuous
 62
     7
370
    30
100
AcDbCircle
 10
51.7727000583
 20
428.790263532
 30
0.0
 40
0.1999999999999968
100
AcDbArc
 50
265.0
 51
355.0
  0
SPLINE
  5
160
330
1F
100
AcDbEntity
  8
0
  6
Continuous
 62
     7
370
    30
100
AcDbSpline
210
0.0
220
0.0
230
1.0
 70
     8
 71
     3
 72
    32
 73
    28
 74
     0
 42
0.000000001
 43
0.00000001
 40
0.0
 40
0.0
 40
0.0
 40
0.0
 40
0.0506784034789103
 40
0.0982955620534775
 40
0.1428674993201333
 40
0.1845866676732818
 40
0.2359838309774686
 40
0.2827091443288353
 40
0.3244722326655288
 40
0.36097186076766
 40
0.3923763361910244
 40
0.4188000982421589
 40
0.4403397946365443
 40
0.4588829406840054
 40
0.4803625407415842
 40
0.5107001566400423
 40
0.5460501534008755
 40
0.5860473482833511
 40
0.6306631753031501
 40
0.6800186897169115
 40
0.7249460256977459
 40
0.7735472750144301
 40
0.8253121867102717
 40
0.8660934818808219
 40
0.908684033314824
 40
0.9532478559390637
 40
1.0
 40
1.0
 40
1.0
 40
1.0
 10
181.9028637468166
 20
322.3348469830139
 30
0.0
 10
181.8788893599628
 20
322.3350790856779
 30
0.0
 10
181.8323887666349
 20
322.3355292707715
 30
0.0
 10
181.7650278323494
 20
322.3418789413267
 30
0.0
 10
181.7023540304074
 20
322.3514432586931
 30
0.0
 10
181.6385715852336
 20
322.3651163437988
 30
0.0
 10
181.5747329658366
 20
322.3830978895203
 30
0.0
 10
181.5121927475031
 20
322.4054314940134
 30
0.0
 10
181.4576193073133
 20
322.4288745537073
 30
0.0
 10
181.4109396490934
 20
322.4521609359591
 30
0.0
 10
181.3718452577203
 20
322.4742697198881
 30
0.0
 10
181.3398701755216
 20
322.4944084450406
 30
0.0
 10
181.3138801718851
 20
322.5124232009447
 30
0.0
 10
181.2908515935788
 20
322.5299437063351
 30
0.0
 10
181.2647687765949
 20
322.5505670013504
 30
0.0
 10
181.2332677697185
 20
322.577215253719
 30
0.0
 10
181.1964090611692
 20
322.6111679163537
 30
0.0
 10
181.1565273279268
 20
322.6518120165376
 30
0.0
 10
181.114635026565
 20
322.6997276147466
 30
0.0
 10
181.0744706834255
 20
322.7521484127665
 30
0.0
 10
181.0367601670736
 20
322.8086748335814
 30
0.0
 10
181.0022324925938
 20
322.8685642057909
 30
0.0
 10
180.9728647370898
 20
322.9289903155876
 30
0.0
 10
180.9485673542752
 20
322.9885401257266
 30
0.0
 10
180.9289945304028
 20
323.0462004608675
 30
0.0
 10
180.9119800083382
 20
323.1076675400365
 30
0.0
 10
180.9038838979981
 20
323.1503771607828
 30
0.0
 10
180.8997388340987
 20
323.1722437238211
 30
0.0
  0
SPLINE
  5
161
330
1F
100
AcDbEntity
  8
0
  6
Continuous
 62
     7
370
    30
100
AcDbSpline
210
0.0
220
0.0
230
1.0
 70
     8
 71
     3
 72
    23
 73
    19
 74
     0
 42
0.000000001
 43
0.00000001
 40
0.0
 40
0.0
 40
0.0
 40
0.0
 40
0.034629792946371
 40
0.1004264281443222
 40
0.1662230703658031
 40
0.2320197125205454
 40
0.2978163546112991
 40
0.3636129966471222
 40
0.4294096386320163
 40
0.4952062805634034
 40
0.5610029224576639
 40
0.6267995643127587
 40
0.6925962061384423
 40
0.7583928479368525
 40
0.8241894897103275
 40
0.889986131470119
 40
0.9557827732195824
 40
1.0
 40
1.0
 40
1.0
 40
1.0
 10
175.2815838343202
 20
331.5808171691475
 30
0.0
 10
175.2815344121203
 20
331.3818716761729
 30
0.0
 10
175.2813910876999
 20
330.8049295822428
 30
0.0
 10
175.281168170276
 20
329.8499448805646
 30
0.0
 10
175.2809212348817
 20
328.7158480756266
 30
0.0
 10
175.2806932818728
 20
327.5816989019814
 30
0.0
 10
175.2804839898817
 20
326.447502547647
 30
0.0
 10
175.2802934459982
 20
325.3132627828822
 30
0.0
 10
175.2801216277353
 20
324.1789837471414
 30
0.0
 10
175.2799685420445
 20
323.0446694811084
 30
0.0
 10
175.2798341872983
 20
321.9103240520933
 30
0.0
 10
175.2797185663435
 20
320.7759515204555
 30
0.0
 10
175.2796216723071
 20
319.6415559482332
 30
0.0
 10
175.2795435323179
 20
318.5071413985132
 30
0.0
 10
175.2794840468154
 20
317.3727119289783
 30
0.0
 10
175.2794435885914
 20
316.2382716182186
 30
0.0
 10
175.2794232622242
 20
315.2278465303133
 30
0.0
 10
175.2794211788101
 20
314.5955693052443
 30
0.0
 10
175.2794203414358
 20
314.3414418409295
 30
0.0
  0
SPLINE
  5
162
330
1F
100
AcDbEntity
  8
0
  6
Continuous
 62
     7
370
    30
100
AcDbSpline
210
0.0
220
0.0
230
1.0
 70
     8
 71
     3
 72
     9
 73
     5
 74
     0
 42
0.000000001
 43
0.00000001
 40
0.0
 40
0.0
 40
0.0
 40
0.0
 40
0.4352930121604661
 40
1.0
 40
1.0
 40
1.0
 40
1.0
 10
183.2746289622029
 20
322.3366504616969
 30
0.0
 10
183.0756028607468
 20
322.3366500292487
 30
0.0
 10
182.6183795746015
 20
322.3366490357841
 30
0.0
 10
182.1611571279576
 20
322.3366411954597
 30
0.0
 10
181.9029604173407
 20
322.3366367679738
 30
0.0
  0
ARC
  5
163
330
1F
100
AcDbEntity
  8
0
  6
Continuous
 62
     7
370
    30
100
AcDbCircle
 10
183.2746289622
 20
314.3414418409
 30
0.0
 40
7.995208620767244
100
AcDbArc
 50
180.0
 51
270.0
  0
ARC
  5
164
330
1F
100
AcDbEntity
  8
0
  6
Continuous
 62
     7
370
    30
100
AcDbCircle
 10
183.2746289622
 20
314.3414418409
 30
0.0
 40
7.995208620767244
100
AcDbArc
 50
270.0
 51
90.0
  0
SPLINE
  5
165
330
1F
100
AcDbEntity
  8
0
  6
Continuous
 62
     7
370
    30
100
AcDbSpline
210
0.0
220
0.0
230
1.0
 70
     8
 71
     3
 72
    52
 73
    48
 74
     0
 42
0.000000001
 43
0.00000001
 40
0.0
 40
0.0
 40
0.0
 40
0.0
 40
0.0354885989705174
 40
0.0700361461823596
 40
0.1036426486286653
 40
0.1363081191424555
 40
0.1680325764809191
 40
0.1988160455697476
 40
0.2269786191822869
 40
0.2543047325894294
 40
0.2807944223398756
 40
0.3064477301971784
 40
0.3312647032558732
 40
0.3552453941160385
 40
0.3783898611380362
 40
0.400698168800579
 40
0.4221703881881361
 40
0.4428065976382183
 40
0.4622606369950411
 40
0.4809084311923349
 40
0.4987500805509126
 40
0.5157856968257668
 40
0.5289924500690467
 40
0.5416706290974308
 40
0.5538203161525402
 40
0.5654416029564885
 40
0.5771717789755781
 40
0.5897271910171867
 40
0.6031085497969182
 40
0.6173159421077534
 40
0.6330859263455069
 40
0.6497626320844068
 40
0.6673461148705887
 40
0.6858364211411364
 40
0.7052335901633091
 40
0.7255376555670305
 40
0.7467486465787043
 40
0.7688665890344798
 40
0.7918915062308647
 40
0.8158234196566678
 40
0.8406623496407911
 40
0.8664083159438162
 40
0.891513873150677
 40
0.9174258016642082
 40
0.9441441193017427
 40
0.9716688451456137
 40
1.0
 40
1.0
 40
1.0
 40
1.0
 10
180.8997388341226
 20
323.1722437238222
 30
0.0
 10
180.8811761276511
 20
323.2804402387865
 30
0.0
 10
180.844542942299
 20
323.49396421996
 30
0.0
 10
180.7903560740891
 20
323.8099484440091
 30
0.0
 10
180.7376752582942
 20
324.1173281505707
 30
0.0
 10
180.6865088840852
 20
324.4161042331351
 30
0.0
 10
180.6368629589691
 20
324.7062773935444
 30
0.0
 10
180.5896180368802
 20
324.9827261924132
 30
0.0
 10
180.5447200217379
 20
325.2457692634725
 30
0.0
 10
180.5021130661173
 20
325.4957250939678
 30
0.0
 10
180.4608702649276
 20
325.7380345048481
 30
0.0
 10
180.4209925830211
 20
325.9726975936144
 30
0.0
 10
180.3824802338512
 20
326.1997143656296
 30
0.0
 10
180.3453327052484
 20
326.4190847362364
 30
0.0
 10
180.3095487839113
 20
326.6308085320826
 30
0.0
 10
180.2751265796064
 20
326.834885492947
 30
0.0
 10
180.2420635483071
 20
327.0313152729846
 30
0.0
 10
180.2105338491272
 20
327.2190416129547
 30
0.0
 10
180.1805172142405
 20
327.3981542281969
 30
0.0
 10
180.1519928681208
 20
327.568742823827
 30
0.0
 10
180.1247640489428
 20
327.7319528249179
 30
0.0
 10
180.1003599699069
 20
327.8785662078751
 30
0.0
 10
180.0786224265314
 20
328.009429066778
 30
0.0
 10
180.0593968034615
 20
328.1253879715586
 30
0.0
 10
180.041003772367
 20
328.2365056467174
 30
0.0
 10
180.0231346784711
 20
328.3447204466959
 30
0.0
 10
180.0050485813526
 20
328.4541690510935
 30
0.0
 10
179.9860036794682
 20
328.5689936319534
 30
0.0
 10
179.9656624155139
 20
328.6913754457792
 30
0.0
 10
179.9436488484096
 20
328.8235634539388
 30
0.0
 10
179.9199256400769
 20
328.9658037295266
 30
0.0
 10
179.8944540733258
 20
329.118342771119
 30
0.0
 10
179.8675722455417
 20
329.2791812610205
 30
0.0
 10
179.8392844683356
 20
329.4483197505178
 30
0.0
 10
179.8095950651687
 20
329.6257587700296
 30
0.0
 10
179.7785083118374
 20
329.8114988476441
 30
0.0
 10
179.7460284706693
 20
330.0055405079821
 30
0.0
 10
179.7121597987393
 20
330.2078842767406
 30
0.0
 10
179.6769065649895
 20
330.4185306837817
 30
0.0
 10
179.6402730642684
 20
330.6374802665458
 30
0.0
 10
179.6022636389878
 20
330.86473357475
 30
0.0
 10
179.5636716756516
 20
331.0955717636594
 30
0.0
 10
179.5245516530528
 20
331.3296878937761
 30
0.0
 10
179.4849573261573
 20
331.5667749755706
 30
0.0
 10
179.4441560538301
 20
331.8112460708073
 30
0.0
 10
179.4021490032021
 20
332.063101217955
 30
0.0
 10
179.3737605199138
 20
332.2334693391166
 30
0.0
 10
179.3593613464326
 20
332.3198832594153
 30
0.0
  0
ARC
  5
166
330
1F
100
AcDbEntity
  8
0
  6
Continuous
 62
     7
370
    30
100
AcDbCircle
 10
178.8681907686
 20
332.2368720072
 30
0.0
 40
0.5000000000000301
100
AcDbArc
 50
9.4405907898
 51
102.0004917542
  0
SPLINE
  5
167
330
1F
100
AcDbEntity
  8
0
  6
Continuous
 62
     7
370
    30
100
AcDbSpline
210
0.0
220
0.0
230
1.0
 70
     8
 71
     3
 72
    11
 73
     7
 74
     0
 42
0.000000001
 43
0.00000001
 40
0.0
 40
0.0
 40
0.0
 40
0.0
 40
0.1891881370346317
 40
0.5486457516942203
 40
0.9081034051841055
 40
1.0
 40
1.0
 40
1.0
 40
1.0
 10
178.7642307256524
 20
332.7259449153574
 30
0.0
 10
178.5695773299353
 20
332.6845677821281
 30
0.0
 10
178.0050823236047
 20
332.5645740620175
 30
0.0
 10
177.0707515364937
 20
332.3659502260836
 30
0.0
 10
176.236530593849
 20
332.1885949533837
 30
0.0
 10
175.7721500736207
 20
332.0898619972304
 30
0.0
 10
175.6776013047369
 20
332.069759777077
 30
0.0
  0
ARC
  5
168
330
1F
100
AcDbEntity
  8
0
  6
Continuous
 62
     7
370
    30
100
AcDbCircle
 10
175.7815838186
 20
331.580691646
 30
0.0
 40
0.4999999999999702
100
AcDbArc
 50
102.0031242661
 51
179.9856161087
  0
ARC
  5
169
330
1F
100
AcDbEntity
  8
0
  6
Continuous
 62
     7
370
    30
100
AcDbCircle
 10
158.5588466893
 20
333.964300738
 30
0.0
 40
4.999999999999997
100
AcDbArc
 50
142.1716635935
 51
226.8283364065
  0
ARC
  5
16A
330
1F
100
AcDbEntity
  8
0
  6
Continuous
 62
     7
370
    30
100
AcDbCircle
 10
159.9711104124
 20
316.0197887308
 30
0.0
 40
5.000000000000055
100
AcDbArc
 50
142.1716635935
 51
226.8283364065
  0
LINE
  5
16B
330
1F
100
AcDbEntity
  8
0
  6
Continuous
 62
     7
370
    30
100
AcDbLine
 10
31.2336581291
 20
430.3864328929
 30
0.0
 11
51.7552689098
 21
428.5910245923
 31
0.0
  0
LWPOLYLINE
  5
16C
330
1F
100
AcDbEntity
  8
0
  6
Continuous
 62
     7
370
    30
100
AcDbPolyline
 90
        3
 70
   128
 43
0.0
 10
181.9029604303
 20
322.3366367679
 10
181.9028889837
 20
322.3356604744
 10
181.9028634547
 20
322.3348361274
  0
LWPOLYLINE
  5
16D
330
1F
100
AcDbEntity
  8
0
  6
Continuous
 62
     7
370
    30
100
AcDbPolyline
 90
        3
 70
   128
 43
0.0
 10
179.3593622932
 20
332.3198830917
 10
179.360211103
 20
332.319694069
 10
179.3614188721
 20
332.3188844329
  0
LINE
  5
16E
330
1F
100
AcDbEntity
  8
0
  6
Continuous
 62
     7
370
    30
100
AcDbLine
 10
192.1929962393
 20
449.2547228863
 30
0.0
 11
216.2077030171
 21
295.9000125
 31
0.0
  0
LINE
  5
16F
330
1F
100
AcDbEntity
  8
0
  6
Continuous
 62
     7
370
    30
100
AcDbLine
 10
216.2077030171
 20
295.9000125
 30
0.0
 11
215.1672053227
 21
295.9000125
 31
0.0
  0
ARC
  5
170
330
1F
100
AcDbEntity
  8
0
  6
Continuous
 62
     7
370
    30
100
AcDbCircle
 10
183.2666617471
 20
314.4426749074
 30
0.0
 40
8.400000000000059
100
AcDbArc
 50
161.9853649288
 51
104.0945837092
  0
LINE
  5
171
330
1F
100
AcDbEntity
  8
0
  6
Continuous
 62
     7
370
    30
100
AcDbLine
 10
158.8206157536
 20
295.9000125
 30
0.0
 11
215.1672053227
 21
295.9000125
 31
0.0
  0
LINE
  5
172
330
1F
100
AcDbEntity
  8
0
  6
Continuous
 62
     7
370
    30
100
AcDbLine
 10
157.8466500742
 20
295.9000125
 30
0.0
 11
147.8854126723
 21
422.4695343537
 31
0.0
  0
LINE
  5
173
330
1F
100
AcDbEntity
  8
0
  6
Continuous
 62
     7
370
    30
100
AcDbLine
 10
158.8206157536
 20
295.9000125
 30
0.0
 11
157.8466500742
 21
295.9000125
 31
0.0
  0
ARC
  5
174
330
1F
100
AcDbEntity
  8
0
  6
Continuous
 62
     7
370
    30
100
AcDbCircle
 10
191.2050363735
 20
449.1000125
 30
0.0
 40
1.000000000000081
100
AcDbArc
 50
8.9
 51
90.0
  0
LINE
  5
175
330
1F
100
AcDbEntity
  8
0
  6
Continuous
 62
     7
370
    30
100
AcDbLine
 10
31.6719048767
 20
450.1000125
 30
0.0
 11
191.2050363735
 21
450.1000125
 31
0.0
  0
ARC
  5
176
330
1F
100
AcDbEntity
  8
0
  6
Continuous
 62
     7
370
    30
100
AcDbCircle
 10
145.8915780049
 20
422.3126161622
 30
0.0
 40
2.000000000000535
100
AcDbArc
 50
4.5
 51
85.0
  0
LINE
  5
177
330
1F
100
AcDbEntity
  8
0
  6
Continuous
 62
     7
370
    30
100
AcDbLine
 10
146.0658894904
 20
424.3050055584
 30
0.0
 11
28.9504032161
 21
434.5512829308
 31
0.0
  0
ARC
  5
178
330
1F
100
AcDbEntity
  8
0
  6
Continuous
 62
     7
370
    30
100
AcDbCircle
 10
29.0375589589
 20
435.5474776288
 30
0.0
 40
1.000000000000411
100
AcDbArc
 50
169.0
 51
265.0
  0
LINE
  5
179
330
1F
100
AcDbEntity
  8
0
  6
Continuous
 62
     7
370
    30
100
AcDbLine
 10
28.0559317754
 20
435.7382866242
 30
0.0
 11
30.6902776933
 21
449.2908214954
 31
0.0
  0
ARC
  5
17A
330
1F
100
AcDbEntity
  8
0
  6
Continuous
 62
     7
370
    30
100
AcDbCircle
 10
31.6719048767
 20
449.1000125
 30
0.0
 40
1.0
100
AcDbArc
 50
90.0
 51
169.0
  0
LINE
  5
17B
330
1F
100
AcDbEntity
  8
0
  6
Continuous
 62
     8
370
     0
100
AcDbLine
 10
31.051850338
 20
430.6031029811
 30
0.0
 11
51.9719389979
 21
428.7728323834
 31
0.0
  0
SPLINE
  5
17C
330
1F
100
AcDbEntity
  8
0
  6
Continuous
 62
     8
370
     0
100
AcDbSpline
210
0.0
220
0.0
230
1.0
 70
     8
 71
     3
 72
    12
 73
     8
 74
     0
 42
0.000000001
 43
0.00000001
 40
0.0
 40
0.0
 40
0.0
 40
0.0
 40
0.1866686205486599
 40
0.3733345547577396
 40
0.5599993694846898
 40
0.7799979318303004
 40
1.0
 40
1.0
 40
1.0
 40
1.0
 10
180.4084198318565
 20
323.0954510501293
 30
0.0
 10
180.3115899225943
 20
323.6651409910525
 30
0.0
 10
180.1179314975446
 20
324.8045126745171
 30
0.0
 10
179.8281482934737
 20
326.5135704996422
 30
0.0
 10
179.5221559119385
 20
328.3244128629877
 30
0.0
 10
179.2003507055041
 20
330.2370962574747
 30
0.0
 10
178.9764612792942
 20
331.5802267208747
 30
0.0
 10
178.8645156742395
 20
332.2517973034523
 30
0.0
  0
SPLINE
  5
17D
330
1F
100
AcDbEntity
  8
0
  6
Continuous
 62
     8
370
     0
100
AcDbSpline
210
0.0
220
0.0
230
1.0
 70
     8
 71
     3
 72
    27
 73
    23
 74
     0
 42
0.000000001
 43
0.00000001
 40
0.0
 40
0.0
 40
0.0
 40
0.0
 40
0.0527128790001924
 40
0.1050780906425527
 40
0.1571379659935718
 40
0.2091677699076436
 40
0.261441791739234
 40
0.3140267372391276
 40
0.3632711478882286
 40
0.4123260810751613
 40
0.4614228917288563
 40
0.510795779084188
 40
0.5603607974044273
 40
0.6095646345223789
 40
0.6586111839104193
 40
0.7077351849485324
 40
0.757177692219709
 40
0.8066921743337495
 40
0.854973810705248
 40
0.9031344822187087
 40
0.9513996679343316
 40
1.0
 40
1.0
 40
1.0
 40
1.0
 10
181.9018263984771
 20
321.8428879731837
 30
0.0
 10
181.8646011327857
 20
321.8436739596342
 30
0.0
 10
181.7903961203353
 20
321.8452407485681
 30
0.0
 10
181.6800198008531
 20
321.8578369577128
 30
0.0
 10
181.5712896005793
 20
321.8777316822328
 30
0.0
 10
181.4643526745453
 20
321.9055681524934
 30
0.0
 10
181.3593602445697
 20
321.9411582605363
 30
0.0
 10
181.2590537161664
 20
321.9835539236116
 30
0.0
 10
181.1640444484507
 20
322.0319112532478
 30
0.0
 10
181.0746866878021
 20
322.0853999851425
 30
0.0
 10
180.9891295878132
 20
322.1449363002114
 30
0.0
 10
180.9075931528831
 20
322.2104478747457
 30
0.0
 10
180.8307349337679
 20
322.2815015675346
 30
0.0
 10
180.7591414023793
 20
322.357538142614
 30
0.0
 10
180.6931658407661
 20
322.4380940618081
 30
0.0
 10
180.6328158626182
 20
322.523152559386
 30
0.0
 10
180.5783467066157
 20
322.6124813037004
 30
0.0
 10
180.5305344214225
 20
322.7048702016102
 30
0.0
 10
180.4895476682373
 20
322.799501427742
 30
0.0
 10
180.4555474306585
 20
322.895899385504
 30
0.0
 10
180.4276544328488
 20
322.9945349732372
 30
0.0
 10
180.414846137387
 20
323.0617348558962
 30
0.0
 10
180.4084198318565
 20
323.0954510501293
 30
0.0
  0
LWPOLYLINE
  5
17E
330
1F
100
AcDbEntity
  8
0
  6
Continuous
 62
     8
370
     0
100
AcDbPolyline
 90
        9
 70
   128
 43
0.0
 10
183.2746289622
 20
321.8429016782
 10
183.1030284944
 20
321.8429014641
 10
182.9314280405
 20
321.8429008217
 10
182.7598276148
 20
321.842899751
 10
182.5882272312
 20
321.842898252
 10
182.4166269037
 20
321.8428963247
 10
182.2450266464
 20
321.8428939691
 10
182.0734264733
 20
321.8428911853
 10
181.9018263985
 20
321.8428879732
  0
ARC
  5
17F
330
1F
100
AcDbEntity
  8
0
  6
Continuous
 62
     8
370
     0
100
AcDbCircle
 10
183.2746289622
 20
314.3414418409
 30
0.0
 40
7.501459837298341
100
AcDbArc
 50
180.0
 51
90.0
  0
LWPOLYLINE
  5
180
330
1F
100
AcDbEntity
  8
0
  6
Continuous
 62
     8
370
     0
100
AcDbPolyline
 90
       15
 70
   128
 43
0.0
 10
175.7753344064
 20
331.5950696692
 10
175.7750361456
 20
330.3629719541
 10
175.7747599731
 20
329.1308066257
 10
175.7745058901
 20
327.898578884
 10
175.7742738977
 20
326.6662939291
 10
175.7740639968
 20
325.4339569614
 10
175.7738761884
 20
324.2015731816
 10
175.7737104733
 20
322.9691477906
 10
175.7735668521
 20
321.7366859894
 10
175.7734453254
 20
320.5041929791
 10
175.7733458938
 20
319.271673961
 10
175.7732685576
 20
318.0391341366
 10
175.7732133173
 20
316.8065787075
 10
175.773180173
 20
315.574012875
 10
175.7731691249
 20
314.3414418409
  0
LWPOLYLINE
  5
181
330
1F
100
AcDbEntity
  8
0
  6
Continuous
 62
     8
370
     0
100
AcDbPolyline
 90
        9
 70
   128
 43
0.0
 10
178.8645156742
 20
332.2517973035
 10
178.4783637349
 20
332.169713552
 10
178.0922126842
 20
332.0876276715
 10
177.7060626893
 20
332.0055396974
 10
177.3199139175
 20
331.9234496655
 10
176.9337665361
 20
331.8413576111
 10
176.5476207122
 20
331.7592635699
 10
176.1614766133
 20
331.6771675774
 10
175.7753344064
 20
331.5950696692
  0
ARC
  5
182
330
1F
100
AcDbEntity
  8
0
  6
Continuous
 62
     8
370
     0
100
AcDbCircle
 10
246.7581713325
 20
321.9521420738
 30
0.0
 40
64.85643695621657
100
AcDbArc
 50
179.6619166519
 51
180.0965178187
  0
ARC
  5
183
330
1F
100
AcDbEntity
  8
0
  6
Continuous
 62
     8
370
     0
100
AcDbCircle
 10
182.3034284151
 20
312.5813411327
 30
0.0
 40
10.68351837577509
100
AcDbArc
 50
97.5498339705
 51
100.2170044866
  0
ARC
  5
184
330
1F
100
AcDbEntity
  8
0
  6
Continuous
 62
     8
370
     0
100
AcDbCircle
 10
175.6512404527
 20
327.3344233042
 30
0.0
 40
4.262453138362024
100
AcDbArc
 50
88.3316967118
 51
94.975163982
  0
LINE
  5
185
330
1F
100
AcDbEntity
  8
0
  6
Continuous
 62
     8
370
     0
100
AcDbLine
 10
175.2794203415
 20
314.3414418409
 30
0.0
 11
175.7731691249
 21
314.3414418409
 31
0.0
  0
LINE
  5
186
330
1F
100
AcDbEntity
  8
0
  6
Continuous
 62
     8
370
     0
100
AcDbLine
 10
183.2746289622
 20
322.3366504617
 30
0.0
 11
183.2746289622
 21
321.8429016782
 31
0.0
  0
ARC
  5
187
330
1F
100
AcDbEntity
  8
0
  6
Continuous
 62
     8
370
     0
100
AcDbCircle
 10
179.7674433841
 20
327.5216427828
 30
0.0
 40
4.815562297218377
100
AcDbArc
 50
94.8611975167
 51
100.8070413288
  0
ARC
  5
188
330
1F
100
AcDbEntity
  8
0
  6
Continuous
 62
     8
370
     0
100
AcDbCircle
 10
297.385398012
 20
357.5673252208
 30
0.0
 40
121.19437075978
100
AcDbArc
 50
191.827825059
 51
192.0569419185
  0
ARC
  5
189
330
1F
100
AcDbEntity
  8
0
  6
Continuous
 62
     8
370
     0
100
AcDbCircle
 10
194.4118273595
 20
335.6795101169
 30
0.0
 40
19.07882395116938
100
AcDbArc
 50
190.9062134975
 51
192.3616993904
  0
LINE
  5
18A
330
1F
100
AcDbEntity
  8
0
  6
Continuous
 62
     8
370
     0
100
AcDbLine
 10
215.1672053227
 20
295.9000125
 30
0.0
 11
191.1750857072
 21
449.1104842841
 31
0.0
  0
ARC
  5
18B
330
1F
100
AcDbEntity
  8
0
  6
Continuous
 62
     8
370
     0
100
AcDbCircle
 10
194.1134476509
 20
432.037965419
 30
0.0
 40
17.3235351852081
100
AcDbArc
 50
96.3647743597
 51
99.7655375419
  0
ARC
  5
18C
330
1F
100
AcDbEntity
  8
0
  6
Continuous
 62
     8
370
     0
100
AcDbCircle
 10
145.8616273385
 20
422.3230879464
 30
0.0
 40
3.000000000000016
100
AcDbArc
 50
4.5
 51
85.0
  0
LINE
  5
18D
330
1F
100
AcDbEntity
  8
0
  6
Continuous
 62
     8
370
     0
100
AcDbLine
 10
29.0076082925
 20
435.557949413
 30
0.0
 11
146.1230945668
 21
425.3116720406
 31
0.0
  0
LINE
  5
18E
330
1F
100
AcDbEntity
  8
0
  6
Continuous
 62
     8
370
     0
100
AcDbLine
 10
31.6419542104
 20
449.1104842841
 30
0.0
 11
29.0076082925
 21
435.557949413
 31
0.0
  0
LINE
  5
18F
330
1F
100
AcDbEntity
  8
0
  6
Continuous
 62
     8
370
     0
100
AcDbLine
 10
191.1750857072
 20
449.1104842841
 30
0.0
 11
31.6419542104
 21
449.1104842841
 31
0.0
  0
LINE
  5
190
330
1F
100
AcDbEntity
  8
0
  6
Continuous
 62
     8
370
     0
100
AcDbLine
 10
148.8523793397
 20
422.5584652335
 30
0.0
 11
158.8206157536
 21
295.9000125
 31
0.0
  0
ARC
  5
191
330
1F
100
AcDbEntity
  8
0
  6
Continuous
 62
     8
370
     0
100
AcDbCircle
 10
150.0306802358
 20
404.4450235122
 30
0.0
 40
18.15172619874527
100
AcDbArc
 50
93.7219144598
 51
96.7873837719
  0
ARC
  5
192
330
1F
100
AcDbEntity
  8
0
  6
Continuous
 62
     8
370
     0
100
AcDbCircle
 10
199.1479806412
 20
449.3643810868
 30
0.0
 40
7.976936580930443
100
AcDbArc
 50
174.7086771164
 51
181.8239674389
  0
ARC
  5
193
330
1F
100
AcDbEntity
  8
0
  6
Continuous
 62
     8
370
     0
100
AcDbCircle
 10
39.6148491446
 20
449.3643810868
 30
0.0
 40
7.976936581064632
100
AcDbArc
 50
174.7086771165
 51
181.8239674389
  0
ARC
  5
194
330
1F
100
AcDbEntity
  8
0
  6
Continuous
 62
     8
370
     0
100
AcDbCircle
 10
154.3080773199
 20
424.3415915875
 30
0.0
 40
8.24226902951118
100
AcDbArc
 50
173.2408607267
 51
180.2543270463
  0
ARC
  5
195
330
1F
100
AcDbEntity
  8
0
  6
Continuous
 62
     8
370
     0
100
AcDbCircle
 10
37.1925910457
 20
434.5878689598
 30
0.0
 40
8.242269029599298
100
AcDbArc
 50
173.2408607267
 51
180.2543270462
  0
ARC
  5
196
330
1F
100
AcDbEntity
  8
0
  6
Continuous
 62
     8
370
     0
100
AcDbCircle
 10
19.1002193494
 20
385.8758871879
 30
0.0
 40
50.66027696926415
100
AcDbArc
 50
78.7222550995
 51
79.8177532482
  0
ARC
  5
197
330
1F
100
AcDbEntity
  8
0
  6
Continuous
 62
     8
370
     0
100
AcDbCircle
 10
21.7345652674
 20
399.4284220599
 30
0.0
 40
50.66027696837351
100
AcDbArc
 50
78.7222550995
 51
79.8177532482
  0
ARC
  5
198
330
1F
100
AcDbEntity
  8
0
  6
Continuous
 62
     7
370
    30
100
AcDbCircle
 10
-233.9191522034
 20
209.2746289622
 30
0.0
 40
600.0000000000003
100
AcDbArc
 50
359.2836446887
 51
0.7163553113
  0
ARC
  5
199
330
1F
100
AcDbEntity
  8
0
  6
Continuous
 62
     7
370
    30
100
AcDbCircle
 10
365.5339917935
 20
216.769837583
 30
0.0
 40
0.5000000000000547
100
AcDbArc
 50
0.7163553113
 51
90.5
  0
LINE
  5
19A
330
1F
100
AcDbEntity
  8
0
  6
Continuous
 62
     7
370
    30
100
AcDbLine
 10
365.5296285257
 20
217.2698185445
 30
0.0
 11
353.8988043372
 21
217.1683178795
 31
0.0
  0
LINE
  5
19B
330
1F
100
AcDbEntity
  8
0
  6
Continuous
 62
     7
370
    30
100
AcDbLine
 10
353.4252709533
 20
201.3850725081
 30
0.0
 11
357.0764845288
 21
201.35320885
 31
0.0
  0
LINE
  5
19C
330
1F
100
AcDbEntity
  8
0
  6
Continuous
 62
     7
370
    30
100
AcDbLine
 10
356.7739162293
 20
201.4584923037
 30
0.0
 11
356.7731360939
 21
201.4590900001
 31
0.0
  0
SPLINE
  5
19D
330
1F
100
AcDbEntity
  8
0
  6
Continuous
 62
     7
370
    30
100
AcDbSpline
210
0.0
220
0.0
230
1.0
 70
     8
 71
     3
 72
    11
 73
     7
 74
     0
 42
0.000000001
 43
0.00000001
 40
0.0
 40
0.0
 40
0.0
 40
0.0
 40
0.2801725053915412
 40
0.5565477658262422
 40
0.8203270495288688
 40
1.0
 40
1.0
 40
1.0
 40
1.0
 10
356.824176590464
 20
201.4241099978109
 30
0.0
 10
356.8188008529964
 20
201.4273946328099
 30
0.0
 10
356.8081222367163
 20
201.4339193853644
 30
0.0
 10
356.7942158446808
 20
201.4433434564895
 30
0.0
 10
356.7832367687711
 20
201.4512883455909
 30
0.0
 10
356.777947473607
 20
201.4553856001044
 30
0.0
 10
356.7758044169375
 20
201.4570456792528
 30
0.0
  0
ARC
  5
19E
330
1F
100
AcDbEntity
  8
0
  6
Continuous
 62
     7
370
    30
100
AcDbCircle
 10
307.9607254399
 20
55.0375589589
 30
0.0
 40
1.000000000000012
100
AcDbArc
 50
181.7688676892
 51
270.0
  0
ARC
  5
19F
330
1F
100
AcDbEntity
  8
0
  6
Continuous
 62
     7
370
    30
100
AcDbCircle
 10
346.8009701533
 20
55.0375589589
 30
0.0
 40
1.0
100
AcDbArc
 50
270.0
 51
358.2311323108
  0
LINE
  5
1A0
330
1F
100
AcDbEntity
  8
0
  6
Continuous
 62
     7
370
    30
100
AcDbLine
 10
307.9607254399
 20
54.0375589589
 30
0.0
 11
346.8009701533
 21
54.0375589589
 31
0.0
  0
LINE
  5
1A1
330
1F
100
AcDbEntity
  8
0
  6
Continuous
 62
     7
370
    30
100
AcDbLine
 10
303.3443973224
 20
172.1221775719
 30
0.0
 11
306.9612019597
 21
55.0066912976
 31
0.0
  0
LINE
  5
1A2
330
1F
100
AcDbEntity
  8
0
  6
Continuous
 62
     7
370
    30
100
AcDbLine
 10
347.8004936335
 20
55.0066912976
 30
0.0
 11
351.4172982707
 21
172.1221775719
 31
0.0
  0
SPLINE
  5
1A3
330
1F
100
AcDbEntity
  8
0
  6
Continuous
 62
     7
370
    30
100
AcDbSpline
210
0.0
220
0.0
230
1.0
 70
     8
 71
     3
 72
    53
 73
    49
 74
     0
 42
0.000000001
 43
0.00000001
 40
0.0
 40
0.0
 40
0.0
 40
0.0
 40
0.0350417413324175
 40
0.0688689845194398
 40
0.1014846991767392
 40
0.1328916555149012
 40
0.1630923530116621
 40
0.1920889864462404
 40
0.2252976196301822
 40
0.2567783255933626
 40
0.2865336922309961
 40
0.3145657786076076
 40
0.3408762457081071
 40
0.376605803323496
 40
0.4133054238602881
 40
0.4509908229391368
 40
0.4896576483531144
 40
0.5144645219189053
 40
0.5396560390498684
 40
0.5652308157952668
 40
0.5911874720966438
 40
0.6171919075206085
 40
0.6399859380208819
 40
0.6606777497862615
 40
0.6792679331905644
 40
0.6957570220558489
 40
0.710145570721657
 40
0.7224340874148569
 40
0.7295124690077769
 40
0.736293450842839
 40
0.7439386143462957
 40
0.7524705341738547
 40
0.7620453340607407
 40
0.7731280552563187
 40
0.7859505626096913
 40
0.8005105946247943
 40
0.8168053007028895
 40
0.8389761333667679
 40
0.8596297329831555
 40
0.8787084851254248
 40
0.8962147229806807
 40
0.912151017626376
 40
0.9272370540625452
 40
0.9421942062656813
 40
0.9594838860595515
 40
0.9771199588969128
 40
0.9954386371951147
 40
1.0
 40
1.0
 40
1.0
 40
1.0
 10
351.417124182457
 20
172.1207739763895
 30
0.0
 10
351.4185398872102
 20
172.1665897433228
 30
0.0
 10
351.4213222303536
 20
172.2566333662623
 30
0.0
 10
351.4254758741653
 20
172.388334100066
 30
0.0
 10
351.429508393423
 20
172.5143510182035
 30
0.0
 10
351.4334151479836
 20
172.6345481752461
 30
0.0
 10
351.4371875927225
 20
172.74889550176
 30
0.0
 10
351.4410458358879
 20
172.8641444380472
 30
0.0
 10
351.4449643370573
 20
172.979377115748
 30
0.0
 10
351.4489158480266
 20
173.0936628759126
 30
0.0
 10
351.4526476024099
 20
173.1998599671295
 30
0.0
 10
351.456155884084
 20
173.2981666160183
 30
0.0
 10
351.4599060092446
 20
173.4016727265179
 30
0.0
 10
351.463988385743
 20
173.5125935314092
 30
0.0
 10
351.4684639316602
 20
173.6321449566111
 30
0.0
 10
351.4729776041348
 20
173.750339882312
 30
0.0
 10
351.476931327129
 20
173.8516302233539
 30
0.0
 10
351.4803276739912
 20
173.9369460600449
 30
0.0
 10
351.4831733117459
 20
174.0072605388934
 30
0.0
 10
351.4860081182591
 20
174.0760793439598
 30
0.0
 10
351.4888143563692
 20
174.1429234733673
 30
0.0
 10
351.4914590608111
 20
174.2046525644126
 30
0.0
 10
351.4938662526264
 20
174.2596992379338
 30
0.0
 10
351.4959732867664
 20
174.3069560692246
 30
0.0
 10
351.4978295135694
 20
174.3478198518735
 30
0.0
 10
351.4994455318576
 20
174.3827770063329
 30
0.0
 10
351.5008313103505
 20
174.4122709757213
 30
0.0
 10
351.5018976408984
 20
174.4346350713585
 30
0.0
 10
351.5027132776229
 20
174.4515528148288
 30
0.0
 10
351.5033773115396
 20
174.4652140582753
 30
0.0
 10
351.5040785871973
 20
174.479516204102
 30
0.0
 10
351.5048562029081
 20
174.4952165697146
 30
0.0
 10
351.5057260644077
 20
174.5125757769465
 30
0.0
 10
351.5066990924874
 20
174.5317271757212
 30
0.0
 10
351.5077909765174
 20
174.5528652991337
 30
0.0
 10
351.508998200898
 20
174.5757756051611
 30
0.0
 10
351.5104210616315
 20
174.6021434988304
 30
0.0
 10
351.5119486158532
 20
174.6295576990352
 30
0.0
 10
351.5134725528814
 20
174.655852495421
 30
0.0
 10
351.5148114041791
 20
174.6780341280123
 30
0.0
 10
351.5159732798337
 20
174.6964977838348
 30
0.0
 10
351.5169853852443
 20
174.7119120786696
 30
0.0
 10
351.5178732425805
 20
174.7248472327181
 30
0.0
 10
351.5186913728427
 20
174.736233756493
 30
0.0
 10
351.5194682189206
 20
174.7464103027944
 30
0.0
 10
351.5200566659696
 20
174.7536628660651
 30
0.0
 10
351.5204120785398
 20
174.7575829229979
 30
0.0
 10
351.5203814172178
 20
174.7573447351977
 30
0.0
 10
351.5203753045796
 20
174.7572972501006
 30
0.0
  0
SPLINE
  5
1A4
330
1F
100
AcDbEntity
  8
0
  6
Continuous
 62
     7
370
    30
100
AcDbSpline
210
0.0
220
0.0
230
1.0
 70
     8
 71
     3
 72
    52
 73
    48
 74
     0
 42
0.000000001
 43
0.00000001
 40
0.0
 40
0.0
 40
0.0
 40
0.0
 40
0.0045410159109863
 40
0.0275122458596954
 40
0.0494644491003195
 40
0.0713890107897765
 40
0.0936970514355238
 40
0.108918411257846
 40
0.1254808857514178
 40
0.1433864532144928
 40
0.1626369234578373
 40
0.1831742159411321
 40
0.1997494974167796
 40
0.2145263584152547
 40
0.2275018066146607
 40
0.2386734802302498
 40
0.2481492163367199
 40
0.2564745458437384
 40
0.2639444684423142
 40
0.2705870484727195
 40
0.2775474998832355
 40
0.2898362901636018
 40
0.3042251591709176
 40
0.3207146151434234
 40
0.3393052124329277
 40
0.3599974848734225
 40
0.3827920228518921
 40
0.4159129863037185
 40
0.4487497216306867
 40
0.4809666868804046
 40
0.512561042574389
 40
0.5435301751967005
 40
0.5733353233632502
 40
0.6025327270082088
 40
0.6311204095761073
 40
0.6591161651442536
 40
0.6854272180115613
 40
0.7134599284846029
 40
0.7432159575852383
 40
0.7746973644236799
 40
0.8079067369527767
 40
0.8369040159580569
 40
0.8671053858324483
 40
0.89851304140398
 40
0.931129482205938
 40
0.9649574785106627
 40
1.0
 40
1.0
 40
1.0
 40
1.0
 10
303.2413297277017
 20
174.7572055759814
 30
0.0
 10
303.2413205353839
 20
174.7572827353082
 30
0.0
 10
303.2412648427124
 20
174.757750213602
 30
0.0
 10
303.2417583733616
 20
174.7523344815386
 30
0.0
 10
303.2426166131204
 20
174.7414484687028
 30
0.0
 10
303.2437397582844
 20
174.7261410660605
 30
0.0
 10
303.2449021123497
 20
174.7090874196133
 30
0.0
 10
303.2460541118972
 20
174.6912874093981
 30
0.0
 10
303.2471699464377
 20
174.6733559670823
 30
0.0
 10
303.248438836787
 20
174.6521695198694
 30
0.0
 10
303.2498669333374
 20
174.6274167135568
 30
0.0
 10
303.2513256311223
 20
174.6012005845535
 30
0.0
 10
303.2527183468483
 20
174.5753856356485
 30
0.0
 10
303.2539444360303
 20
174.5521038572937
 30
0.0
 10
303.2550505317013
 20
174.5306733009488
 30
0.0
 10
303.2560291693864
 20
174.5113933741694
 30
0.0
 10
303.2568938070697
 20
174.4941228399671
 30
0.0
 10
303.2576573802417
 20
174.478695567256
 30
0.0
 10
303.258343113068
 20
174.4647045157659
 30
0.0
 10
303.2589939895718
 20
174.4513109656095
 30
0.0
 10
303.2598016820049
 20
174.4345568475512
 30
0.0
 10
303.2608642830729
 20
174.4122709703638
 30
0.0
 10
303.2622500610385
 20
174.3827770121837
 30
0.0
 10
303.2638660805248
 20
174.3478198314219
 30
0.0
 10
303.2657223023662
 20
174.306956158238
 30
0.0
 10
303.2678293581244
 20
174.2596988498226
 30
0.0
 10
303.2704829414586
 20
174.1990177130695
 30
0.0
 10
303.2736328882623
 20
174.1252846011307
 30
0.0
 10
303.2772175562727
 20
174.0392209376954
 30
0.0
 10
303.2808358075033
 20
173.9503070848174
 30
0.0
 10
303.284464035544
 20
173.8592329633257
 30
0.0
 10
303.2880700830144
 20
173.7669413250208
 30
0.0
 10
303.291643450913
 20
173.6738558926556
 30
0.0
 10
303.2951755849321
 20
173.5803558517495
 30
0.0
 10
303.2986803010447
 20
173.4861862867348
 30
0.0
 10
303.3021118821744
 20
173.3927806995696
 30
0.0
 10
303.3055396314571
 20
173.2981677432934
 30
0.0
 10
303.3090480135292
 20
173.1998596364209
 30
0.0
 10
303.3127797384899
 20
173.093662972481
 30
0.0
 10
303.3167312580527
 20
172.9793770875199
 30
0.0
 10
303.320649756821
 20
172.8641444446887
 30
0.0
 10
303.3245080005643
 20
172.7488955000079
 30
0.0
 10
303.3282804451482
 20
172.6345481757441
 30
0.0
 10
303.332187199753
 20
172.514351018062
 30
0.0
 10
303.3362197189982
 20
172.3883341001054
 30
0.0
 10
303.3403733628134
 20
172.2566333662514
 30
0.0
 10
303.3431557059563
 20
172.1665897433187
 30
0.0
 10
303.3445714107092
 20
172.1207739763888
 30
0.0
  0
LINE
  5
1A5
330
1F
100
AcDbEntity
  8
0
  6
Continuous
 62
     7
370
    30
100
AcDbLine
 10
301.6207503478
 20
184.6887794703
 30
0.0
 11
303.2421791889
 21
174.7468167737
 31
0.0
  0
LINE
  5
1A6
330
1F
100
AcDbEntity
  8
0
  6
Continuous
 62
     7
370
    30
100
AcDbLine
 10
351.5195033031
 20
174.7467364422
 30
0.0
 11
353.1409452454
 21
184.6887794703
 31
0.0
  0
LINE
  5
1A7
330
1F
100
AcDbEntity
  8
0
  6
Continuous
 62
     7
370
    30
100
AcDbLine
 10
356.5808477966
 20
201.8531898115
 30
0.0
 11
356.5808477966
 21
204.8143644702
 31
0.0
  0
SPLINE
  5
1A8
330
1F
100
AcDbEntity
  8
0
  6
Continuous
 62
     7
370
    30
100
AcDbSpline
210
0.0
220
0.0
230
1.0
 70
    24
 71
     3
 72
     9
 73
     5
 74
     0
 42
0.000000001
 43
0.00000001
 40
0.0
 40
0.0
 40
0.0
 40
0.0
 40
0.5599999979032219
 40
1.0
 40
1.0
 40
1.0
 40
1.0
 10
356.5808477965813
 20
204.8143644702488
 30
0.0
 10
356.5808477965813
 20
204.9128399229672
 30
0.0
 10
356.5808477965813
 20
205.088688946337
 30
0.0
 10
356.5808477965812
 20
205.2628475653774
 30
0.0
 10
356.5808477965812
 20
205.3394773581204
 30
0.0
  0
LINE
  5
1A9
330
1F
100
AcDbEntity
  8
0
  6
Continuous
 62
     7
370
    30
100
AcDbLine
 10
365.281718602
 20
201.281602857
 30
0.0
 11
357.0764845288
 21
201.35320885
 31
0.0
  0
ARC
  5
1AA
330
1F
100
AcDbEntity
  8
0
  6
Continuous
 62
     7
370
    30
100
AcDbCircle
 10
357.0808477966
 20
201.8531898115
 30
0.0
 40
0.5000000000000027
100
AcDbArc
 50
180.0
 51
269.5
  0
LINE
  5
1AB
330
1F
100
AcDbEntity
  8
0
  6
Continuous
 62
     7
370
    30
100
AcDbLine
 10
365.5296285257
 20
201.2794393799
 30
0.0
 11
365.281718602
 21
201.281602857
 31
0.0
  0
ARC
  5
1AC
330
1F
100
AcDbEntity
  8
0
  6
Continuous
 62
     7
370
    30
100
AcDbCircle
 10
365.5339917935
 20
201.7794203414
 30
0.0
 40
0.5000000000000031
100
AcDbArc
 50
269.5
 51
359.2836446887
  0
SPLINE
  5
1AD
330
1F
100
AcDbEntity
  8
0
  6
Continuous
 62
     7
370
    30
100
AcDbSpline
210
0.0
220
0.0
230
1.0
 70
    24
 71
     3
 72
    23
 73
    19
 74
     0
 42
0.000000001
 43
0.00000001
 40
0.0
 40
0.0
 40
0.0
 40
0.0
 40
0.0631599975584152
 40
0.1262867598051751
 40
0.1893481812691099
 40
0.2519252464341125
 40
0.3143126341671577
 40
0.3757014067549045
 40
0.4375028962350669
 40
0.4993660283742352
 40
0.5607830761861523
 40
0.6232987271543209
 40
0.6859639820459925
 40
0.7490879544265477
 40
0.8121363029771976
 40
0.8747659290437692
 40
0.9372862869007911
 40
0.9999999999999999
 40
0.9999999999999999
 40
0.9999999999999999
 40
0.9999999999999999
 10
356.5808477965812
 20
205.3394773581204
 30
0.0
 10
356.5808477965812
 20
205.3422539704343
 30
0.0
 10
356.5808477965812
 20
205.3478057339857
 30
0.0
 10
356.5808477965812
 20
205.3656669797962
 30
0.0
 10
356.5808477965812
 20
205.3902982641047
 30
0.0
 10
356.5808477965812
 20
205.422171459923
 30
0.0
 10
356.5808477965812
 20
205.4606354579396
 30
0.0
 10
356.5808477965812
 20
205.505603064989
 30
0.0
 10
356.5808477965812
 20
205.5567933039974
 30
0.0
 10
356.5808477965812
 20
205.6141324518537
 30
0.0
 10
356.5808477965812
 20
205.67753587967
 30
0.0
 10
356.5808477965812
 20
205.7468275134243
 30
0.0
 10
356.5808477965812
 20
205.8220965746894
 30
0.0
 10
356.5808477965812
 20
205.9026039909649
 30
0.0
 10
356.5808477965812
 20
205.9876971791306
 30
0.0
 10
356.5808477965812
 20
206.0767524751642
 30
0.0
 10
356.5808477965812
 20
206.1691429024636
 30
0.0
 10
356.5808477965812
 20
206.2334090109464
 30
0.0
 10
356.5808477965812
 20
206.2655916770421
 30
0.0
  0
ELLIPSE
  5
1AE
330
1F
100
AcDbEntity
  8
0
  6
Continuous
 62
     7
370
    30
100
AcDbEllipse
 10
300.9192672547
 20
241.1955161514
 30
0.0
 11
0.09760552262480358
 21
-1.007584005921331
 31
-1.421085471520200E-14
210
1.353554230311542E-15
220
-1.397277077088763E-14
230
1.0
 40
0.9878489326
 41
3.046189388652099
 42
4.644959326181451
  0
ELLIPSE
  5
1AF
330
1F
100
AcDbEntity
  8
0
  6
Continuous
 62
     7
370
    30
100
AcDbEllipse
 10
353.8424283384
 20
241.1955161514
 30
0.0
 11
-0.09760552262474675
 21
-1.007584005921331
 31
-1.421085471520200E-14
210
-1.353554230310768E-15
220
-1.397277077088778E-14
230
1.0
 40
0.9878489326
 41
1.638225980998122
 42
3.236995918527445
  0
ELLIPSE
  5
1B0
330
1F
100
AcDbEntity
  8
0
  6
Continuous
 62
     7
370
    30
100
AcDbEllipse
 10
327.3808477966
 20
238.4572955968
 30
0.0
 11
4.0
 21
2.842170943040401E-14
 31
0.0
210
0.0
220
0.0
230
1.0
 40
0.155167704
 41
0.0
 42
6.283185307179586
  0
LINE
  5
1B1
330
1F
100
AcDbEntity
  8
0
  6
Continuous
 62
     7
370
    30
100
AcDbLine
 10
353.8447752286
 20
242.2077030171
 30
0.0
 11
300.9169203646
 21
242.2077030171
 31
0.0
  0
LINE
  5
1B2
330
1F
100
AcDbEntity
  8
0
  6
Continuous
 62
     7
370
    30
100
AcDbLine
 10
299.9196118793
 20
241.1672053227
 30
0.0
 11
301.6080798887
 21
184.8206157536
 31
0.0
  0
ELLIPSE
  5
1B3
330
1F
100
AcDbEntity
  8
0
  6
Continuous
 62
     7
370
    30
100
AcDbEllipse
 10
353.6918873215
 20
209.2666617471
 30
0.0
 11
0.2517399247688559
 21
8.399999586672749
 31
0.0
210
0.0
220
0.0
230
1.0
 40
0.0104676586
 41
2.80555725309411
 42
3.494883642348959
  0
ELLIPSE
  5
1B4
330
1F
100
AcDbEntity
  8
0
  6
Continuous
 62
     7
370
    30
100
AcDbEllipse
 10
353.6918873215
 20
209.2666617471
 30
0.0
 11
0.2517399247688559
 21
8.399999586672749
 31
0.0
210
0.0
220
0.0
230
1.0
 40
0.0104676586
 41
5.93749492104611
 42
9.08874256027375
  0
LINE
  5
1B5
330
1F
100
AcDbEntity
  8
0
  6
Continuous
 62
     7
370
    30
100
AcDbLine
 10
353.1536157045
 20
184.8206157536
 30
0.0
 11
353.649923383
 21
201.3831119961
 31
0.0
  0
LINE
  5
1B6
330
1F
100
AcDbEntity
  8
0
  6
Continuous
 62
     7
370
    30
100
AcDbLine
 10
354.1229975984
 20
217.1702743845
 30
0.0
 11
354.8420837138
 21
241.1672053227
 31
0.0
  0
LINE
  5
1B7
330
1F
100
AcDbEntity
  8
0
  6
Continuous
 62
     7
370
    30
100
AcDbLine
 10
303.3443973224
 20
172.1221775719
 30
0.0
 11
303.3444242797
 21
172.1230945668
 31
0.0
  0
LINE
  5
1B8
330
1F
100
AcDbEntity
  8
0
  6
Continuous
 62
     7
370
    30
100
AcDbLine
 10
351.4172713134
 20
172.1230945668
 30
0.0
 11
351.4172982707
 21
172.1221775719
 31
0.0
  0
ELLIPSE
  5
1B9
330
1F
100
AcDbEntity
  8
0
  6
Continuous
 62
     7
370
    30
100
AcDbEllipse
 10
302.6077108213
 20
184.8497422727
 30
0.0
 11
0.1614737490310744
 21
-0.9900933970639301
 31
-1.421085471520200E-14
210
2.280180986060846E-15
220
-1.398117125511904E-14
230
1.0
 40
0.9968357293
 41
4.58026642535931
 42
4.712388980384787
  0
ELLIPSE
  5
1BA
330
1F
100
AcDbEntity
  8
0
  6
Continuous
 62
     7
370
    30
100
AcDbEllipse
 10
352.1539847719
 20
184.8497422727
 30
0.0
 11
-0.1614737490310176
 21
-0.9900933970639585
 31
-1.421085471520200E-14
210
-2.280180986059958E-15
220
-1.398117125511892E-14
230
1.0
 40
0.9968357293
 41
1.570796326795106
 42
1.702918881820265
  0
ARC
  5
1BB
330
1F
100
AcDbEntity
  8
0
  6
Continuous
 62
     8
370
     0
100
AcDbCircle
 10
386.0000577218
 20
205.0281386755
 30
0.0
 40
20.70861039939167
100
AcDbArc
 50
179.0778375676
 51
180.7301674711
  0
SPLINE
  5
1BC
330
1F
100
AcDbEntity
  8
0
  6
Continuous
 62
     8
370
     0
100
AcDbSpline
210
0.0
220
0.0
230
1.0
 70
     8
 71
     3
 72
     9
 73
     5
 74
     0
 42
0.000000001
 43
0.00000001
 40
0.0
 40
0.0
 40
0.0
 40
0.0
 40
0.5599999969701227
 40
1.0
 40
1.0
 40
1.0
 40
1.0
 10
365.2931288917949
 20
204.7642388815575
 30
0.0
 10
363.7593414709543
 20
204.7557556012453
 30
0.0
 10
361.0204353474915
 20
204.7406068863201
 30
0.0
 10
358.2815806180742
 20
204.7196386202808
 30
0.0
 10
357.0764845288322
 20
204.71041258316
 30
0.0
  0
ARC
  5
1BD
330
1F
100
AcDbEntity
  8
0
  6
Continuous
 62
     8
370
     0
100
AcDbCircle
 10
373.9453947733
 20
205.0100803931
 30
0.0
 40
16.87157175943416
100
AcDbArc
 50
178.969594833
 51
181.0177240103
  0
SPLINE
  5
1BE
330
1F
100
AcDbEntity
  8
0
  6
Continuous
 62
     8
370
     0
100
AcDbSpline
210
0.0
220
0.0
230
1.0
 70
     8
 71
     3
 72
    10
 73
     6
 74
     0
 42
0.000000001
 43
0.00000001
 40
0.0
 40
0.0
 40
0.0
 40
0.0
 40
0.2800000053307298
 40
0.5600000024954771
 40
1.0
 40
1.0
 40
1.0
 40
1.0
 10
357.0765512668604
 20
205.3134817567679
 30
0.0
 10
357.8435139353692
 20
205.3190763479062
 30
0.0
 10
359.3774392500189
 20
205.3302655300195
 30
0.0
 10
362.1166261218818
 20
205.3469990527387
 30
0.0
 10
364.0888695723179
 20
205.3559528540018
 30
0.0
 10
365.2941294607834
 20
205.3614246214498
 30
0.0
  0
ARC
  5
1BF
330
1F
100
AcDbEntity
  8
0
  6
Continuous
 62
     8
370
     0
100
AcDbCircle
 10
365.4105484731
 20
205.4912797818
 30
0.0
 40
0.7364616952937622
100
AcDbArc
 50
260.8257541576
 51
301.6741822936
  0
ARC
  5
1C0
330
1F
100
AcDbEntity
  8
0
  6
Continuous
 62
     8
370
     0
100
AcDbCircle
 10
365.2977890656
 20
204.861964747
 30
0.0
 40
0.4994732814707307
100
AcDbArc
 50
0.2926242626
 51
90.4198058093
  0
LWPOLYLINE
  5
1C1
330
1F
100
AcDbEntity
  8
0
  6
Continuous
 62
     8
370
     0
100
AcDbPolyline
 90
        9
 70
   128
 43
0.0
 10
365.7972558329
 20
204.8645156742
 10
365.7967376708
 20
204.4783637349
 10
365.7959597039
 20
204.0922126842
 10
365.7949219324
 20
203.7060626893
 10
365.7936243568
 20
203.3199139175
 10
365.7920669777
 20
202.9337665361
 10
365.7902497958
 20
202.5476207122
 10
365.7881728118
 20
202.1614766133
 10
365.7858360266
 20
201.7753344064
  0
ARC
  5
1C2
330
1F
100
AcDbEntity
  8
0
  6
Continuous
 62
     8
370
     0
100
AcDbCircle
 10
365.4029523285
 20
202.4015034786
 30
0.0
 40
0.7339534271026221
100
AcDbArc
 50
260.4923642591
 51
301.4445411664
  0
LWPOLYLINE
  5
1C3
330
1F
100
AcDbEntity
  8
0
  6
Continuous
 62
     8
370
     0
100
AcDbPolyline
 90
        9
 70
   128
 43
0.0
 10
365.281718602
 20
201.6776319315
 10
365.2840534398
 20
202.0634523531
 10
365.286128693
 20
202.4492746654
 10
365.2879443607
 20
202.835098701
 10
365.2895004419
 20
203.2209242929
 10
365.2907969362
 20
203.6067512741
 10
365.2918338429
 20
203.9925794773
 10
365.2926111615
 20
204.3784087355
 10
365.2931288918
 20
204.7642388816
  0
LINE
  5
1C4
330
1F
100
AcDbEntity
  8
0
  6
Continuous
 62
     8
370
     0
100
AcDbLine
 10
357.0764845288
 20
201.7492379244
 30
0.0
 11
365.281718602
 21
201.6776319315
 31
0.0
  0
LINE
  5
1C5
330
1F
100
AcDbEntity
  8
0
  6
Continuous
 62
     8
370
     0
100
AcDbLine
 10
357.0764845288
 20
204.7104125832
 30
0.0
 11
357.0764845288
 21
201.7492379244
 31
0.0
  0
ARC
  5
1C6
330
1F
100
AcDbEntity
  8
0
  6
Continuous
 62
     8
370
     0
100
AcDbCircle
 10
357.0804073619
 20
204.8139368912
 30
0.0
 40
0.4995597483410706
100
AcDbArc
 50
90.4422697548
 51
179.9509598667
  0
ARC
  5
1C7
330
1F
100
AcDbEntity
  8
0
  6
Continuous
 62
     8
370
     0
100
AcDbCircle
 10
356.9588134844
 20
205.3829236133
 30
0.0
 40
0.6827280280831921
100
AcDbArc
 50
236.3849087856
 51
279.9247256278
  0
ARC
  5
1C8
330
1F
100
AcDbEntity
  8
0
  6
Continuous
 62
     8
370
     0
100
AcDbCircle
 10
356.9588134844
 20
202.4217489546
 30
0.0
 40
0.6827280280830375
100
AcDbArc
 50
236.3849087856
 51
279.9247256278
  0
SPLINE
  5
1C9
330
1F
100
AcDbEntity
  8
0
  6
Continuous
 62
     8
370
     0
100
AcDbSpline
210
0.0
220
0.0
230
1.0
 70
     8
 71
     3
 72
    12
 73
     8
 74
     0
 42
0.000000001
 43
0.00000001
 40
0.0
 40
0.0
 40
0.0
 40
0.0
 40
0.1866686722995161
 40
0.3733346068136769
 40
0.5599994782276833
 40
0.7799981275687629
 40
0.9999999999999999
 40
0.9999999999999999
 40
0.9999999999999999
 40
0.9999999999999999
 10
365.2941294607834
 20
205.3614246214498
 30
0.0
 10
365.3076866770054
 20
205.456241332481
 30
0.0
 10
365.334800910612
 20
205.6458733639094
 30
0.0
 10
365.3691813133731
 20
205.9322903383989
 30
0.0
 10
365.4006170840609
 20
206.236850239202
 30
0.0
 10
365.4281425302731
 20
206.5595751976145
 30
0.0
 10
365.4416936132371
 20
206.7866045463864
 30
0.0
 10
365.4484692043513
 20
206.9001200522897
 30
0.0
  0
ARC
  5
1CA
330
1F
100
AcDbEntity
  8
0
  6
Continuous
 62
     8
370
     0
100
AcDbCircle
 10
365.5113111978
 20
206.4052582906
 30
0.0
 40
0.4988359242401826
100
AcDbArc
 50
0.3631337968
 51
97.2371960187
  0
SPLINE
  5
1CB
330
1F
100
AcDbEntity
  8
0
  6
Continuous
 62
     8
370
     0
100
AcDbSpline
210
0.0
220
0.0
230
1.0
 70
     8
 71
     3
 72
    12
 73
     8
 74
     0
 42
0.000000001
 43
0.00000001
 40
0.0
 40
0.0
 40
0.0
 40
0.0
 40
0.1866686205486599
 40
0.3733345547577396
 40
0.5599993694846898
 40
0.7799979318303004
 40
1.0
 40
1.0
 40
1.0
 40
1.0
 10
366.0101371032346
 20
206.4084198318567
 30
0.0
 10
366.0008781276669
 20
206.3115899225945
 30
0.0
 10
365.9823603097769
 20
206.1179314975448
 30
0.0
 10
365.9482603307624
 20
205.828148293474
 30
0.0
 10
365.9070948595906
 20
205.5221559119387
 30
0.0
 10
365.8578807417188
 20
205.2003507055044
 30
0.0
 10
365.8174642431877
 20
204.9764612792945
 30
0.0
 10
365.7972558329076
 20
204.8645156742398
 30
0.0
  0
SPLINE
  5
1CC
330
1F
100
AcDbEntity
  8
0
  6
Continuous
 62
     8
370
     0
100
AcDbSpline
210
0.0
220
0.0
230
1.0
 70
     8
 71
     3
 72
     9
 73
     5
 74
     0
 42
0.000000001
 43
0.00000001
 40
0.0
 40
0.0
 40
0.0
 40
0.0
 40
0.5599999967831109
 40
1.0
 40
1.0
 40
1.0
 40
1.0
 10
357.018584427052
 20
205.8347497575537
 30
0.0
 10
357.0293181027765
 20
205.7383489355373
 30
0.0
 10
357.0484853809662
 20
205.5662046095193
 30
0.0
 10
357.0679755794603
 20
205.390702628834
 30
0.0
 10
357.0765512668604
 20
205.3134817567679
 30
0.0
  0
SPLINE
  5
1CD
330
1F
100
AcDbEntity
  8
0
  6
Continuous
 62
     8
370
     0
100
AcDbSpline
210
0.0
220
0.0
230
1.0
 70
     8
 71
     3
 72
     9
 73
     5
 74
     0
 42
0.000000001
 43
0.00000001
 40
0.0
 40
0.0
 40
0.0
 40
0.0
 40
0.5599999984356271
 40
1.0
 40
1.0
 40
1.0
 40
1.0
 10
365.4484692043512
 20
206.9001200522896
 30
0.0
 10
363.8749473430494
 20
206.7007947374443
 30
0.0
 10
361.0650868685896
 20
206.3448566742263
 30
0.0
 10
358.2550157316857
 20
205.9906157602552
 30
0.0
 10
357.018584427052
 20
205.8347497575537
 30
0.0
  0
SPLINE
  5
1CE
330
1F
100
AcDbEntity
  8
0
  6
Continuous
 62
     8
370
     0
100
AcDbSpline
210
0.0
220
0.0
230
1.0
 70
     8
 71
     3
 72
    27
 73
    23
 74
     0
 42
0.000000001
 43
0.00000001
 40
0.0
 40
0.0
 40
0.0
 40
0.0
 40
0.0527128790001923
 40
0.1050780906425527
 40
0.1571379659935718
 40
0.2091677699076435
 40
0.261441791739234
 40
0.3140267372391276
 40
0.3632711478882294
 40
0.4123260810751613
 40
0.4614228917288562
 40
0.5107957790841878
 40
0.5603607974044272
 40
0.6095646345223787
 40
0.6586111839104192
 40
0.7077351849485323
 40
0.7571776922197102
 40
0.8066921743337492
 40
0.8549738107052478
 40
0.9031344822187084
 40
0.9513996679343315
 40
1.0
 40
1.0
 40
1.0
 40
1.0
 10
366.0323822716967
 20
207.9018263984773
 30
0.0
 10
366.0322852651354
 20
207.864601132786
 30
0.0
 10
366.0320918918187
 20
207.7903961203356
 30
0.0
 10
366.0316497963111
 20
207.6800198008534
 30
0.0
 10
366.0311016548911
 20
207.5712896005796
 30
0.0
 10
366.0304381352115
 20
207.4643526745455
 30
0.0
 10
366.0296624280193
 20
207.3593602445699
 30
0.0
 10
366.0287950887777
 20
207.2590537161666
 30
0.0
 10
366.0278502321579
 20
207.164044448451
 30
0.0
 10
366.0268411777151
 20
207.0746866878023
 30
0.0
 10
366.0257499325769
 20
206.9891295878134
 30
0.0
 10
366.0245781158171
 20
206.9075931528834
 30
0.0
 10
366.023333776
 20
206.8307349337681
 30
0.0
 10
366.0220266945754
 20
206.7591414023796
 30
0.0
 10
366.0206646784099
 20
206.6931658407664
 30
0.0
 10
366.0192480268032
 20
206.6328158626184
 30
0.0
 10
366.0177808473052
 20
206.5783467066159
 30
0.0
 10
366.0162831318232
 20
206.5305344214228
 30
0.0
 10
366.01476757441
 20
206.4895476682375
 30
0.0
 10
366.0132417118607
 20
206.4555474306588
 30
0.0
 10
366.0116964508732
 20
206.427654432849
 30
0.0
 10
366.0106580833349
 20
206.4148461373873
 30
0.0
 10
366.0101371032347
 20
206.4084198318567
 30
0.0
  0
LWPOLYLINE
  5
1CF
330
1F
100
AcDbEntity
  8
0
  6
Continuous
 62
     8
370
     0
100
AcDbPolyline
 90
        9
 70
   128
 43
0.0
 10
366.0339527142
 20
209.2746289622
 10
366.033928176
 20
209.1030284944
 10
366.0338545615
 20
208.9314280405
 10
366.0337318707
 20
208.7598276148
 10
366.0335601035
 20
208.5882272312
 10
366.0333392599
 20
208.4166269037
 10
366.0330693401
 20
208.2450266464
 10
366.032750344
 20
208.0734264733
 10
366.0323822717
 20
207.9018263985
  0
LINE
  5
1D0
330
1F
100
AcDbEntity
  8
0
  6
Continuous
 62
     8
370
     0
100
AcDbLine
 10
366.0339527142
 20
216.7760887995
 30
0.0
 11
366.0339527142
 21
209.2746289622
 31
0.0
  0
LINE
  5
1D1
330
1F
100
AcDbEntity
  8
0
  6
Continuous
 62
     8
370
     0
100
AcDbLine
 10
365.7858360266
 20
201.7753344064
 30
0.0
 11
366.0339527142
 21
201.7731691249
 31
0.0
  0
ARC
  5
1D2
330
1F
100
AcDbEntity
  8
0
  6
Continuous
 62
     8
370
     0
100
AcDbCircle
 10
357.0802994142
 20
205.3391256032
 30
0.0
 40
0.4994517414615716
100
AcDbArc
 50
97.0979207914
 51
179.9596476009
  0
ARC
  5
1D3
330
1F
100
AcDbEntity
  8
0
  6
Continuous
 62
     8
370
     0
100
AcDbCircle
 10
365.2859780745
 20
201.781480445
 30
0.0
 40
0.4998957351473134
100
AcDbArc
 50
269.511792687
 51
359.2955512208
  0
ARC
  5
1D4
330
1F
100
AcDbEntity
  8
0
  6
Continuous
 62
     8
370
     0
100
AcDbCircle
 10
378.9013187427
 20
201.4796173943
 30
0.0
 40
13.62103952534883
100
AcDbArc
 50
179.1670388374
 51
180.8329611626
  0
ARC
  5
1D5
330
1F
100
AcDbEntity
  8
0
  6
Continuous
 62
     8
370
     0
100
AcDbCircle
 10
369.2022109315
 20
201.5512233872
 30
0.0
 40
12.12734309522706
100
AcDbArc
 50
179.0644363441
 51
180.9355636559
  0
SPLINE
  5
1D6
330
1F
100
AcDbEntity
  8
0
  6
Continuous
 62
     8
370
     0
100
AcDbSpline
210
0.0
220
0.0
230
1.0
 70
     8
 71
     3
 72
    23
 73
    19
 74
     0
 42
0.000000001
 43
0.00000001
 40
0.0
 40
0.0
 40
0.0
 40
0.0
 40
0.0629025898526302
 40
0.1253511347715922
 40
0.1878539361336868
 40
0.2508737348316339
 40
0.3136419177828509
 40
0.3749603234118337
 40
0.4364191287890548
 40
0.4983606633574234
 40
0.5599359062893257
 40
0.6225035255246982
 40
0.6852770040050844
 40
0.7484851853414122
 40
0.8112374318833036
 40
0.8738022339023992
 40
0.9366437221134633
 40
1.0
 40
1.0
 40
1.0
 40
1.0
 10
365.4484692043513
 20
206.9001200522897
 30
0.0
 10
365.4493703705228
 20
206.9059226871057
 30
0.0
 10
365.451166198047
 20
206.9174860720246
 30
0.0
 10
365.4544475387131
 20
206.9446700050344
 30
0.0
 10
365.4581273377357
 20
206.9787743133802
 30
0.0
 10
365.4622253890681
 20
207.0203050721223
 30
0.0
 10
365.4666616644636
 20
207.0683578559304
 30
0.0
 10
365.4713839062231
 20
207.1222919842211
 30
0.0
 10
365.4763657905983
 20
207.1817308936502
 30
0.0
 10
365.4815986894288
 20
207.2465673870705
 30
0.0
 10
365.4870680057696
 20
207.3166293533407
 30
0.0
 10
365.4927273676604
 20
207.3913489507061
 30
0.0
 10
365.4985610056611
 20
207.470558347463
 30
0.0
 10
365.5044812821178
 20
207.553096000909
 30
0.0
 10
365.5104317402934
 20
207.6381553460116
 30
0.0
 10
365.5163596223671
 20
207.7250098864851
 30
0.0
 10
365.5222643752442
 20
207.8134660021842
 30
0.0
 10
365.5261224736482
 20
207.8730545759773
 30
0.0
 10
365.5280593918851
 20
207.9029704006138
 30
0.0
  0
SPLINE
  5
1D7
330
1F
100
AcDbEntity
  8
0
  6
Continuous
 62
     8
370
     0
100
AcDbSpline
210
0.0
220
0.0
230
1.0
 70
     8
 71
     3
 72
    24
 73
    20
 74
     0
 42
0.000000001
 43
0.00000001
 40
0.0
 40
0.0
 40
0.0
 40
0.0
 40
0.0628597411692478
 40
0.1252881939149341
 40
0.1878206461730712
 40
0.2508499356342491
 40
0.3134686146163108
 40
0.3747487488829676
 40
0.4363323192973781
 40
0.4982058814308942
 40
0.5595639769335615
 40
0.614303568070155
 40
0.6693982906621397
 40
0.7246221454774134
 40
0.7794083865209568
 40
0.8341416797988489
 40
0.8892174500898739
 40
0.944617319820031
 40
1.0
 40
1.0
 40
1.0
 40
1.0
 10
357.076484528832
 20
206.8470423612901
 30
0.0
 10
357.0745379144659
 20
206.815152868282
 30
0.0
 10
357.0706580416947
 20
206.7515926800035
 30
0.0
 10
357.0649384236732
 20
206.6571151768721
 30
0.0
 10
357.0593463858956
 20
206.5641636799259
 30
0.0
 10
357.0539340746121
 20
206.4735420576393
 30
0.0
 10
357.0487887870414
 20
206.3867281680673
 30
0.0
 10
357.0439546165575
 20
206.3044785303227
 30
0.0
 10
357.0394494063028
 20
206.2271090669128
 30
0.0
 10
357.0352938413109
 20
206.1549698291546
 30
0.0
 10
357.0316664484777
 20
206.0911881711961
 30
0.0
 10
357.0285471773453
 20
206.035525901275
 30
0.0
 10
357.025899132388
 20
205.9874372473109
 30
0.0
 10
357.0236315582825
 20
205.9453017031203
 30
0.0
 10
357.0217667960824
 20
205.9095333131678
 30
0.0
 10
357.0203108668276
 20
205.8802625016203
 30
0.0
 10
357.019281604954
 20
205.8577925523214
 30
0.0
 10
357.0186525154938
 20
205.8417306290055
 30
0.0
 10
357.0186071208514
 20
205.837076473984
 30
0.0
 10
357.018584427052
 20
205.8347497575537
 30
0.0
  0
SPLINE
  5
1D8
330
1F
100
AcDbEntity
  8
0
  6
Continuous
 62
     8
370
     0
100
AcDbSpline
210
0.0
220
0.0
230
1.0
 70
     8
 71
     3
 72
     9
 73
     5
 74
     0
 42
0.000000001
 43
0.00000001
 40
0.0
 40
0.0
 40
0.0
 40
0.0
 40
0.559999999787939
 40
1.0
 40
1.0
 40
1.0
 40
1.0
 10
357.076484528832
 20
206.8470423612901
 30
0.0
 10
358.654074942537
 20
207.0444442812582
 30
0.0
 10
361.4712006823628
 20
207.3969477099061
 30
0.0
 10
364.2884636746717
 20
207.7483523561791
 30
0.0
 10
365.5280593918851
 20
207.9029704006138
 30
0.0
  0
SPLINE
  5
1D9
330
1F
100
AcDbEntity
  8
0
  6
Continuous
 62
     8
370
     0
100
AcDbSpline
210
0.0
220
0.0
230
1.0
 70
     8
 71
     3
 72
    12
 73
     8
 74
     0
 42
0.000000001
 43
0.00000001
 40
0.0
 40
0.0
 40
0.0
 40
0.0
 40
0.279910167625421
 40
0.5598424157906097
 40
0.706426280209159
 40
0.8530577548443329
 40
1.0
 40
1.0
 40
1.0
 40
1.0
 10
356.6372757844584
 20
206.8470423612901
 30
0.0
 10
356.6308668472087
 20
206.7929205404885
 30
0.0
 10
356.6180484671444
 20
206.6846726295192
 30
0.0
 10
356.6000643499425
 20
206.547882387905
 30
0.0
 10
356.5887755284795
 20
206.4366704851438
 30
0.0
 10
356.5822802351057
 20
206.3511377246711
 30
0.0
 10
356.5813256129366
 20
206.2941271429544
 30
0.0
 10
356.5808477965812
 20
206.2655916770378
 30
0.0
  0
LINE
  5
1DA
330
1F
100
AcDbEntity
  8
0
  6
Continuous
 62
     8
370
     0
100
AcDbLine
 10
356.6372757845
 20
206.8470423613
 30
0.0
 11
357.0764845288
 21
206.8470423613
 31
0.0
  0
LWPOLYLINE
  5
1DB
330
1F
100
AcDbEntity
  8
0
  6
Continuous
 62
     8
370
     0
100
AcDbPolyline
 90
       23
 70
   128
 43
0.0
 10
365.5280593919
 20
207.9029704006
 10
365.5636529966
 20
207.9028889837
 10
365.5990882225
 20
207.9028079797
 10
365.6341853666
 20
207.9027277994
 10
365.6687664405
 20
207.9026488494
 10
365.7026560727
 20
207.90257153
 10
365.7356823984
 20
207.9024962335
 10
365.7676779308
 20
207.9024233416
 10
365.7984804106
 20
207.902353224
 10
365.8279336289
 20
207.9022862364
 10
365.8558882193
 20
207.9022227183
 10
365.8822024154
 20
207.9021629919
 10
365.9067427697
 20
207.9021073602
 10
365.9293848304
 20
207.9020561052
 10
365.9500137726
 20
207.9020094869
 10
365.9685249806
 20
207.9019677417
 10
365.9848245783
 20
207.9019310813
 10
365.9988299053
 20
207.9018996916
 10
366.0104699362
 20
207.9018737318
 10
366.0196856409
 20
207.9018533335
 10
366.0264302837
 20
207.9018386003
 10
366.0306696604
 20
207.9018296067
 10
366.0323822717
 20
207.9018263985
  0
LINE
  5
1DC
330
1F
100
AcDbEntity
  8
0
  6
Continuous
 62
     8
370
     0
100
AcDbLine
 10
365.5296285257
 20
209.2746289622
 30
0.0
 11
365.5296285257
 21
217.2698185445
 31
0.0
  0
LINE
  5
1DD
330
1F
100
AcDbEntity
  8
0
  6
Continuous
 62
     8
370
     0
100
AcDbLine
 10
365.5296285257
 20
209.2746289622
 30
0.0
 11
366.0339527142
 21
209.2746289622
 31
0.0
  0
LWPOLYLINE
  5
1DE
330
1F
100
AcDbEntity
  8
0
  6
Continuous
 62
     8
370
     0
100
AcDbPolyline
 90
        9
 70
   128
 43
0.0
 10
365.5280593919
 20
207.9029704006
 10
365.5284271575
 20
208.0744274754
 10
365.5287458878
 20
208.2458846483
 10
365.5290155826
 20
208.4173419054
 10
365.5292362421
 20
208.5887992326
 10
365.5294078662
 20
208.7602566159
 10
365.5295304548
 20
208.9317140413
 10
365.529604008
 20
209.1031714947
 10
365.5296285257
 20
209.2746289622
  0
LINE
  5
1DF
330
1F
100
AcDbEntity
  8
0
  6
Continuous
 62
     8
370
     0
100
AcDbLine
 10
356.3825931037
 20
202.0360814962
 30
0.0
 11
356.3825931037
 21
206.3397454749
 31
0.0
  0
SPLINE
  5
1E0
330
1F
100
AcDbEntity
  8
0
  6
Continuous
 62
     8
370
     0
100
AcDbSpline
210
0.0
220
0.0
230
1.0
 70
     8
 71
     3
 72
    23
 73
    19
 74
     0
 42
0.000000001
 43
0.00000001
 40
0.0
 40
0.0
 40
0.0
 40
0.0
 40
0.0398764712550541
 40
0.1123221310415831
 40
0.184608102340409
 40
0.2567859300957924
 40
0.3289120646900983
 40
0.4010473937929187
 40
0.4732597439768598
 40
0.5456270210495784
 40
0.6094512817936693
 40
0.6731161186391771
 40
0.7366230436532814
 40
0.8000431944710383
 40
0.8498713505704353
 40
0.8997562327110028
 40
0.9497682955705651
 40
1.0
 40
1.0
 40
1.0
 40
1.0
 10
357.045760177379
 20
201.3549439995267
 30
0.0
 10
357.0332216439994
 20
201.3554681753774
 30
0.0
 10
356.9979037047482
 20
201.356944648765
 30
0.0
 10
356.9403166295646
 20
201.3665409394155
 30
0.0
 10
356.8735881302058
 20
201.3831565806789
 30
0.0
 10
356.8084354510445
 20
201.4065724679835
 30
0.0
 10
356.7452962027369
 20
201.4364203641899
 30
0.0
 10
356.6846579796158
 20
201.4728654816136
 30
0.0
 10
356.6270711681502
 20
201.5159789196454
 30
0.0
 10
356.5753203169114
 20
201.5638771803835
 30
0.0
 10
356.5296262968673
 20
201.6156746633258
 30
0.0
 10
356.4900418919749
 20
201.6704559456879
 30
0.0
 10
356.4552929096785
 20
201.7304116518332
 30
0.0
 10
356.4281519934457
 20
201.790930665177
 30
0.0
 10
356.4079379006311
 20
201.8508085769198
 30
0.0
 10
356.3939512958895
 20
201.9090733953252
 30
0.0
 10
356.3845054732315
 20
201.9705039739141
 30
0.0
 10
356.3832314906613
 20
202.0141904153366
 30
0.0
 10
356.3825931036808
 20
202.0360814961734
 30
0.0
  0
LINE
  5
1E1
330
1F
100
AcDbEntity
  8
0
  6
Continuous
 62
     8
370
     0
100
AcDbLine
 10
357.0764845288
 20
209.2746289622
 30
0.0
 11
365.5296285257
 21
209.2746289622
 31
0.0
  0
SPLINE
  5
1E2
330
1F
100
AcDbEntity
  8
0
  6
Continuous
 62
     8
370
     0
100
AcDbSpline
210
0.0
220
0.0
230
1.0
 70
     8
 71
     3
 72
    17
 73
    13
 74
     0
 42
0.000000001
 43
0.00000001
 40
0.0
 40
0.0
 40
0.0
 40
0.0
 40
0.0934719304179637
 40
0.1867124583769105
 40
0.2798547059928832
 40
0.3730073657951038
 40
0.4662623897796598
 40
0.5596996203093684
 40
0.6698314428850508
 40
0.7798531282599758
 40
0.8898824874545378
 40
1.0
 40
1.0
 40
1.0
 40
1.0
 10
356.4615922867089
 20
206.9068619838542
 30
0.0
 10
356.4744807021567
 20
206.979860337225
 30
0.0
 10
356.5002256260294
 20
207.1256763266282
 30
0.0
 10
356.5462280300213
 20
207.3452372606699
 30
0.0
 10
356.5964536528157
 20
207.5650787491878
 30
0.0
 10
356.6508104435617
 20
207.7854302084588
 30
0.0
 10
356.708536203309
 20
208.0063951076607
 30
0.0
 10
356.7727011230584
 20
208.2410911932153
 30
0.0
 10
356.8431949053589
 20
208.4893411592226
 30
0.0
 10
356.9196871547167
 20
208.7509595408105
 30
0.0
 10
356.9976751433716
 20
209.0127186559191
 30
0.0
 10
357.0502077218099
 20
209.1873022239585
 30
0.0
 10
357.0764845288319
 20
209.2746289622031
 30
0.0
  0
SPLINE
  5
1E3
330
1F
100
AcDbEntity
  8
0
  6
Continuous
 62
     8
370
     0
100
AcDbSpline
210
0.0
220
0.0
230
1.0
 70
     8
 71
     3
 72
    13
 73
     9
 74
     0
 42
0.000000001
 43
0.00000001
 40
0.0
 40
0.0
 40
0.0
 40
0.0
 40
0.1405693992903664
 40
0.280551125604608
 40
0.4203476909766755
 40
0.5601697441812136
 40
0.7800603678483776
 40
1.0
 40
1.0
 40
1.0
 40
1.0
 10
356.3825931036808
 20
206.3397454748572
 30
0.0
 10
356.38310716248
 20
206.3662496786248
 30
0.0
 10
356.3841331309728
 20
206.4191472810744
 30
0.0
 10
356.3915534485488
 20
206.498550232738
 30
0.0
 10
356.4021006985451
 20
206.5777386670004
 30
0.0
 10
356.4177763736936
 20
206.6719696889415
 30
0.0
 10
356.4390263601433
 20
206.7812880691749
 30
0.0
 10
356.4540697524458
 20
206.865000903035
 30
0.0
 10
356.4615922867089
 20
206.9068619838542
 30
0.0
  0
LINE
  5
1E4
330
1F
100
AcDbEntity
  8
0
  6
Continuous
 62
     8
370
     0
100
AcDbLine
 10
357.0764845288
 20
209.2746289622
 30
0.0
 11
357.0764845288
 21
206.8470423613
 31
0.0
  0
SPLINE
  5
1E5
330
1F
100
AcDbEntity
  8
0
  6
Continuous
 62
     8
370
     0
100
AcDbSpline
210
0.0
220
0.0
230
1.0
 70
     8
 71
     3
 72
    17
 73
    13
 74
     0
 42
0.000000001
 43
0.00000001
 40
0.0
 40
0.0
 40
0.0
 40
0.0
 40
0.1120625338813985
 40
0.2240770024716205
 40
0.3360892659658937
 40
0.4481647098799771
 40
0.5602079186880614
 40
0.6481522775999623
 40
0.736057358127568
 40
0.8239653783549895
 40
0.9119261130553923
 40
1.0
 40
1.0
 40
1.0
 40
1.0
 10
357.0764845288319
 20
209.2746289622031
 30
0.0
 10
357.0574212461023
 20
209.183693777725
 30
0.0
 10
357.0193028571689
 20
209.0018624122251
 30
0.0
 10
356.9627200308541
 20
208.7291853708709
 30
0.0
 10
356.9072449990588
 20
208.4565953697611
 30
0.0
 10
356.8534474125827
 20
208.1841339096461
 30
0.0
 10
356.8056234746181
 20
207.9313767563807
 30
0.0
 10
356.763776293242
 20
207.6984185886566
 30
0.0
 10
356.7276049349219
 20
207.4852025896571
 30
0.0
 10
356.6941035788764
 20
207.2722480702916
 30
0.0
 10
356.6633353822176
 20
207.0594461276629
 30
0.0
 10
356.6459660386237
 20
206.9178739501928
 30
0.0
 10
356.6372757844584
 20
206.8470423612901
 30
0.0
  0
ARC
  5
1E6
330
1F
100
AcDbEntity
  8
0
  6
Continuous
 62
     8
370
     0
100
AcDbCircle
 10
356.416995942
 20
206.4879963998
 30
0.0
 40
0.4212329657736706
100
AcDbArc
 50
58.4702877478
 51
83.922650542
  0
LWPOLYLINE
  5
1E7
330
1F
100
AcDbEntity
  8
0
  6
Continuous
 62
     8
370
     0
100
AcDbPolyline
 90
       15
 70
   128
 43
0.0
 10
356.3825931037
 20
206.3397454749
 10
356.4048504115
 20
206.3392123175
 10
356.4268092135
 20
206.3377635856
 10
356.4481964217
 20
206.3354172961
 10
356.4687460565
 20
206.3322026284
 10
356.4882025548
 20
206.3281595613
 10
356.5063239481
 20
206.323338376
 10
356.5228848717
 20
206.3177990305
 10
356.5376793677
 20
206.3116104143
 10
356.550523446
 20
206.3048494914
 10
356.5612573727
 20
206.2976003432
 10
356.5697476566
 20
206.289953123
 10
356.5758887092
 20
206.2820029344
 10
356.5796041582
 20
206.2738486492
 10
356.5808477966
 20
206.265591677
  0
ARC
  5
1E8
330
1F
100
AcDbEntity
  8
0
  6
Continuous
 62
     8
370
     0
100
AcDbCircle
 10
356.3891991581
 20
201.8443425193
 30
0.0
 40
0.1918527435474091
100
AcDbArc
 50
2.643133128
 51
91.9732523195
  0
LINE
  5
1E9
330
1F
100
AcDbEntity
  8
0
  6
Continuous
 62
     8
370
     0
100
AcDbLine
 10
307.0242794652
 20
57.6419542104
 30
0.0
 11
302.2437489837
 21
217.1750857072
 31
0.0
  0
LINE
  5
1EA
330
1F
100
AcDbEntity
  8
0
  6
Continuous
 62
     8
370
     0
100
AcDbLine
 10
303.2432455067
 20
217.2050363735
 30
0.0
 11
302.2437489837
 21
217.1750857072
 31
0.0
  0
LINE
  5
1EB
330
1F
100
AcDbEntity
  8
0
  6
Continuous
 62
     8
370
     0
100
AcDbLine
 10
303.2432455067
 20
217.2050363735
 30
0.0
 11
308.0237759882
 21
57.6719048767
 31
0.0
  0
LINE
  5
1EC
330
1F
100
AcDbEntity
  8
0
  6
Continuous
 62
     8
370
     0
100
AcDbLine
 10
308.0237759882
 20
57.6719048767
 30
0.0
 11
307.0242794652
 21
57.6419542104
 31
0.0
  0
ARC
  5
1ED
330
1F
100
AcDbEntity
  8
0
  6
Continuous
 62
     8
370
     0
100
AcDbCircle
 10
303.2397807603
 20
217.1967352307
 30
0.0
 40
0.9962670333520655
100
AcDbArc
 50
89.800740426
 51
181.2451721586
  0
LINE
  5
1EE
330
1F
100
AcDbEntity
  8
0
  6
Continuous
 62
     8
370
     0
100
AcDbLine
 10
303.2432455067
 20
218.1929962393
 30
0.0
 11
303.2432455067
 21
217.2050363735
 31
0.0
  0
LINE
  5
1EF
330
1F
100
AcDbEntity
  8
0
  6
Continuous
 62
     8
370
     0
100
AcDbLine
 10
351.5184500865
 20
217.2050363735
 30
0.0
 11
351.5184500865
 21
218.1929962393
 31
0.0
  0
LINE
  5
1F0
330
1F
100
AcDbEntity
  8
0
  6
Continuous
 62
     8
370
     0
100
AcDbLine
 10
351.5184500865
 20
217.2050363735
 30
0.0
 11
303.2432455067
 21
217.2050363735
 31
0.0
  0
LINE
  5
1F1
330
1F
100
AcDbEntity
  8
0
  6
Continuous
 62
     8
370
     0
100
AcDbLine
 10
303.2432455067
 20
218.1929962393
 30
0.0
 11
351.5184500865
 21
218.1929962393
 31
0.0
  0
LINE
  5
1F2
330
1F
100
AcDbEntity
  8
0
  6
Continuous
 62
     8
370
     0
100
AcDbLine
 10
346.737919605
 20
57.6719048767
 30
0.0
 11
351.5184500865
 21
217.2050363735
 31
0.0
  0
LINE
  5
1F3
330
1F
100
AcDbEntity
  8
0
  6
Continuous
 62
     8
370
     0
100
AcDbLine
 10
308.0237759882
 20
57.6719048767
 30
0.0
 11
346.737919605
 21
57.6719048767
 31
0.0
  0
LINE
  5
1F4
330
1F
100
AcDbEntity
  8
0
  6
Continuous
 62
     8
370
     0
100
AcDbLine
 10
352.5179466094
 20
217.1750857072
 30
0.0
 11
347.7374161279
 21
57.6419542104
 31
0.0
  0
LINE
  5
1F5
330
1F
100
AcDbEntity
  8
0
  6
Continuous
 62
     8
370
     0
100
AcDbLine
 10
347.7374161279
 20
57.6419542104
 30
0.0
 11
346.737919605
 21
57.6719048767
 31
0.0
  0
LINE
  5
1F6
330
1F
100
AcDbEntity
  8
0
  6
Continuous
 62
     8
370
     0
100
AcDbLine
 10
352.5179466094
 20
217.1750857072
 30
0.0
 11
351.5184500865
 21
217.2050363735
 31
0.0
  0
ARC
  5
1F7
330
1F
100
AcDbEntity
  8
0
  6
Continuous
 62
     8
370
     0
100
AcDbCircle
 10
351.5219148329
 20
217.1967352307
 30
0.0
 40
0.9962670333523991
100
AcDbArc
 50
358.7548278415
 51
90.199259574
  0
LINE
  5
1F8
330
1F
100
AcDbEntity
  8
0
  6
Continuous
 62
     8
370
     0
100
AcDbLine
 10
346.737919605
 20
56.6902776933
 30
0.0
 11
346.737919605
 21
57.6719048767
 31
0.0
  0
LINE
  5
1F9
330
1F
100
AcDbEntity
  8
0
  6
Continuous
 62
     8
370
     0
100
AcDbLine
 10
346.737919605
 20
56.6902776933
 30
0.0
 11
308.0237759882
 21
56.6902776933
 31
0.0
  0
LINE
  5
1FA
330
1F
100
AcDbEntity
  8
0
  6
Continuous
 62
     8
370
     0
100
AcDbLine
 10
308.0237759882
 20
57.6719048767
 30
0.0
 11
308.0237759882
 21
56.6902776933
 31
0.0
  0
ARC
  5
1FB
330
1F
100
AcDbEntity
  8
0
  6
Continuous
 62
     8
370
     0
100
AcDbCircle
 10
308.0157770847
 20
57.6825748164
 30
0.0
 40
0.9923293621636915
100
AcDbArc
 50
182.3460353431
 51
270.4618510648
  0
ARC
  5
1FC
330
1F
100
AcDbEntity
  8
0
  6
Continuous
 62
     8
370
     0
100
AcDbCircle
 10
346.7453230922
 20
57.6832001513
 30
0.0
 40
0.992950058805913
100
AcDbArc
 50
269.5727957379
 51
357.6193178542
  0
LINE
  5
1FD
330
1F
100
AcDbEntity
  8
0
  6
Continuous
 62
     8
370
     0
100
AcDbLine
 10
306.961228917
 20
55.0076082925
 30
0.0
 11
307.0242794652
 21
57.6419542104
 31
0.0
  0
LINE
  5
1FE
330
1F
100
AcDbEntity
  8
0
  6
Continuous
 62
     8
370
     0
100
AcDbLine
 10
308.0237759882
 20
56.6902776933
 30
0.0
 11
307.9607254399
 21
54.0559317754
 31
0.0
  0
ARC
  5
1FF
330
1F
100
AcDbEntity
  8
0
  6
Continuous
 62
     8
370
     0
100
AcDbCircle
 10
307.9527265364
 20
55.0482288985
 30
0.0
 40
0.9923293621627236
100
AcDbArc
 50
182.3460353431
 51
270.4618510648
  0
LINE
  5
200
330
1F
100
AcDbEntity
  8
0
  6
Continuous
 62
     8
370
     0
100
AcDbLine
 10
347.7374161279
 20
57.6419542104
 30
0.0
 11
347.8004666762
 21
55.0076082925
 31
0.0
  0
ARC
  5
201
330
1F
100
AcDbEntity
  8
0
  6
Continuous
 62
     8
370
     0
100
AcDbCircle
 10
346.8083736404
 20
55.0488542334
 30
0.0
 40
0.9929500588081683
100
AcDbArc
 50
269.5727957381
 51
357.619317854
  0
LINE
  5
202
330
1F
100
AcDbEntity
  8
0
  6
Continuous
 62
     8
370
     0
100
AcDbLine
 10
346.8009701533
 20
54.0559317754
 30
0.0
 11
346.737919605
 21
56.6902776933
 31
0.0
  0
LINE
  5
203
330
1F
100
AcDbEntity
  8
0
  6
Continuous
 62
     8
370
     0
100
AcDbLine
 10
307.9607254399
 20
54.0559317754
 30
0.0
 11
346.8009701533
 21
54.0559317754
 31
0.0
  0
LINE
  5
204
330
1F
100
AcDbEntity
  8
0
  6
Continuous
 62
     8
370
     0
100
AcDbLine
 10
300.9169203646
 20
242.2077030171
 30
0.0
 11
303.2432455067
 21
218.1929962393
 31
0.0
  0
LINE
  5
205
330
1F
100
AcDbEntity
  8
0
  6
Continuous
 62
     8
370
     0
100
AcDbLine
 10
302.2437489837
 20
217.1750857072
 30
0.0
 11
299.9196118793
 21
241.1672053227
 31
0.0
  0
LINE
  5
206
330
1F
100
AcDbEntity
  8
0
  6
Continuous
 62
     8
370
     0
100
AcDbLine
 10
354.8420837138
 20
241.1672053227
 30
0.0
 11
352.5179466094
 21
217.1750857072
 31
0.0
  0
LINE
  5
207
330
1F
100
AcDbEntity
  8
0
  6
Continuous
 62
     8
370
     0
100
AcDbLine
 10
351.5184500865
 20
218.1929962393
 30
0.0
 11
353.8447752286
 21
242.2077030171
 31
0.0
  0
LINE
  5
208
330
1F
100
AcDbEntity
  8
0
  6
Continuous
 62
     8
370
     0
100
AcDbLine
 10
303.3444242797
 20
172.1230945668
 30
0.0
 11
306.961228917
 21
55.0076082925
 31
0.0
  0
ELLIPSE
  5
209
330
1F
100
AcDbEntity
  8
0
  6
Continuous
 62
     8
370
     0
100
AcDbEllipse
 10
303.3209477701
 20
171.8616273385
 30
0.0
 11
-0.08990711598897859
 21
2.999999852383098
 31
0.0
210
0.0
220
0.0
230
1.0
 40
0.0104676586
 41
4.799341737312298
 42
6.204331785165123
  0
LINE
  5
20A
330
1F
100
AcDbEntity
  8
0
  6
Continuous
 62
     8
370
     0
100
AcDbLine
 10
301.6080798887
 20
184.8206157536
 30
0.0
 11
303.2337936948
 21
174.8523793397
 31
0.0
  0
ELLIPSE
  5
20B
330
1F
100
AcDbEntity
  8
0
  6
Continuous
 62
     8
370
     0
100
AcDbEllipse
 10
351.440747823
 20
171.8616273385
 30
0.0
 11
0.08990711598892176
 21
2.999999852383155
 31
0.0
210
0.0
220
0.0
230
1.0
 40
0.0104676586
 41
0.0788535220160151
 42
1.483843569867283
  0
LINE
  5
20C
330
1F
100
AcDbEntity
  8
0
  6
Continuous
 62
     8
370
     0
100
AcDbLine
 10
347.8004666762
 20
55.0076082925
 30
0.0
 11
351.4172713134
 21
172.1230945668
 31
0.0
  0
LINE
  5
20D
330
1F
100
AcDbEntity
  8
0
  6
Continuous
 62
     8
370
     0
100
AcDbLine
 10
351.5279018983
 20
174.8523793397
 30
0.0
 11
353.1536157045
 21
184.8206157536
 31
0.0
  0
LINE
  5
20E
330
1F
100
AcDbEntity
  8
0
  6
Continuous
 62
     8
370
     0
100
AcDbLine
 10
306.9612019597
 20
55.0066912976
 30
0.0
 11
306.961228917
 21
55.0076082925
 31
0.0
  0
LINE
  5
20F
330
1F
100
AcDbEntity
  8
0
  6
Continuous
 62
     8
370
     0
100
AcDbLine
 10
307.9607254399
 20
54.0559317754
 30
0.0
 11
307.9607254399
 21
54.0375589589
 31
0.0
  0
LINE
  5
210
330
1F
100
AcDbEntity
  8
0
  6
Continuous
 62
     8
370
     0
100
AcDbLine
 10
347.8004666762
 20
55.0076082925
 30
0.0
 11
347.8004936335
 21
55.0066912976
 31
0.0
  0
LINE
  5
211
330
1F
100
AcDbEntity
  8
0
  6
Continuous
 62
     8
370
     0
100
AcDbLine
 10
346.8009701533
 20
54.0375589589
 30
0.0
 11
346.8009701533
 21
54.0559317754
 31
0.0
  0
LWPOLYLINE
  5
212
330
1F
100
AcDbEntity
  8
0
  6
Continuous
 62
     8
370
     0
100
AcDbPolyline
 90
        3
 70
   128
 43
0.0
 10
351.5279018983
 20
174.8523793397
 10
351.5252226371
 20
174.8028784212
 10
351.5201816352
 20
174.7543738507
  0
LWPOLYLINE
  5
213
330
1F
100
AcDbEntity
  8
0
  6
Continuous
 62
     8
370
     0
100
AcDbPolyline
 90
        3
 70
   128
 43
0.0
 10
303.2411479128
 20
174.7572488646
 10
303.236472956
 20
174.8028784212
 10
303.2337936948
 20
174.8523793397
  0
SPLINE
  5
214
330
1F
100
AcDbEntity
  8
0
  6
Continuous
 62
     7
370
    30
100
AcDbSpline
210
0.0
220
0.0
230
1.0
 70
     8
 71
     3
 72
    75
 73
    71
 74
     0
 42
0.000000001
 43
0.00000001
 40
0.0
 40
0.0
 40
0.0
 40
0.0
 40
0.0102008266094131
 40
0.0249340658960115
 40
0.0396863457726712
 40
0.0544572209683045
 40
0.0692460749955379
 40
0.0840521461173826
 40
0.0988745538308666
 40
0.1137123250267108
 40
0.1285644191002959
 40
0.1434297514239969
 40
0.1583072147355359
 40
0.1731956981394756
 40
0.1880941035531583
 40
0.2030013595474383
 40
0.2179164326320258
 40
0.2328383361142653
 40
0.2477661367184603
 40
0.2626989591909886
 40
0.2776359891378984
 40
0.2925764743482701
 40
0.3075197248518882
 40
0.3224651119466936
 40
0.3374120664123187
 40
0.3523600761032917
 40
0.3673086830919265
 40
0.38225744126845
 40
0.3972059209891229
 40
0.4121538214325398
 40
0.427100881481325
 40
0.4420468763820793
 40
0.4569916145212803
 40
0.471934934352474
 40
0.4868767014953166
 40
0.5018168060194316
 40
0.5167551599189297
 40
0.5316916947788365
 40
0.5466263596302554
 40
0.5615591189887585
 40
0.5764899510678981
 40
0.5914188461586766
 40
0.6063458051649072
 40
0.6212708382836147
 40
0.636193963820133
 40
0.6511152071269458
 40
0.6660345996562315
 40
0.6809521781162947
 40
0.6958679837222571
 40
0.7107820615326002
 40
0.7256944598630768
 40
0.7406052297706953
 40
0.755514424600588
 40
0.7704220995895165
 40
0.7853283115200068
 40
0.8002331184200843
 40
0.8151365793034079
 40
0.8300387539457884
 40
0.8449397026939395
 40
0.8598394863029561
 40
0.8747381657993298
 40
0.8896358023667159
 40
0.9045324572516802
 40
0.9194281916873038
 40
0.9343230668325566
 40
0.9492171437253967
 40
0.9641104832482817
 40
0.9790031461042249
 40
0.9938951928024298
 40
1.0
 40
1.0
 40
1.0
 40
1.0
 10
477.7104374221021
 20
157.2967566185728
 30
0.0
 10
477.7191707688403
 20
157.2739664213706
 30
0.0
 10
477.7405178470135
 20
157.2182599281048
 30
0.0
 10
477.7780805376348
 20
157.1299645909394
 30
0.0
 10
477.8226281145663
 20
157.0318172718254
 30
0.0
 10
477.8704262187353
 20
156.9339465779357
 30
0.0
 10
477.9213150936255
 20
156.8363718028258
 30
0.0
 10
477.9753200010239
 20
156.7391309047106
 30
0.0
 10
478.0324144296291
 20
156.6422569693014
 30
0.0
 10
478.0925836857136
 20
156.5457843654844
 30
0.0
 10
478.1558078746869
 20
156.4497469399996
 30
0.0
 10
478.222066539654
 20
156.3541783624938
 30
0.0
 10
478.2913375029679
 20
156.2591119097244
 30
0.0
 10
478.3635972744466
 20
156.1645804182877
 30
0.0
 10
478.4388210457643
 20
156.070616210869
 30
0.0
 10
478.5169827985015
 20
155.9772510482075
 30
0.0
 10
478.5980553809356
 20
155.8845160919325
 30
0.0
 10
478.6820105896662
 20
155.7924418808713
 30
0.0
 10
478.7688192442463
 20
155.7010583183709
 30
0.0
 10
478.8584512564478
 20
155.6103946693152
 30
0.0
 10
478.9508756927349
 20
155.5204795651177
 30
0.0
 10
479.0460608298242
 20
155.4313410151021
 30
0.0
 10
479.1439742032577
 20
155.343006422746
 30
0.0
 10
479.2445826492291
 20
155.2555026054116
 30
0.0
 10
479.3478523400528
 20
155.1688558163422
 30
0.0
 10
479.4537488138019
 20
155.0830917678821
 30
0.0
 10
479.5622369037876
 20
154.9982357292892
 30
0.0
 10
479.6732806686887
 20
154.9143126039356
 30
0.0
 10
479.7868436010622
 20
154.8313467866931
 30
0.0
 10
479.9028887470458
 20
154.7493621175593
 30
0.0
 10
480.0213788145443
 20
154.6683818537259
 30
0.0
 10
480.1422759675518
 20
154.5884288472072
 30
0.0
 10
480.2655418310828
 20
154.5095255601194
 30
0.0
 10
480.3911374949307
 20
154.4316940779643
 30
0.0
 10
480.5190235166227
 20
154.3549561209507
 30
0.0
 10
480.6491599238771
 20
154.2793330534272
 30
0.0
 10
480.7815062168235
 20
154.2048458915259
 30
0.0
 10
480.9160213702
 20
154.1315153091346
 30
0.0
 10
481.0526638357036
 20
154.0593616423264
 30
0.0
 10
481.1913915446343
 20
153.9884048923789
 30
0.0
 10
481.3321619109434
 20
153.9186647275183
 30
0.0
 10
481.4749318347711
 20
153.8501604835192
 30
0.0
 10
481.6196577065349
 20
153.7829111632896
 30
0.0
 10
481.7662954116132
 20
153.7169354355594
 30
0.0
 10
481.9148003356519
 20
153.6522516327896
 30
0.0
 10
482.0651273705081
 20
153.5888777484057
 30
0.0
 10
482.2172309208394
 20
153.5268314334546
 30
0.0
 10
482.371064911331
 20
153.4661299927737
 30
0.0
 10
482.5265827945546
 20
153.4067903807556
 30
0.0
 10
482.6837375594413
 20
153.3488291967793
 30
0.0
 10
482.8424817403508
 20
153.2922626803789
 30
0.0
 10
483.0027674267158
 20
153.2371067062047
 30
0.0
 10
483.1645462732376
 20
153.1833767788339
 30
0.0
 10
483.3277695106065
 20
153.1310880274794
 30
0.0
 10
483.4923879567228
 20
153.0802552006263
 30
0.0
 10
483.6583520284012
 20
153.0308926606818
 30
0.0
 10
483.8256117534787
 20
152.9830143785
 30
0.0
 10
483.9941167835239
 20
152.9366339284391
 30
0.0
 10
484.1638164062705
 20
152.8917644816399
 30
0.0
 10
484.3346595609453
 20
152.8484188062668
 30
0.0
 10
484.5065948445323
 20
152.8066092421967
 30
0.0
 10
484.6795705534971
 20
152.7663477715743
 30
0.0
 10
484.8535345947039
 20
152.7276457322297
 30
0.0
 10
485.0284348858946
 20
152.6905148644834
 30
0.0
 10
485.2042179305815
 20
152.6549633828769
 30
0.0
 10
485.3808342067608
 20
152.6210106143045
 30
0.0
 10
485.5582181292824
 20
152.5886323517805
 30
0.0
 10
485.7363628986391
 20
152.5579647626959
 30
0.0
 10
485.8798997205794
 20
152.5343298613022
 30
0.0
 10
485.964250680033
 20
152.5215030772616
 30
0.0
 10
485.9887756087176
 20
152.5177737069511
 30
0.0
  0
ARC
  5
215
330
1F
100
AcDbEntity
  8
0
  6
Continuous
 62
     7
370
    30
100
AcDbCircle
 10
611.9032124382
 20
118.9492032306
 30
0.0
 40
0.4999999999999331
100
AcDbArc
 50
10.3870906468
 51
60.7573229394
  0
SPLINE
  5
216
330
1F
100
AcDbEntity
  8
0
  6
Continuous
 62
     7
370
    30
100
AcDbSpline
210
0.0
220
0.0
230
1.0
 70
     8
 71
     3
 72
    55
 73
    51
 74
     0
 42
0.000000001
 43
0.00000001
 40
0.0
 40
0.0
 40
0.0
 40
0.0
 40
0.037540255146494
 40
0.0736047990915499
 40
0.1081935993235383
 40
0.141306640776769
 40
0.1729439221361076
 40
0.2031054528944515
 40
0.2257685256706427
 40
0.2475205705238189
 40
0.26836160056869
 40
0.288291630195767
 40
0.3073230910949981
 40
0.3260307656235755
 40
0.525792627061954
 40
0.5710207334016778
 40
0.6168071595689558
 40
0.6637098281648731
 40
0.7117287658599286
 40
0.7608640263248475
 40
0.7748219554075944
 40
0.7888674130143679
 40
0.8030004017308892
 40
0.8172209243833295
 40
0.831081756662834
 40
0.8433641226123921
 40
0.854290384110539
 40
0.8638605466697211
 40
0.8720746142264001
 40
0.8779806707060843
 40
0.882910441462387
 40
0.8868639272267623
 40
0.8881499738708707
 40
0.8892853439693096
 40
0.8902700375373729
 40
0.8911040545871752
 40
0.8918411872031267
 40
0.8932229540223201
 40
0.8958627407749672
 40
0.8996403967741222
 40
0.9045559219761803
 40
0.9106093165113032
 40
0.917800580834248
 40
0.9261297159145739
 40
0.9355967234689471
 40
0.9462016062388269
 40
0.9579443683172362
 40
0.9708250155288422
 40
0.9848435558680203
 40
1.0
 40
1.0
 40
1.0
 40
1.0
 10
613.6370039185541
 20
112.1075309987838
 30
0.0
 10
613.6219684741496
 20
112.1938625684743
 30
0.0
 10
613.5924886301707
 20
112.3631320051772
 30
0.0
 10
613.5489976961869
 20
112.612037537749
 30
0.0
 10
613.5071831162185
 20
112.8508204541702
 30
0.0
 10
613.4670493218046
 20
113.079479052595
 30
0.0
 10
613.4286137277363
 20
113.2980038584264
 30
0.0
 10
613.3943336885465
 20
113.4925174435923
 30
0.0
 10
613.3640091115874
 20
113.6643022355563
 30
0.0
 10
613.3374332652023
 20
113.8146444799242
 30
0.0
 10
613.3119330768342
 20
113.9587145089247
 30
0.0
 10
613.2875085546324
 20
114.0965381916678
 30
0.0
 10
613.2639247747285
 20
114.2294638483108
 30
0.0
 10
613.1666728084604
 20
114.7770003409673
 30
0.0
 10
613.0578808881403
 20
115.3856576568654
 30
0.0
 10
612.9369981838204
 20
116.0577697610771
 30
0.0
 10
612.8795043742653
 20
116.3767255272087
 30
0.0
 10
612.8206868032746
 20
116.7023094216958
 30
0.0
 10
612.7603050975929
 20
117.0358266380042
 30
0.0
 10
612.7136057320005
 20
117.2932177273722
 30
0.0
 10
612.6811295004204
 20
117.4719761258103
 30
0.0
 10
612.6633762349944
 20
117.5696377387383
 30
0.0
 10
612.6454988861151
 20
117.6679244654973
 30
0.0
 10
612.6276860041603
 20
117.7657998292514
 30
0.0
 10
612.610641479337
 20
117.8594000451179
 30
0.0
 10
612.5949775750141
 20
117.9453735040733
 30
0.0
 10
612.5811185362005
 20
118.0214056975351
 30
0.0
 10
612.5689733215318
 20
118.0880088235822
 30
0.0
 10
612.5589473152161
 20
118.14297136156
 30
0.0
 10
612.5508823599141
 20
118.187171335855
 30
0.0
 10
612.5446195052097
 20
118.2214877355091
 30
0.0
 10
612.5403121780994
 20
118.2450850845188
 30
0.0
 10
612.5376116922633
 20
118.2598779992724
 30
0.0
 10
612.536168746848
 20
118.2677819034864
 30
0.0
 10
612.5349172439721
 20
118.2746368812415
 30
0.0
 10
612.533834418864
 20
118.2805677383053
 30
0.0
 10
612.532583351548
 20
118.2874198876499
 30
0.0
 10
612.5305670948106
 20
118.2984625668245
 30
0.0
 10
612.5272622321172
 20
118.3165613273493
 30
0.0
 10
612.522459188907
 20
118.342861526173
 30
0.0
 10
612.5162080723077
 20
118.3770853668426
 30
0.0
 10
612.5085078323797
 20
118.4192342142085
 30
0.0
 10
612.4993571847137
 20
118.4693097427069
 30
0.0
 10
612.4887546105635
 20
118.5273139565582
 30
0.0
 10
612.476698366606
 20
118.5932491835948
 30
0.0
 10
612.4631864699736
 20
118.6671181107052
 30
0.0
 10
612.4482167911538
 20
118.7489236684522
 30
0.0
 10
612.4317866831768
 20
118.8386695664118
 30
0.0
 10
612.4138946020494
 20
118.9363580462854
 30
0.0
 10
612.4014715969554
 20
119.0041418605352
 30
0.0
 10
612.3950178289045
 20
119.0393556442733
 30
0.0
  0
SPLINE
  5
217
330
1F
100
AcDbEntity
  8
0
  6
Continuous
 62
     7
370
    30
100
AcDbSpline
210
0.0
220
0.0
230
1.0
 70
     8
 71
     3
 72
    10
 73
     6
 74
     0
 42
0.000000001
 43
0.00000001
 40
0.0
 40
0.0
 40
0.0
 40
0.0
 40
0.3347355315159839
 40
0.4737119273359065
 40
1.0
 40
1.0
 40
1.0
 40
1.0
 10
612.1474692665901
 20
119.385481354913
 30
0.0
 10
611.4955371506361
 20
119.7502388695864
 30
0.0
 10
610.572934110134
 20
120.2664373875735
 30
0.0
 10
608.6239742812802
 20
121.3546037585326
 30
0.0
 10
607.3253838353567
 20
122.0773409077813
 30
0.0
 10
606.2980741031496
 20
122.6490953894052
 30
0.0
  0
LINE
  5
218
330
1F
100
AcDbEntity
  8
0
  6
Continuous
 62
     7
370
    30
100
AcDbLine
 10
605.7374345415
 20
122.598212557
 30
0.0
 11
603.64356786
 21
120.8755042979
 31
0.0
  0
ARC
  5
219
330
1F
100
AcDbEntity
  8
0
  6
Continuous
 62
     7
370
    30
100
AcDbCircle
 10
603.9612398685
 20
120.4893896841
 30
0.0
 40
0.4999999999999568
100
AcDbArc
 50
129.4455042347
 51
180.0
  0
LINE
  5
21A
330
1F
100
AcDbEntity
  8
0
  6
Continuous
 62
     7
370
    30
100
AcDbLine
 10
603.4612398685
 20
120.4893896841
 30
0.0
 11
603.4612398685
 21
107.9244311556
 31
0.0
  0
SPLINE
  5
21B
330
1F
100
AcDbEntity
  8
0
  6
Continuous
 62
     7
370
    30
100
AcDbSpline
210
0.0
220
0.0
230
1.0
 70
     8
 71
     3
 72
   165
 73
   161
 74
     0
 42
0.000000001
 43
0.00000001
 40
0.0
 40
0.0
 40
0.0
 40
0.0
 40
0.00101655627628
 40
0.0071030418933728
 40
0.0131889431067686
 40
0.0192758528890128
 40
0.0253658051683235
 40
0.0314607905237979
 40
0.0375627311720683
 40
0.0436734569784585
 40
0.0497946828270281
 40
0.0559279877061929
 40
0.062074795879837
 40
0.0682363605197341
 40
0.0744137501683189
 40
0.080607838376457
 40
0.0868192968145917
 40
0.0930485920857193
 40
0.0992959863747459
 40
0.1055615419543329
 40
0.1118451294376735
 40
0.1181464395321425
 40
0.1244649979144166
 40
0.1308001827279142
 40
0.1371512441074593
 40
0.1435173250717564
 40
0.1498974830969569
 40
0.1562907116955068
 40
0.1626959613717586
 40
0.1691121594033455
 40
0.1755382279980526
 40
0.1819731004894362
 40
0.1884157353524742
 40
0.1948651279336944
 40
0.2013203198922033
 40
0.2077804064338885
 40
0.2142445414881521
 40
0.220711941024545
 40
0.2271818847360352
 40
0.2336537163292966
 40
0.2401268426622587
 40
0.246600731959045
 40
0.2530748766792593
 40
0.2595487673525927
 40
0.266022056249266
 40
0.2724944432974713
 40
0.2789656724115231
 40
0.285435527819379
 40
0.2919038304810528
 40
0.2983704346473373
 40
0.3048352245939126
 40
0.3112981115538763
 40
0.3177590308621405
 40
0.3242179393173094
 40
0.330674812760842
 40
0.3371296438687596
 40
0.3435824401479142
 40
0.3500332221265666
 40
0.3564820217276539
 40
0.3629288808122019
 40
0.3693738498800727
 40
0.37581698691528
 40
0.3822583563633812
 40
0.3886980282289109
 40
0.3951360772815785
 40
0.4015725823604274
 40
0.4080076257661162
 40
0.4144412927320663
 40
0.420873670965997
 40
0.4273048502541606
 40
0.4337349221210818
 40
0.4401639795384314
 40
0.4465921166771056
 40
0.4530194286972065
 40
0.45944601157097
 40
0.4658719619343332
 40
0.4722973769629523
 40
0.4787223542690568
 40
0.4851469918156327
 40
0.4915713878447939
 40
0.4979956408173132
 40
0.5044198493605192
 40
0.5108441062346114
 40
0.5172684833279328
 40
0.5236930795121404
 40
0.5301179936621535
 40
0.5365433246071677
 40
0.5429691710759986
 40
0.549395631633132
 40
0.5558228046025518
 40
0.5622507879762817
 40
0.5686796793043256
 40
0.5751095755624869
 40
0.5815405729941474
 40
0.587972766921809
 40
0.5944062515237593
 40
0.6008411195707467
 40
0.6072774621170898
 40
0.6137153681400279
 40
0.6201549241205565
 40
0.6265962135582746
 40
0.6330393164121328
 40
0.6394843084581441
 40
0.6459312605544265
 40
0.6523802378031046
 40
0.6588312985978728
 40
0.6652844935452711
 40
0.6717398642471042
 40
0.6781974419308919
 40
0.6846572459150112
 40
0.6911192818950626
 40
0.6975835400384724
 40
0.7040499928751777
 40
0.7105185929738221
 40
0.7169892703952875
 40
0.7234619299189317
 40
0.7299364480416065
 40
0.736412669755986
 40
0.7428904051228588
 40
0.749369425662486
 40
0.7558494606027997
 40
0.7623301930377195
 40
0.7688112396019836
 40
0.7752920434871955
 40
0.7817721069000223
 40
0.7882508705197843
 40
0.7947277109246345
 40
0.8012019388216038
 40
0.8076727982726496
 40
0.8141394671629192
 40
0.8206010591681508
 40
0.8270566274775156
 40
0.8335051705128107
 40
0.8399456398518155
 40
0.8463769505101196
 40
0.8527979936608815
 40
0.8592076517763714
 40
0.8656048160615748
 40
0.8719884059242186
 40
0.8783573900949633
 40
0.8847108088860415
 40
0.8910477969673413
 40
0.8973676059563369
 40
0.9036696260718068
 40
0.9099534060969803
 40
0.9162186709379965
 40
0.9224653361462122
 40
0.9286935188911921
 40
0.9349035450153297
 40
0.9410959519585614
 40
0.9472714874999201
 40
0.9534311044097938
 40
0.9595759512335453
 40
0.9657073595271367
 40
0.9718268279361134
 40
0.977936003551108
 40
0.9840366609893964
 40
0.9901306796480497
 40
0.9962200195561889
 40
1.0
 40
1.0
 40
1.0
 40
1.0
 10
611.1605937934402
 20
99.13165549320235
 30
0.0
 10
611.16524577342
 20
99.12881923033248
 30
0.0
 10
611.1977508195794
 20
99.1090012483326
 30
0.0
 10
611.2596680401142
 20
99.07486150682487
 30
0.0
 10
611.3463762505792
 20
99.02943773806162
 30
0.0
 10
611.4347446119566
 20
98.98707905349923
 30
0.0
 10
611.5245519320445
 20
98.94747621360489
 30
0.0
 10
611.6158218422385
 20
98.91072873987486
 30
0.0
 10
611.7085130508003
 20
98.8768268792433
 30
0.0
 10
611.8026015009594
 20
98.84579083204204
 30
0.0
 10
611.8980580100668
 20
98.81763337843879
 30
0.0
 10
611.9948539397941
 20
98.79236982755974
 30
0.0
 10
612.0929593428704
 20
98.77001521166456
 30
0.0
 10
612.1923431395925
 20
98.75058485435443
 30
0.0
 10
612.2929727687772
 20
98.73409398569765
 30
0.0
 10
612.3948140099894
 20
98.72055757260966
 30
0.0
 10
612.4978307998504
 20
98.70999005799901
 30
0.0
 10
612.6019850993197
 20
98.70240510013484
 30
0.0
 10
612.7072368044813
 20
98.69781529800927
 30
0.0
 10
612.8135437086613
 20
98.69623191781466
 30
0.0
 10
612.9208615170754
 20
98.6976646281803
 30
0.0
 10
613.0291439141207
 20
98.7021212536423
 30
0.0
 10
613.1383426806849
 20
98.709607554508
 30
0.0
 10
613.2484078566255
 20
98.72012704018915
 30
0.0
 10
613.359287941509
 20
98.73368082139474
 30
0.0
 10
613.4709301251211
 20
98.75026750465288
 30
0.0
 10
613.5832805382205
 20
98.76988313055757
 30
0.0
 10
613.6962845136118
 20
98.79252115508474
 30
0.0
 10
613.8098868478253
 20
98.81817247144187
 30
0.0
 10
613.9240320544847
 20
98.84682546833405
 30
0.0
 10
614.0386646016735
 20
98.87846611933574
 30
0.0
 10
614.1537291271777
 20
98.91307809729646
 30
0.0
 10
614.2691706271906
 20
98.95064290738233
 30
0.0
 10
614.3849346158129
 20
98.99114003242387
 30
0.0
 10
614.5009672543024
 20
99.03454708464275
 30
0.0
 10
614.617215450463
 20
99.08083995847838
 30
0.0
 10
614.7336269297252
 20
99.12999298004881
 30
0.0
 10
614.8501502803509
 20
99.18197904966921
 30
0.0
 10
614.9667349757857
 20
99.23676977475098
 30
0.0
 10
615.0833313775108
 20
99.29433559125341
 30
0.0
 10
615.1998907218486
 20
99.35464587262055
 30
0.0
 10
615.3163648863824
 20
99.41766891339563
 30
0.0
 10
615.432706009771
 20
99.48337179065616
 30
0.0
 10
615.5488671086722
 20
99.55172075074557
 30
0.0
 10
615.6648022327663
 20
99.62268141280181
 30
0.0
 10
615.7804667504643
 20
99.69621908171732
 30
0.0
 10
615.8958166380264
 20
99.7722984108831
 30
0.0
 10
616.0108084319753
 20
99.85088343072546
 30
0.0
 10
616.1253991840761
 20
99.93193757048242
 30
0.0
 10
616.2395464196971
 20
100.0154236743947
 30
0.0
 10
616.353208100012
 20
100.1013040133297
 30
0.0
 10
616.4663425883017
 20
100.18954029276
 30
0.0
 10
616.57890862047
 20
100.280093657918
 30
0.0
 10
616.6908652797575
 20
100.3729246968493
 30
0.0
 10
616.8021719755543
 20
100.4679934419875
 30
0.0
 10
616.9127884261335
 20
100.5652593707847
 30
0.0
 10
617.0226746450935
 20
100.6646814058451
 30
0.0
 10
617.1317909312511
 20
100.7662179149341
 30
0.0
 10
617.2400978617214
 20
100.8698267111671
 30
0.0
 10
617.3475562879054
 20
100.9754650536242
 30
0.0
 10
617.4541273341084
 20
101.0830896485821
 30
0.0
 10
617.559772398521
 20
101.1926566515145
 30
0.0
 10
617.6644531562976
 20
101.3041216699709
 30
0.0
 10
617.7681315644901
 20
101.4174397674133
 30
0.0
 10
617.8707698685984
 20
101.5325654680657
 30
0.0
 10
617.972330610525
 20
101.6494527628051
 30
0.0
 10
618.0727766377288
 20
101.7680551161083
 30
0.0
 10
618.172071113393
 20
101.8883254740536
 30
0.0
 10
618.27017752744
 20
102.0102162733624
 30
0.0
 10
618.3670597082317
 20
102.133679451459
 30
0.0
 10
618.4626818348207
 20
102.2586664575175
 30
0.0
 10
618.5570084496146
 20
102.3851282644606
 30
0.0
 10
618.6500044713454
 20
102.5130153818681
 30
0.0
 10
618.7416352082296
 20
102.6422778697524
 30
0.0
 10
618.8318663712286
 20
102.7728653531528
 30
0.0
 10
618.9206640873168
 20
102.9047270375008
 30
0.0
 10
619.0079949126822
 20
103.0378117247053
 30
0.0
 10
619.0938258457834
 20
103.1720678299054
 30
0.0
 10
619.1781243402006
 20
103.3074433988396
 30
0.0
 10
619.2608583172173
 20
103.4438861257755
 30
0.0
 10
619.3419961780819
 20
103.5813433719474
 30
0.0
 10
619.4215067911929
 20
103.7197621414428
 30
0.0
 10
619.499359421783
 20
103.8590889474971
 30
0.0
 10
619.5755238625275
 20
103.9992700217789
 30
0.0
 10
619.6499704671438
 20
104.1402513798758
 30
0.0
 10
619.7226702340243
 20
104.2819789989127
 30
0.0
 10
619.793594706809
 20
104.4243986431506
 30
0.0
 10
619.8627159831628
 20
104.5674558843906
 30
0.0
 10
619.9300067229418
 20
104.7110961224192
 30
0.0
 10
619.9954401557134
 20
104.8552646054089
 30
0.0
 10
620.0589900876137
 20
104.9999064501991
 30
0.0
 10
620.1206309075202
 20
105.1449666623741
 30
0.0
 10
620.1803375925292
 20
105.2903901560522
 30
0.0
 10
620.238085712726
 20
105.4361217732915
 30
0.0
 10
620.2938514352455
 20
105.5821063030145
 30
0.0
 10
620.3476115276222
 20
105.7282884993423
 30
0.0
 10
620.3993433604404
 20
105.8746130992263
 30
0.0
 10
620.4490249092997
 20
106.0210248392524
 30
0.0
 10
620.4966347561201
 20
106.1674684714865
 30
0.0
 10
620.5421520898262
 20
106.3138887782201
 30
0.0
 10
620.5855567064584
 20
106.4602305854637
 30
0.0
 10
620.6268290087755
 20
106.6064387750284
 30
0.0
 10
620.6659500054335
 20
106.7524582950236
 30
0.0
 10
620.7029013098402
 20
106.8982341685912
 30
0.0
 10
620.7376651388156
 20
107.0437115006877
 30
0.0
 10
620.7702243112083
 20
107.1888354827178
 30
0.0
 10
620.8005622466571
 20
107.3335513948201
 30
0.0
 10
620.8286629647125
 20
107.4778046056023
 30
0.0
 10
620.8545110845819
 20
107.6215405691255
 30
0.0
 10
620.8780918258008
 20
107.7647048189462
 30
0.0
 10
620.8993910101814
 20
107.9072429590399
 30
0.0
 10
620.9183950654448
 20
108.0491006514519
 30
0.0
 10
620.9350910310002
 20
108.1902236005592
 30
0.0
 10
620.9494665663906
 20
108.3305575338756
 30
0.0
 10
620.9615099629908
 20
108.4700481793957
 30
0.0
 10
620.9712101596008
 20
108.6086412395638
 30
0.0
 10
620.9785567626369
 20
108.746282362056
 30
0.0
 10
620.9835400716722
 20
108.8829171077049
 30
0.0
 10
620.9861511111199
 20
109.0184909160549
 30
0.0
 10
620.9863816688668
 20
109.1529490692339
 30
0.0
 10
620.9842243426691
 20
109.286236655057
 30
0.0
 10
620.9796725989297
 20
109.4182984186826
 30
0.0
 10
620.972720890792
 20
109.5490779291119
 30
0.0
 10
620.9633647686941
 20
109.6785183748641
 30
0.0
 10
620.9516009657503
 20
109.8065626524635
 30
0.0
 10
620.9374273859942
 20
109.9331541167374
 30
0.0
 10
620.920843251383
 20
110.0582357912563
 30
0.0
 10
620.9018492151486
 20
110.1817503836998
 30
0.0
 10
620.8804474818962
 20
110.3036403196406
 30
0.0
 10
620.8566419322719
 20
110.4238477975869
 30
0.0
 10
620.8304382493075
 20
110.5423148681806
 30
0.0
 10
620.8018440428227
 20
110.6589835400104
 30
0.0
 10
620.7708689675798
 20
110.7737959138102
 30
0.0
 10
620.7375248302741
 20
110.8866943458476
 30
0.0
 10
620.7018256800003
 20
110.9976216400689
 30
0.0
 10
620.6637878766173
 20
111.1065212670838
 30
0.0
 10
620.6234301315193
 20
111.2133376064073
 30
0.0
 10
620.580773515762
 20
111.3180162066312
 30
0.0
 10
620.5358414313278
 20
111.4205040564936
 30
0.0
 10
620.4886595425339
 20
111.5207498583135
 30
0.0
 10
620.4392556661596
 20
111.6187042941063
 30
0.0
 10
620.3876596207045
 20
111.7143202740581
 30
0.0
 10
620.3339030371666
 20
111.8075531570069
 30
0.0
 10
620.278019135696
 20
111.8983609332343
 30
0.0
 10
620.2200424742874
 20
111.9867043612202
 30
0.0
 10
620.1600086771157
 20
112.07254705187
 30
0.0
 10
620.0979541512979
 20
112.1558554963774
 30
0.0
 10
620.0339158008234
 20
112.2365990355621
 30
0.0
 10
619.9679307484225
 20
112.3147497748374
 30
0.0
 10
619.9000360679562
 20
112.3902824380803
 30
0.0
 10
619.8302685573709
 20
112.4631742057261
 30
0.0
 10
619.7586644753445
 20
112.5334043987746
 30
0.0
 10
619.6852595560763
 20
112.6009545605314
 30
0.0
 10
619.6100881547527
 20
112.6658069265436
 30
0.0
 10
619.5331858069101
 20
112.7279488022948
 30
0.0
 10
619.4545792723454
 20
112.7873549127915
 30
0.0
 10
619.3743233628121
 20
112.8440517565159
 30
0.0
 10
619.2923637195081
 20
112.8978765823504
 30
0.0
 10
619.2195673466961
 20
112.9428724161086
 30
0.0
 10
619.1734447231496
 20
112.9687649028709
 30
0.0
 10
619.1557796146309
 20
112.978681805972
 30
0.0
  0
LINE
  5
21C
330
1F
100
AcDbEntity
  8
0
  6
Continuous
 62
     7
370
    30
100
AcDbLine
 10
619.1557012855
 20
112.9791571931
 30
0.0
 11
612.8519864113
 21
116.5289322556
 31
0.0
  0
LINE
  5
21D
330
1F
100
AcDbEntity
  8
0
  6
Continuous
 62
     7
370
    30
100
AcDbLine
 10
601.3325473964
 20
104.9459346654
 30
0.0
 11
611.1613136899
 21
99.1309712223
 31
0.0
  0
ARC
  5
21E
330
1F
100
AcDbEntity
  8
0
  6
Continuous
 62
     7
370
    30
100
AcDbCircle
 10
606.05510655
 20
122.2120979431
 30
0.0
 40
0.500000000000018
100
AcDbArc
 50
60.9268742372
 51
129.4455042348
  0
SPLINE
  5
21F
330
1F
100
AcDbEntity
  8
0
  6
Continuous
 62
     7
370
    30
100
AcDbSpline
210
0.0
220
0.0
230
1.0
 70
     8
 71
     3
 72
    32
 73
    28
 74
     0
 42
0.000000001
 43
0.00000001
 40
0.0
 40
0.0
 40
0.0
 40
0.0
 40
0.0682599574507233
 40
0.1200601476769893
 40
0.1547109769542616
 40
0.1768585878615178
 40
0.1980459117424122
 40
0.2191553078009041
 40
0.2408128428712009
 40
0.2654171710459063
 40
0.2932442586473754
 40
0.3239750182719662
 40
0.3868707630621824
 40
0.4443344322073423
 40
0.4908410794839039
 40
0.5270601645198214
 40
0.5710412760408456
 40
0.6174800902169302
 40
0.6607396461923641
 40
0.7005944657690123
 40
0.7267413018633502
 40
0.7509388275241858
 40
0.7786031834754159
 40
0.8170232263010226
 40
0.8664646909546903
 40
0.9272803500402433
 40
1.0
 40
1.0
 40
1.0
 40
1.0
 10
613.7013511533618
 20
111.9595601663697
 30
0.0
 10
613.7002443018301
 20
111.9600963308763
 30
0.0
 10
613.698297497828
 20
111.9610393726279
 30
0.0
 10
613.6970782353596
 20
111.9619104236641
 30
0.0
 10
613.6966248144887
 20
111.962303400352
 30
0.0
 10
613.6969071572372
 20
111.9621576461298
 30
0.0
 10
613.6967737883439
 20
111.9622671694299
 30
0.0
 10
613.6963965005633
 20
111.9625590027101
 30
0.0
 10
613.6957002565988
 20
111.9631176626252
 30
0.0
 10
613.6948459203583
 20
111.9638446692872
 30
0.0
 10
613.6937909571881
 20
111.9647997905402
 30
0.0
 10
613.6921740707623
 20
111.9663652791966
 30
0.0
 10
613.6898143806379
 20
111.9688578235617
 30
0.0
 10
613.6865443011827
 20
111.9727838073052
 30
0.0
 10
613.6834402693302
 20
111.9769306031121
 30
0.0
 10
613.680012636971
 20
111.9819463977333
 30
0.0
 10
613.6764004016629
 20
111.9877462437336
 30
0.0
 10
613.6724607038103
 20
111.9947344764722
 30
0.0
 10
613.6684111944368
 20
112.0026757019884
 30
0.0
 10
613.6648592598516
 20
112.0103605258367
 30
0.0
 10
613.661894308305
 20
112.0173215021016
 30
0.0
 10
613.6593005488784
 20
112.023802900599
 30
0.0
 10
613.6561772201189
 20
112.032155402414
 30
0.0
 10
613.6522082096266
 20
112.0437926967152
 30
0.0
 10
613.6474047498114
 20
112.0598921616779
 30
0.0
 10
613.6419867311154
 20
112.0811123535574
 30
0.0
 10
613.6387607079298
 20
112.0982165855156
 30
0.0
 10
613.6370039045906
 20
112.1075310789611
 30
0.0
  0
LINE
  5
220
330
1F
100
AcDbEntity
  8
0
  6
Continuous
 62
     7
370
    30
100
AcDbLine
 10
493.2842722053
 20
148.7816870723
 30
0.0
 11
578.654893817
 21
186.7458056127
 31
0.0
  0
ARC
  5
221
330
1F
100
AcDbEntity
  8
0
  6
Continuous
 62
     7
370
    30
100
AcDbCircle
 10
492.8779405171
 20
149.6954127199
 30
0.0
 40
1.000000000000014
100
AcDbArc
 50
240.0026882664
 51
293.9746045284
  0
LINE
  5
222
330
1F
100
AcDbEntity
  8
0
  6
Continuous
 62
     7
370
    30
100
AcDbLine
 10
464.913780731
 20
164.6841092821
 30
0.0
 11
492.3779811508
 21
148.8293638575
 31
0.0
  0
LINE
  5
223
330
1F
100
AcDbEntity
  8
0
  6
Continuous
 62
     7
370
    30
100
AcDbLine
 10
466.3332532816
 20
177.8214802477
 30
0.0
 11
464.4259059489
 21
165.7056692221
 31
0.0
  0
ARC
  5
224
330
1F
100
AcDbEntity
  8
0
  6
Continuous
 62
     7
370
    30
100
AcDbCircle
 10
467.32108743
 20
177.6659691701
 30
0.0
 40
1.000000000000016
100
AcDbArc
 50
121.5063900763
 51
171.0535617304
  0
LINE
  5
225
330
1F
100
AcDbEntity
  8
0
  6
Continuous
 62
     7
370
    30
100
AcDbLine
 10
576.2251073596
 20
245.5920543172
 30
0.0
 11
466.7984937754
 21
178.518551056
 31
0.0
  0
ARC
  5
226
330
1F
100
AcDbEntity
  8
0
  6
Continuous
 62
     7
370
    30
100
AcDbCircle
 10
465.4137400973
 20
165.5501581445
 30
0.0
 40
1.000000000000085
100
AcDbArc
 50
171.0535617304
 51
240.0026882664
  0
SPLINE
  5
227
330
1F
100
AcDbEntity
  8
0
  6
Continuous
 62
     7
370
    30
100
AcDbSpline
210
0.0
220
0.0
230
1.0
 70
     8
 71
     3
 72
    53
 73
    49
 74
     0
 42
0.000000001
 43
0.00000001
 40
0.0
 40
0.0
 40
0.0
 40
0.0
 40
0.0337638858389288
 40
0.0626731751602422
 40
0.0867776797423955
 40
0.1061190234694472
 40
0.1278103731141144
 40
0.1454217145925395
 40
0.1604839717263188
 40
0.1780117756195818
 40
0.1984489398629511
 40
0.2211875415534268
 40
0.2437658955640361
 40
0.2674218035664372
 40
0.2896112896463142
 40
0.3072694731262476
 40
0.3240247823562068
 40
0.3430537731310817
 40
0.3662602493781773
 40
0.3881699288262103
 40
0.4074443587031881
 40
0.4241062627061587
 40
0.4387530190649774
 40
0.4543502721638095
 40
0.4681665186084081
 40
0.4840758270881929
 40
0.506214955060331
 40
0.5330686529412724
 40
0.555028861966393
 40
0.5734722111570842
 40
0.5907367543240881
 40
0.6103091165742273
 40
0.6361244692961396
 40
0.6666519870479565
 40
0.6918705904425193
 40
0.7138427296125657
 40
0.735112867918317
 40
0.7574101739510304
 40
0.7834830124038146
 40
0.8128946833756499
 40
0.8379979877650162
 40
0.8583765969821244
 40
0.9047252517136728
 40
0.9122793157325769
 40
0.9228910617547184
 40
0.9369906593218196
 40
0.9646353030554111
 40
1.0
 40
1.0
 40
1.0
 40
1.0
 10
578.6548896451626
 20
186.7458037575328
 30
0.0
 10
578.6650720888117
 20
186.7502538972432
 30
0.0
 10
578.6839729368188
 20
186.7585143322798
 30
0.0
 10
578.7096492315486
 20
186.7689022162891
 30
0.0
 10
578.7307412575262
 20
186.777020071208
 30
0.0
 10
578.749394632459
 20
186.7838577209051
 30
0.0
 10
578.7657564676422
 20
186.7895810562951
 30
0.0
 10
578.7806880735528
 20
186.7945613741681
 30
0.0
 10
578.7941033209462
 20
186.7988540993417
 30
0.0
 10
578.8079349442806
 20
186.8030941157932
 30
0.0
 10
578.8234596474898
 20
186.8076086880031
 30
0.0
 10
578.8398891601726
 20
186.8120879267153
 30
0.0
 10
578.8565725174487
 20
186.8163161159387
 30
0.0
 10
578.8726325979671
 20
186.8200688916896
 30
0.0
 10
578.8871221840648
 20
186.8231676354244
 30
0.0
 10
578.8996983379318
 20
186.8256367259532
 30
0.0
 10
578.9109793256293
 20
186.8276812219543
 30
0.0
 10
578.9229522902557
 20
186.8296666148584
 30
0.0
 10
578.9356165940259
 20
186.8315329950488
 30
0.0
 10
578.9479456370943
 20
186.8331011748581
 30
0.0
 10
578.9586393525509
 20
186.834260878926
 30
0.0
 10
578.9676481028337
 20
186.8350879102458
 30
0.0
 10
578.9755641347776
 20
186.8357005882896
 30
0.0
 10
578.9825477587012
 20
186.8361428480159
 30
0.0
 10
578.9887975113228
 20
186.8364632400398
 30
0.0
 10
578.9960241272961
 20
186.8367510318869
 30
0.0
 10
579.0059930287636
 20
186.8369647212496
 30
0.0
 10
579.0166969645694
 20
186.8369112383278
 30
0.0
 10
579.0257774470788
 20
186.8366311551116
 30
0.0
 10
579.0326310104477
 20
186.8362814777551
 30
0.0
 10
579.0387217849299
 20
186.8358651039701
 30
0.0
 10
579.0451366924125
 20
186.8353132955615
 30
0.0
 10
579.0528199754303
 20
186.8344779657503
 30
0.0
 10
579.0605599280137
 20
186.8333938020271
 30
0.0
 10
579.0669729259271
 20
186.8323003824484
 30
0.0
 10
579.072157347318
 20
186.8312828165632
 30
0.0
 10
579.0765977966281
 20
186.8303037454816
 30
0.0
 10
579.0809261961259
 20
186.8292436764685
 30
0.0
 10
579.0852686151477
 20
186.8280587727806
 30
0.0
 10
579.0893570067936
 20
186.8268125026053
 30
0.0
 10
579.0929228956188
 20
186.8256049515166
 30
0.0
 10
579.0968198381439
 20
186.8241724639085
 30
0.0
 10
579.0995830421405
 20
186.823031594125
 30
0.0
 10
579.101688304766
 20
186.8220935355721
 30
0.0
 10
579.1026534768372
 20
186.8216526238218
 30
0.0
 10
579.1041923914229
 20
186.820924994247
 30
0.0
 10
579.1064344710943
 20
186.8198132339448
 30
0.0
 10
579.108353559705
 20
186.8187389831688
 30
0.0
 10
579.1094306696444
 20
186.81813604791
 30
0.0
  0
LINE
  5
228
330
1F
100
AcDbEntity
  8
0
  6
Continuous
 62
     7
370
    30
100
AcDbLine
 10
630.4936628414
 20
108.8437618479
 30
0.0
 11
611.8708566516
 21
225.1913880872
 31
0.0
  0
ARC
  5
229
330
1F
100
AcDbEntity
  8
0
  6
Continuous
 62
     7
370
    30
100
AcDbCircle
 10
610.8834255358
 20
225.0333381219
 30
0.0
 40
1.000000000000035
100
AcDbArc
 50
9.0937273221
 51
60.0026882663
  0
LINE
  5
22A
330
1F
100
AcDbEntity
  8
0
  6
Continuous
 62
     7
370
    30
100
AcDbLine
 10
611.3833849021
 20
225.8993869843
 30
0.0
 11
577.2476603805
 21
245.6055212937
 31
0.0
  0
LINE
  5
22B
330
1F
100
AcDbEntity
  8
0
  6
Continuous
 62
     7
370
    30
100
AcDbLine
 10
548.4363002626
 20
173.3076667522
 30
0.0
 11
552.4191748038
 21
106.6755802043
 31
0.0
  0
ARC
  5
22C
330
1F
100
AcDbEntity
  8
0
  6
Continuous
 62
     7
370
    30
100
AcDbCircle
 10
576.7477010142
 20
244.7394724313
 30
0.0
 40
1.000000000000035
100
AcDbArc
 50
60.0026882663
 51
121.5063900763
  0
ARC
  5
22D
330
1F
100
AcDbEntity
  8
0
  6
Continuous
 62
     7
370
    30
100
AcDbCircle
 10
570.7312211694
 20
127.5470906783
 30
0.0
 40
5.000000000000159
100
AcDbArc
 50
182.3935539368
 51
245.1057251691
  0
LINE
  5
22E
330
1F
100
AcDbEntity
  8
0
  6
Continuous
 62
     7
370
    30
100
AcDbLine
 10
566.6439672145
 20
128.9760266697
 30
0.0
 11
566.2467615654
 21
128.6986313294
 31
0.0
  0
LINE
  5
22F
330
1F
100
AcDbEntity
  8
0
  6
Continuous
 62
     7
370
    30
100
AcDbLine
 10
570.0789199414
 20
122.9633229138
 30
0.0
 11
570.4872071214
 21
123.2241333452
 31
0.0
  0
ARC
  5
230
330
1F
100
AcDbEntity
  8
0
  6
Continuous
 62
     7
370
    30
100
AcDbCircle
 10
571.7298424248
 20
113.4711560548
 30
0.0
 40
5.000000000000159
100
AcDbArc
 50
182.3935539368
 51
245.1057251691
  0
LINE
  5
231
330
1F
100
AcDbEntity
  8
0
  6
Continuous
 62
     7
370
    30
100
AcDbLine
 10
567.6425884699
 20
114.9000920463
 30
0.0
 11
567.2453828209
 21
114.6226967059
 31
0.0
  0
LINE
  5
232
330
1F
100
AcDbEntity
  8
0
  6
Continuous
 62
     7
370
    30
100
AcDbLine
 10
571.0775411968
 20
108.8873882903
 30
0.0
 11
571.4858283768
 21
109.1481987217
 31
0.0
  0
ELLIPSE
  5
233
330
1F
100
AcDbEntity
  8
0
  6
Continuous
 62
     7
370
    30
100
AcDbEllipse
 10
606.8069992132
 20
110.9524437432
 30
0.0
 11
4.3274513250052
 21
7.200495480724854
 31
0.0
210
0.0
220
0.0
230
1.0
 40
0.6006125807
 41
2.030334321660035
 42
3.47218418806618
  0
ELLIPSE
  5
234
330
1F
100
AcDbEntity
  8
0
  6
Continuous
 62
     7
370
    30
100
AcDbEllipse
 10
606.8069992132
 20
110.9524437432
 30
0.0
 11
4.3274513250052
 21
7.200495480724854
 31
0.0
210
0.0
220
0.0
230
1.0
 40
0.6006125807
 41
1.364337883339623
 42
2.030334321660066
  0
LINE
  5
235
330
1F
100
AcDbEntity
  8
0
  6
Continuous
 62
     7
370
    30
100
AcDbLine
 10
589.1404188075
 20
86.0523526583
 30
0.0
 11
612.4340942874
 21
98.7170441984
 31
0.0
  0
LINE
  5
236
330
1F
100
AcDbEntity
  8
0
  6
Continuous
 62
     7
370
    30
100
AcDbLine
 10
618.0940649993
 20
101.79435088
 30
0.0
 11
630.1774015677
 21
108.3640195674
 31
0.0
  0
ELLIPSE
  5
237
330
1F
100
AcDbEntity
  8
0
  6
Continuous
 62
     7
370
    30
100
AcDbEllipse
 10
588.4541685555
 20
86.4722956226
 30
0.0
 11
1.002091448163014
 21
0.002602071433628339
 31
0.0
210
0.0
220
0.0
230
1.0
 40
0.5767014953
 41
3.923488829739094
 42
5.465244342953349
  0
LWPOLYLINE
  5
238
330
1F
100
AcDbEntity
  8
0
  6
Continuous
 62
     7
370
    30
100
AcDbPolyline
 90
      201
 70
   128
 43
0.0
 10
567.9257407328
 20
128.6211906956
 10
567.8458805459
 20
128.6659607681
 10
567.7662962752
 20
128.7079084084
 10
567.6870664606
 20
128.7469922191
 10
567.6082692924
 20
128.7831736293
 10
567.529982534
 20
128.8164169322
 10
567.4522834448
 20
128.8466893209
 10
567.3752487045
 20
128.87396092
 10
567.2989543371
 20
128.8982048158
 10
567.223475636
 20
128.9193970825
 10
567.1488870894
 20
128.9375168059
 10
567.0752623073
 20
128.9525461039
 10
567.0026739484
 20
128.9644701446
 10
566.9311936488
 20
128.9732771603
 10
566.8608919508
 20
128.9789584596
 10
566.7918382336
 20
128.9815084356
 10
566.7241006451
 20
128.980924572
 10
566.657746034
 20
128.9772074448
 10
566.5928398843
 20
128.9703607225
 10
566.5294462505
 20
128.9603911618
 10
566.4676276945
 20
128.9473086017
 10
566.4074452238
 20
128.9311259529
 10
566.3489582312
 20
128.9118591859
 10
566.2922244362
 20
128.8895273145
 10
566.2372998284
 20
128.8641523777
 10
566.1842386115
 20
128.8357594174
 10
566.1330931508
 20
128.8043764541
 10
566.0839139205
 20
128.7700344589
 10
566.0367494546
 20
128.7327673233
 10
565.9916462988
 20
128.6926118255
 10
565.9486489644
 20
128.649607594
 10
565.9077998846
 20
128.6037970688
 10
565.8691393725
 20
128.5552254594
 10
565.8327055814
 20
128.5039407001
 10
565.798534467
 20
128.4499934028
 10
565.7666597521
 20
128.393436807
 10
565.7371128932
 20
128.3343267271
 10
565.7099230494
 20
128.2727214977
 10
565.6851170539
 20
128.2086819158
 10
565.6627193872
 20
128.1422711805
 10
565.642752153
 20
128.0735548315
 10
565.6252350567
 20
128.0026006832
 10
565.6101853854
 20
127.9294787591
 10
565.5976179915
 20
127.8542612214
 10
565.5875452773
 20
127.777022301
 10
565.5799771835
 20
127.6978382233
 10
565.5749211788
 20
127.6167871333
 10
565.5723822529
 20
127.5339490188
 10
565.5723629114
 20
127.4494056309
 10
565.5748631735
 20
127.3632404038
 10
565.5798805716
 20
127.2755383722
 10
565.5874101542
 20
127.1863860873
 10
565.5974444904
 20
127.0958715318
 10
565.6099736777
 20
127.0040840325
 10
565.6249853512
 20
126.9111141726
 10
565.6424646962
 20
126.8170537021
 10
565.6623944627
 20
126.7219954475
 10
565.6847549825
 20
126.6260332197
 10
565.7095241884
 20
126.5292617218
 10
565.7366776361
 20
126.4317764556
 10
565.7661885286
 20
126.3336736273
 10
565.798027742
 20
126.2350500526
 10
565.8321638551
 20
126.136003061
 10
565.8685631794
 20
126.0366304
 10
565.9071897934
 20
125.9370301383
 10
565.9480055772
 20
125.8373005694
 10
565.9909702505
 20
125.7375401143
 10
566.0360414125
 20
125.6378472246
 10
566.0831745832
 20
125.5383202851
 10
566.132323248
 20
125.4390575169
 10
566.183438903
 20
125.3401568804
 10
566.2364711033
 20
125.2417159785
 10
566.2913675126
 20
125.1438319605
 10
566.3480739546
 20
125.0466014261
 10
566.4065344669
 20
124.9501203302
 10
566.4666913562
 20
124.8544838879
 10
566.5284852547
 20
124.7597864809
 10
566.5918551794
 20
124.666121564
 10
566.6567385919
 20
124.5735815732
 10
566.72307146
 20
124.4822578343
 10
566.7907883212
 20
124.3922404729
 10
566.8598223471
 20
124.3036183251
 10
566.9301054095
 20
124.2164788504
 10
567.0015681474
 20
124.1309080449
 10
567.0741400359
 20
124.0469903566
 10
567.1477494552
 20
123.9648086022
 10
567.2223237616
 20
123.8844438852
 10
567.2977893594
 20
123.8059755157
 10
567.3740717731
 20
123.7294809327
 10
567.4510957212
 20
123.655035627
 10
567.5287851903
 20
123.5827130672
 10
567.6070635103
 20
123.5125846269
 10
567.6858534301
 20
123.4447195144
 10
567.7650771933
 20
123.3791847044
 10
567.8446566158
 20
123.3160448718
 10
567.9245131622
 20
123.255362328
 10
568.0045680239
 20
123.1971969594
 10
568.0847421962
 20
123.1416061681
 10
568.164956557
 20
123.0886448156
 10
568.2451319444
 20
123.0383651683
 10
568.3251892349
 20
122.9908168462
 10
568.4050494218
 20
122.9460467737
 10
568.4846336925
 20
122.9040991335
 10
568.5638635071
 20
122.8650153228
 10
568.6426606753
 20
122.8288339126
 10
568.7209474337
 20
122.7955906096
 10
568.7986465229
 20
122.765318221
 10
568.8756812632
 20
122.7380466218
 10
568.9519756306
 20
122.7138027261
 10
569.0274543317
 20
122.6926104594
 10
569.1020428783
 20
122.674490736
 10
569.1756676604
 20
122.6594614379
 10
569.2482560193
 20
122.6475373972
 10
569.3197363189
 20
122.6387303815
 10
569.3900380169
 20
122.6330490822
 10
569.4590917341
 20
122.6304991062
 10
569.5268293226
 20
122.6310829698
 10
569.5931839337
 20
122.634800097
 10
569.6580900834
 20
122.6416468194
 10
569.7214837172
 20
122.65161638
 10
569.7833022732
 20
122.6646989401
 10
569.8434847439
 20
122.6808815889
 10
569.9019717365
 20
122.7001483559
 10
569.9587055315
 20
122.7224802273
 10
570.0136301393
 20
122.7478551641
 10
570.0666913562
 20
122.7762481244
 10
570.1178368169
 20
122.8076310877
 10
570.1670160472
 20
122.8419730829
 10
570.2141805131
 20
122.8792402185
 10
570.2592836689
 20
122.9193957164
 10
570.3022810033
 20
122.9623999479
 10
570.3431300831
 20
123.0082104731
 10
570.3817905952
 20
123.0567820824
 10
570.4182243863
 20
123.1080668417
 10
570.4523955007
 20
123.162014139
 10
570.4842702156
 20
123.2185707349
 10
570.5138170745
 20
123.2776808147
 10
570.5410069183
 20
123.3392860441
 10
570.5658129138
 20
123.4033256261
 10
570.5882105805
 20
123.4697363613
 10
570.6081778147
 20
123.5384527104
 10
570.625694911
 20
123.6094068586
 10
570.6407445823
 20
123.6825287828
 10
570.6533119762
 20
123.7577463204
 10
570.6633846904
 20
123.8349852408
 10
570.6709527842
 20
123.9141693186
 10
570.6760087889
 20
123.9952204085
 10
570.6785477148
 20
124.0780585231
 10
570.6785670563
 20
124.1626019109
 10
570.6760667942
 20
124.248767138
 10
570.6710493961
 20
124.3364691696
 10
570.6635198135
 20
124.4256214545
 10
570.6534854773
 20
124.5161360101
 10
570.64095629
 20
124.6079235094
 10
570.6259446165
 20
124.7008933693
 10
570.6084652715
 20
124.7949538397
 10
570.588535505
 20
124.8900120943
 10
570.5661749852
 20
124.9859743222
 10
570.5414057793
 20
125.0827458201
 10
570.5142523316
 20
125.1802310862
 10
570.4847414391
 20
125.2783339145
 10
570.4529022257
 20
125.3769574892
 10
570.4187661126
 20
125.4760044808
 10
570.3823667883
 20
125.5753771419
 10
570.3437401743
 20
125.6749774036
 10
570.3029243905
 20
125.7747069725
 10
570.2599597172
 20
125.8744674275
 10
570.2148885552
 20
125.9741603172
 10
570.1677553845
 20
126.0736872567
 10
570.1186067197
 20
126.1729500249
 10
570.0674910647
 20
126.2718506614
 10
570.0144588644
 20
126.3702915633
 10
569.9595624551
 20
126.4681755813
 10
569.9028560131
 20
126.5654061157
 10
569.8443955008
 20
126.6618872116
 10
569.7842386115
 20
126.7575236539
 10
569.722444713
 20
126.852221061
 10
569.6590747883
 20
126.9458859779
 10
569.5941913758
 20
127.0384259687
 10
569.5278585077
 20
127.1297497075
 10
569.4601416465
 20
127.219767069
 10
569.3911076206
 20
127.3083892167
 10
569.3208245582
 20
127.3955286914
 10
569.2493618203
 20
127.4810994969
 10
569.1767899318
 20
127.5650171852
 10
569.1031805126
 20
127.6471989396
 10
569.0286062061
 20
127.7275636567
 10
568.9531406083
 20
127.8060320261
 10
568.8768581946
 20
127.8825266091
 10
568.7998342465
 20
127.9569719148
 10
568.7221447774
 20
128.0292944746
 10
568.6438664574
 20
128.0994229149
 10
568.5650765376
 20
128.1672880274
 10
568.4858527744
 20
128.2328228374
 10
568.4062733519
 20
128.29596267
 10
568.3264168055
 20
128.3566452138
 10
568.2463619438
 20
128.4148105824
 10
568.1661877715
 20
128.4704013737
 10
568.0859734107
 20
128.5233627262
 10
568.0057980233
 20
128.5736423735
 10
567.9257407328
 20
128.6211906956
  0
LWPOLYLINE
  5
239
330
1F
100
AcDbEntity
  8
0
  6
Continuous
 62
     7
370
    30
100
AcDbPolyline
 90
      201
 70
   128
 43
0.0
 10
568.9243619882
 20
114.5452560721
 10
569.0044192787
 20
114.49770775
 10
569.0845946661
 20
114.4474281027
 10
569.1648090269
 20
114.3944667502
 10
569.2449831993
 20
114.338875959
 10
569.3250380609
 20
114.2807105904
 10
569.4048946073
 20
114.2200280466
 10
569.4844740298
 20
114.156888214
 10
569.5636977931
 20
114.091353404
 10
569.6424877128
 20
114.0234882915
 10
569.7207660328
 20
113.9533598512
 10
569.798455502
 20
113.8810372913
 10
569.87547945
 20
113.8065919857
 10
569.9517618638
 20
113.7300974026
 10
570.0272274615
 20
113.6516290332
 10
570.101801768
 20
113.5712643161
 10
570.1754111872
 20
113.4890825617
 10
570.2479830757
 20
113.4051648735
 10
570.3194458137
 20
113.319594068
 10
570.3897288761
 20
113.2324545933
 10
570.458762902
 20
113.1438324455
 10
570.5264797631
 20
113.0538150841
 10
570.5928126312
 20
112.9624913452
 10
570.6576960437
 20
112.8699513544
 10
570.7210659684
 20
112.7762864375
 10
570.782859867
 20
112.6815890305
 10
570.8430167562
 20
112.5859525882
 10
570.9014772686
 20
112.4894714922
 10
570.9581837106
 20
112.3922409579
 10
571.0130801198
 20
112.2943569399
 10
571.0661123201
 20
112.195916038
 10
571.1172279752
 20
112.0970154014
 10
571.1663766399
 20
111.9977526332
 10
571.2135098107
 20
111.8982256937
 10
571.2585809726
 20
111.798532804
 10
571.3015456459
 20
111.698772349
 10
571.3423614297
 20
111.5990427801
 10
571.3809880437
 20
111.4994425184
 10
571.4173873681
 20
111.4000698574
 10
571.4515234811
 20
111.3010228658
 10
571.4833626946
 20
111.2023992911
 10
571.512873587
 20
111.1042964628
 10
571.5400270348
 20
111.0068111966
 10
571.5647962406
 20
110.9100396987
 10
571.5871567604
 20
110.8140774709
 10
571.6070865269
 20
110.7190192162
 10
571.6245658719
 20
110.6249587458
 10
571.6395775454
 20
110.5319888859
 10
571.6521067327
 20
110.4402013866
 10
571.662141069
 20
110.349686831
 10
571.6696706516
 20
110.2605345462
 10
571.6746880496
 20
110.1728325145
 10
571.6771883117
 20
110.0866672874
 10
571.6771689702
 20
110.0021238996
 10
571.6746300443
 20
109.9192857851
 10
571.6695740397
 20
109.8382346951
 10
571.6620059458
 20
109.7590506174
 10
571.6519332317
 20
109.6818116969
 10
571.6393658377
 20
109.6065941593
 10
571.6243161665
 20
109.5334722351
 10
571.6067990701
 20
109.4625180869
 10
571.586831836
 20
109.3938017378
 10
571.5644341692
 20
109.3273910026
 10
571.5396281737
 20
109.2633514206
 10
571.51243833
 20
109.2017461913
 10
571.482891471
 20
109.1426361114
 10
571.4510167561
 20
109.0860795155
 10
571.4168456417
 20
109.0321322182
 10
571.3804118506
 20
108.980847459
 10
571.3417513385
 20
108.9322758496
 10
571.3009022587
 20
108.8864653244
 10
571.2579049243
 20
108.8434610929
 10
571.2128017685
 20
108.803305595
 10
571.1656373026
 20
108.7660384594
 10
571.1164580723
 20
108.7316964643
 10
571.0653126116
 20
108.7003135009
 10
571.0122513948
 20
108.6719205407
 10
570.9573267869
 20
108.6465456038
 10
570.900592992
 20
108.6242137325
 10
570.8421059993
 20
108.6049469654
 10
570.7819235286
 20
108.5887643167
 10
570.7201049726
 20
108.5756817565
 10
570.6567113388
 20
108.5657121959
 10
570.5918051891
 20
108.5588654736
 10
570.525450578
 20
108.5551483464
 10
570.4577129895
 20
108.5545644827
 10
570.3886592724
 20
108.5571144588
 10
570.3183575743
 20
108.562795758
 10
570.2468772747
 20
108.5716027737
 10
570.1742889158
 20
108.5835268144
 10
570.1006641337
 20
108.5985561125
 10
570.0260755872
 20
108.6166758359
 10
569.950596886
 20
108.6378681026
 10
569.8743025186
 20
108.6621119984
 10
569.7972677783
 20
108.6893835975
 10
569.7195686892
 20
108.7196559861
 10
569.6412819307
 20
108.7528992891
 10
569.5624847625
 20
108.7890806993
 10
569.4832549479
 20
108.82816451
 10
569.4036706772
 20
108.8701121502
 10
569.3238104904
 20
108.9148822228
 10
569.2437531998
 20
108.9624305449
 10
569.1635778124
 20
109.0127101922
 10
569.0833634516
 20
109.0656715447
 10
569.0031892793
 20
109.1212623359
 10
568.9231344177
 20
109.1794277045
 10
568.8432778712
 20
109.2401102483
 10
568.7636984487
 20
109.3032500809
 10
568.6844746855
 20
109.3687848909
 10
568.6056847658
 20
109.4366500034
 10
568.5274064457
 20
109.5067784438
 10
568.4497169766
 20
109.5791010036
 10
568.3726930285
 20
109.6535463092
 10
568.2964106148
 20
109.7300408923
 10
568.220945017
 20
109.8085092617
 10
568.1463707106
 20
109.8888739788
 10
568.0727612913
 20
109.9710557332
 10
568.0001894029
 20
110.0549734214
 10
567.9287266649
 20
110.1405442269
 10
567.8584436025
 20
110.2276837016
 10
567.7894095766
 20
110.3163058494
 10
567.7216927154
 20
110.4063232108
 10
567.6553598473
 20
110.4976469497
 10
567.5904764349
 20
110.5901869405
 10
567.5271065101
 20
110.6838518574
 10
567.4653126116
 20
110.7785492644
 10
567.4051557223
 20
110.8741857067
 10
567.34669521
 20
110.9706668027
 10
567.289988768
 20
111.067897337
 10
567.2350923588
 20
111.165781355
 10
567.1820601584
 20
111.2642222569
 10
567.1309445034
 20
111.3631228935
 10
567.0817958386
 20
111.4623856617
 10
567.0346626679
 20
111.5619126012
 10
566.989591506
 20
111.6616054909
 10
566.9466268326
 20
111.7613659459
 10
566.9058110489
 20
111.8610955148
 10
566.8671844349
 20
111.9606957765
 10
566.8307851105
 20
112.0600684375
 10
566.7966489975
 20
112.1591154291
 10
566.764809784
 20
112.2577390038
 10
566.7352988915
 20
112.3558418321
 10
566.7081454438
 20
112.4533270983
 10
566.6833762379
 20
112.5500985962
 10
566.6610157182
 20
112.646060824
 10
566.6410859517
 20
112.7411190787
 10
566.6236066066
 20
112.8351795491
 10
566.6085949331
 20
112.928149409
 10
566.5960657459
 20
113.0199369083
 10
566.5860314096
 20
113.1104514639
 10
566.578501827
 20
113.1996037487
 10
566.5734844289
 20
113.2873057804
 10
566.5709841669
 20
113.3734710075
 10
566.5710035083
 20
113.4580143953
 10
566.5735424342
 20
113.5408525098
 10
566.5785984389
 20
113.6219035998
 10
566.5861665327
 20
113.7010876775
 10
566.5962392469
 20
113.778326598
 10
566.6088066409
 20
113.8535441356
 10
566.6238563121
 20
113.9266660598
 10
566.6413734084
 20
113.997620208
 10
566.6613406426
 20
114.0663365571
 10
566.6837383093
 20
114.1327472923
 10
566.7085443048
 20
114.1967868743
 10
566.7357341486
 20
114.2583921036
 10
566.7652810075
 20
114.3175021835
 10
566.7971557224
 20
114.3740587794
 10
566.8313268368
 20
114.4280060767
 10
566.8677606279
 20
114.4792908359
 10
566.90642114
 20
114.5278624453
 10
566.9472702198
 20
114.5736729705
 10
566.9902675542
 20
114.616677202
 10
567.03537071
 20
114.6568326999
 10
567.0825351759
 20
114.6940998355
 10
567.1317144062
 20
114.7284418306
 10
567.182859867
 20
114.759824794
 10
567.2359210838
 20
114.7882177542
 10
567.2908456916
 20
114.8135926911
 10
567.3475794866
 20
114.8359245624
 10
567.4060664792
 20
114.8551913295
 10
567.46624895
 20
114.8713739782
 10
567.5280675059
 20
114.8844565384
 10
567.5914611397
 20
114.894426099
 10
567.6563672894
 20
114.9012728213
 10
567.7227219005
 20
114.9049899485
 10
567.7904594891
 20
114.9055738122
 10
567.8595132062
 20
114.9030238361
 10
567.9298149042
 20
114.8973425369
 10
568.0012952039
 20
114.8885355212
 10
568.0738835627
 20
114.8766114805
 10
568.1475083448
 20
114.8615821824
 10
568.2220968914
 20
114.843462459
 10
568.2975755926
 20
114.8222701923
 10
568.3738699599
 20
114.7980262965
 10
568.4509047002
 20
114.7707546974
 10
568.5286037894
 20
114.7404823088
 10
568.6068905479
 20
114.7072390058
 10
568.685687716
 20
114.6710575956
 10
568.7649175306
 20
114.6319737849
 10
568.8445018014
 20
114.5900261447
 10
568.9243619882
 20
114.5452560721
  0
LINE
  5
23A
330
1F
100
AcDbEntity
  8
0
  6
Continuous
 62
     7
370
    30
100
AcDbLine
 10
552.7110810623
 20
106.2874082167
 30
0.0
 11
587.7441631644
 21
86.0632404027
 31
0.0
  0
ELLIPSE
  5
23B
330
1F
100
AcDbEntity
  8
0
  6
Continuous
 62
     7
370
    30
100
AcDbEllipse
 10
629.4905572519
 20
108.7836395413
 30
0.0
 11
1.007330983792713
 21
0.01041413165326333
 31
0.0
210
0.0
220
0.0
230
1.0
 40
0.575852131
 41
5.456702061076953
 42
6.369049780108597
  0
ELLIPSE
  5
23C
330
1F
100
AcDbEntity
  8
0
  6
Continuous
 62
     7
370
    30
100
AcDbEllipse
 10
553.4196622626
 20
106.6972856045
 30
0.0
 11
1.001082868475805
 21
0.002609942050369796
 31
0.0
210
0.0
220
0.0
230
1.0
 40
0.5778640897
 41
3.174610261723915
 42
3.924483702226995
  0
SPLINE
  5
23D
330
1F
100
AcDbEntity
  8
0
  6
Continuous
 62
     7
370
    30
100
AcDbSpline
210
0.0
220
0.0
230
1.0
 70
     8
 71
     3
 72
    11
 73
     7
 74
     0
 42
0.000000001
 43
0.00000001
 40
0.0
 40
0.0
 40
0.0
 40
0.0
 40
0.2708843901000637
 40
0.6082736958441399
 40
0.9453464347476528
 40
1.0
 40
1.0
 40
1.0
 40
1.0
 10
601.6536186654906
 20
104.4774567105095
 30
0.0
 10
601.7091355944983
 20
104.4656598422636
 30
0.0
 10
601.8337994320011
 20
104.4391698527718
 30
0.0
 10
602.03109672735
 20
104.4101189524563
 30
0.0
 10
602.1842762471675
 20
104.3914026413609
 30
0.0
 10
602.2676552016378
 20
104.3865011038395
 30
0.0
 10
602.279288214485
 20
104.3858172424344
 30
0.0
  0
LWPOLYLINE
  5
23E
330
1F
100
AcDbEntity
  8
0
  6
Continuous
 62
     7
370
    30
100
AcDbPolyline
 90
      144
 70
   128
 43
0.0
 10
565.7355834944
 20
127.3382744426
 10
565.7333220116
 20
127.4199201658
 10
565.7334666162
 20
127.5024893411
 10
565.7361246296
 20
127.5833523253
 10
565.7412933204
 20
127.6624260263
 10
565.7489673776
 20
127.7396291904
 10
565.7591389154
 20
127.8148824863
 10
565.7717974819
 20
127.8881085859
 10
565.7869300696
 20
127.9592322446
 10
565.8045211288
 20
128.0281803781
 10
565.8245525834
 20
128.0948821373
 10
565.8470038497
 20
128.1592689819
 10
565.8718518577
 20
128.2212747499
 10
565.8990710742
 20
128.2808357262
 10
565.9286335296
 20
128.3378907078
 10
565.9605088467
 20
128.3923810671
 10
565.9946642712
 20
128.4442508113
 10
566.0310647062
 20
128.4934466409
 10
566.0696727479
 20
128.5399180037
 10
566.1104487237
 20
128.5836171475
 10
566.1533507337
 20
128.6244991682
 10
566.1983346932
 20
128.6625220569
 10
566.245354378
 20
128.6976467424
 10
566.2943614723
 20
128.7298371319
 10
566.345305618
 20
128.7590601475
 10
566.3981344665
 20
128.7852857605
 10
566.4527937325
 20
128.8084870224
 10
566.5092272501
 20
128.8286400923
 10
566.56737703
 20
128.8457242616
 10
566.6271833193
 20
128.8597219751
 10
566.688584663
 20
128.8706188493
 10
566.7515179671
 20
128.8784036868
 10
566.8159185634
 20
128.8830684882
 10
566.8817202759
 20
128.8846084601
 10
566.9488554889
 20
128.8830220202
 10
567.0172552164
 20
128.8783107985
 10
567.0868491731
 20
128.8704796361
 10
567.1575658464
 20
128.8595365802
 10
567.2293325703
 20
128.8454928754
 10
567.3020755996
 20
128.8283629526
 10
567.3757201858
 20
128.808164414
 10
567.4501906543
 20
128.7849180149
 10
567.5254104815
 20
128.7586476425
 10
567.601302374
 20
128.7293802915
 10
567.6777883477
 20
128.697146036
 10
567.7547898082
 20
128.6619779989
 10
567.8322276312
 20
128.6239123177
 10
567.9100222441
 20
128.5829881076
 10
567.9880937078
 20
128.5392474208
 10
568.0663617985
 20
128.492735204
 10
568.1447460904
 20
128.4434992515
 10
568.2231660384
 20
128.3915901566
 10
568.3015410607
 20
128.3370612594
 10
568.3797906216
 20
128.2799685921
 10
568.4578343145
 20
128.2203708212
 10
568.5355919442
 20
128.1583291875
 10
568.6129836095
 20
128.0939074429
 10
568.6899297851
 20
128.0271717852
 10
568.7663514037
 20
127.9581907897
 10
568.8421699369
 20
127.887035339
 10
568.9173074761
 20
127.8137785503
 10
568.9916868124
 20
127.7384956998
 10
569.0652315158
 20
127.6612641457
 10
569.1378660144
 20
127.5821632486
 10
569.2095156712
 20
127.5012742902
 10
569.2801068614
 20
127.4186803892
 10
569.3495670477
 20
127.3344664165
 10
569.4178248551
 20
127.2487189076
 10
569.4848101442
 20
127.1615259739
 10
569.5504540829
 20
127.0729772121
 10
569.6146892178
 20
126.9831636119
 10
569.6774495428
 20
126.8921774629
 10
569.7386705674
 20
126.8001122595
 10
569.7982893831
 20
126.707062605
 10
569.8562447273
 20
126.6131241141
 10
569.9124770471
 20
126.518393315
 10
569.9669285599
 20
126.4229675501
 10
570.0195433131
 20
126.3269448756
 10
570.0702672415
 20
126.2304239615
 10
570.1190482229
 20
126.1335039895
 10
570.1658361315
 20
126.0362845514
 10
570.2105828895
 20
125.9388655467
 10
570.2532425167
 20
125.84134708
 10
570.2937711773
 20
125.7438293583
 10
570.3321272255
 20
125.6464125875
 10
570.3682712478
 20
125.5491968699
 10
570.4021661038
 20
125.4522821013
 10
570.4337769642
 20
125.3557678682
 10
570.4630713468
 20
125.2597533454
 10
570.4900191495
 20
125.1643371943
 10
570.5145926817
 20
125.0696174615
 10
570.5367666925
 20
124.975691478
 10
570.5565183964
 20
124.882655759
 10
570.5738274974
 20
124.790605905
 10
570.5886762091
 20
124.6996365035
 10
570.6010492735
 20
124.6098410317
 10
570.6109339765
 20
124.5213117604
 10
570.6183201607
 20
124.4341396595
 10
570.6232002365
 20
124.3484143043
 10
570.6255691892
 20
124.2642237833
 10
570.6254245846
 20
124.181654608
 10
570.6227665712
 20
124.1007916238
 10
570.6175978804
 20
124.0217179228
 10
570.6099238232
 20
123.9445147587
 10
570.5997522854
 20
123.8692614628
 10
570.5870937189
 20
123.7960353632
 10
570.5719611312
 20
123.7249117045
 10
570.554370072
 20
123.655963571
 10
570.5343386174
 20
123.5892618117
 10
570.511887351
 20
123.5248749672
 10
570.4870393431
 20
123.4628691992
 10
570.4598201266
 20
123.4033082229
 10
570.4302576712
 20
123.3462532412
 10
570.3983823541
 20
123.291762882
 10
570.3642269296
 20
123.2398931378
 10
570.3278264946
 20
123.1906973082
 10
570.2892184529
 20
123.1442259453
 10
570.2484424771
 20
123.1005268016
 10
570.2055404671
 20
123.0596447809
 10
570.1605565076
 20
123.0216218922
 10
570.1135368228
 20
122.9864972067
 10
570.0645297285
 20
122.9543068172
 10
570.0135855828
 20
122.9250838016
 10
569.9607567343
 20
122.8988581886
 10
569.9060974682
 20
122.8756569267
 10
569.8496639506
 20
122.8555038568
 10
569.7915141708
 20
122.8384196875
 10
569.7317078815
 20
122.824421974
 10
569.6703065378
 20
122.8135250998
 10
569.6073732337
 20
122.8057402623
 10
569.5429726374
 20
122.8010754609
 10
569.4771709249
 20
122.799535489
 10
569.4100357119
 20
122.8011219289
 10
569.3416359844
 20
122.8058331506
 10
569.2720420277
 20
122.813664313
 10
569.2013253544
 20
122.8246073689
 10
569.1295586305
 20
122.8386510737
 10
569.0568156012
 20
122.8557809965
 10
568.9831710149
 20
122.8759795351
 10
568.9087005465
 20
122.8992259342
 10
568.8334807193
 20
122.9254963066
 10
568.7575888268
 20
122.9547636576
 10
568.6811028531
 20
122.9869979131
 10
568.6264952861
 20
123.0116602735
  0
LWPOLYLINE
  5
23F
330
1F
100
AcDbEntity
  8
0
  6
Continuous
 62
     7
370
    30
100
AcDbPolyline
 90
      144
 70
   128
 43
0.0
 10
566.7342047498
 20
113.2623398192
 10
566.731943267
 20
113.3439855423
 10
566.7320878716
 20
113.4265547176
 10
566.734745885
 20
113.5074177019
 10
566.7399145759
 20
113.5864914028
 10
566.747588633
 20
113.663694567
 10
566.7577601708
 20
113.7389478628
 10
566.7704187373
 20
113.8121739624
 10
566.785551325
 20
113.8832976212
 10
566.8031423842
 20
113.9522457546
 10
566.8231738388
 20
114.0189475139
 10
566.8456251052
 20
114.0833343584
 10
566.8704731131
 20
114.1453401264
 10
566.8976923296
 20
114.2049011027
 10
566.9272547851
 20
114.2619560844
 10
566.9591301021
 20
114.3164464436
 10
566.9932855266
 20
114.3683161878
 10
567.0296859617
 20
114.4175120174
 10
567.0682940033
 20
114.4639833803
 10
567.1090699792
 20
114.507682524
 10
567.1519719892
 20
114.5485645447
 10
567.1969559486
 20
114.5865874334
 10
567.2439756334
 20
114.621712119
 10
567.2929827277
 20
114.6539025084
 10
567.3439268734
 20
114.683125524
 10
567.3967557219
 20
114.709351137
 10
567.451414988
 20
114.7325523989
 10
567.5078485056
 20
114.7527054688
 10
567.5659982854
 20
114.7697896381
 10
567.6258045747
 20
114.7837873516
 10
567.6872059184
 20
114.7946842258
 10
567.7501392226
 20
114.8024690633
 10
567.8145398188
 20
114.8071338647
 10
567.8803415313
 20
114.8086738367
 10
567.9474767443
 20
114.8070873967
 10
568.0158764718
 20
114.802376175
 10
568.0854704285
 20
114.7945450127
 10
568.1561871019
 20
114.7836019567
 10
568.2279538258
 20
114.7695582519
 10
568.300696855
 20
114.7524283292
 10
568.3743414413
 20
114.7322297905
 10
568.4488119097
 20
114.7089833914
 10
568.5240317369
 20
114.682713019
 10
568.5999236294
 20
114.653445668
 10
568.6764096031
 20
114.6212114125
 10
568.7534110636
 20
114.5860433754
 10
568.8308488866
 20
114.5479776943
 10
568.9086434996
 20
114.5070534841
 10
568.9867149632
 20
114.4633127974
 10
569.0649830539
 20
114.4168005805
 10
569.1433673458
 20
114.367564628
 10
569.2217872938
 20
114.3156555331
 10
569.3001623161
 20
114.2611266359
 10
569.3784118771
 20
114.2040339686
 10
569.45645557
 20
114.1444361978
 10
569.5342131996
 20
114.082394564
 10
569.6116048649
 20
114.0179728195
 10
569.6885510405
 20
113.9512371617
 10
569.7649726591
 20
113.8822561662
 10
569.8407911924
 20
113.8111007156
 10
569.9159287316
 20
113.7378439268
 10
569.9903080678
 20
113.6625610763
 10
570.0638527713
 20
113.5853295222
 10
570.1364872698
 20
113.5062286252
 10
570.2081369266
 20
113.4253396667
 10
570.2787281168
 20
113.3427457657
 10
570.3481883031
 20
113.258531793
 10
570.4164461106
 20
113.1727842842
 10
570.4834313996
 20
113.0855913505
 10
570.5490753383
 20
112.9970425886
 10
570.6133104732
 20
112.9072289884
 10
570.6760707982
 20
112.8162428394
 10
570.7372918229
 20
112.724177636
 10
570.7969106385
 20
112.6311279815
 10
570.8548659827
 20
112.5371894906
 10
570.9110983025
 20
112.4424586916
 10
570.9655498153
 20
112.3470329266
 10
571.0181645685
 20
112.2510102522
 10
571.0688884969
 20
112.1544893381
 10
571.1176694783
 20
112.057569366
 10
571.1644573869
 20
111.9603499279
 10
571.2092041449
 20
111.8629309232
 10
571.2518637721
 20
111.7654124566
 10
571.2923924328
 20
111.6678947348
 10
571.3307484809
 20
111.570477964
 10
571.3668925032
 20
111.4732622465
 10
571.4007873592
 20
111.3763474779
 10
571.4323982197
 20
111.2798332447
 10
571.4616926022
 20
111.1838187219
 10
571.4886404049
 20
111.0884025708
 10
571.5132139371
 20
110.9936828381
 10
571.5353879479
 20
110.8997568545
 10
571.5551396518
 20
110.8067211355
 10
571.5724487528
 20
110.7146712816
 10
571.5872974645
 20
110.62370188
 10
571.5996705289
 20
110.5339064082
 10
571.6095552319
 20
110.4453771369
 10
571.6169414162
 20
110.3582050361
 10
571.6218214919
 20
110.2724796809
 10
571.6241904447
 20
110.1882891599
 10
571.62404584
 20
110.1057199845
 10
571.6213878266
 20
110.0248570003
 10
571.6162191358
 20
109.9457832993
 10
571.6085450787
 20
109.8685801352
 10
571.5983735409
 20
109.7933268394
 10
571.5857149743
 20
109.7201007397
 10
571.5705823866
 20
109.648977081
 10
571.5529913274
 20
109.5800289476
 10
571.5329598728
 20
109.5133271883
 10
571.5105086065
 20
109.4489403437
 10
571.4856605985
 20
109.3869345758
 10
571.458441382
 20
109.3273735995
 10
571.4288789266
 20
109.2703186178
 10
571.3970036096
 20
109.2158282586
 10
571.362848185
 20
109.1639585143
 10
571.32644775
 20
109.1147626848
 10
571.2878397084
 20
109.0682913219
 10
571.2470637325
 20
109.0245921782
 10
571.2041617225
 20
108.9837101575
 10
571.159177763
 20
108.9456872688
 10
571.1121580782
 20
108.9105625832
 10
571.0631509839
 20
108.8783721937
 10
571.0122068382
 20
108.8491491782
 10
570.9593779898
 20
108.8229235651
 10
570.9047187237
 20
108.7997223032
 10
570.8482852061
 20
108.7795692333
 10
570.7901354262
 20
108.762485064
 10
570.7303291369
 20
108.7484873505
 10
570.6689277932
 20
108.7375904764
 10
570.6059944891
 20
108.7298056389
 10
570.5415938928
 20
108.7251408374
 10
570.4757921803
 20
108.7236008655
 10
570.4086569673
 20
108.7251873055
 10
570.3402572398
 20
108.7298985272
 10
570.2706632832
 20
108.7377296895
 10
570.1999466098
 20
108.7486727454
 10
570.1281798859
 20
108.7627164502
 10
570.0554368566
 20
108.779846373
 10
569.9817922704
 20
108.8000449116
 10
569.9073218019
 20
108.8232913108
 10
569.8321019747
 20
108.8495616831
 10
569.7562100822
 20
108.8788290342
 10
569.6797241085
 20
108.9110632896
 10
569.6251165415
 20
108.9357256501
  0
LWPOLYLINE
  5
240
330
1F
100
AcDbEntity
  8
0
  6
Continuous
 62
     8
370
     0
100
AcDbPolyline
 90
       46
 70
   128
 43
0.0
 10
477.7296610463
 20
157.2856590565
 10
477.766133352
 20
157.1992904439
 10
477.8325799481
 20
157.0555791159
 10
477.9059718457
 20
156.9124672991
 10
477.9862587458
 20
156.7700530751
 10
478.0733856237
 20
156.6284340476
 10
478.167292767
 20
156.487707275
 10
478.2679158163
 20
156.3479692047
 10
478.3751858098
 20
156.2093156059
 10
478.48902923
 20
156.071841505
 10
478.6093680541
 20
155.9356411199
 10
478.7361198081
 20
155.8008077956
 10
478.8691976225
 20
155.6674339399
 10
479.0085102925
 20
155.5356109608
 10
479.1539623402
 20
155.405429203
 10
479.30545408
 20
155.2769778867
 10
479.462881687
 20
155.150345046
 10
479.6261372682
 20
155.0256174688
 10
479.7951089363
 20
154.9028806369
 10
479.9696808867
 20
154.7822186683
 10
480.1497334764
 20
154.6637142585
 10
480.3351433064
 20
154.5474486245
 10
480.5257833061
 20
154.433501449
 10
480.7215228203
 20
154.3219508257
 10
480.9222276989
 20
154.2128732059
 10
481.1277603889
 20
154.1063433458
 10
481.3379800283
 20
154.0024342558
 10
481.5527425432
 20
153.9012171498
 10
481.7719007461
 20
153.8027613972
 10
481.9953044368
 20
153.7071344745
 10
482.2228005057
 20
153.6144019196
 10
482.4542330383
 20
153.5246272869
 10
482.6894434223
 20
153.4378721033
 10
482.9282704562
 20
153.3541958265
 10
483.1705504599
 20
153.2736558041
 10
483.4161173869
 20
153.1963072341
 10
483.6648029378
 20
153.1222031275
 10
483.916436676
 20
153.0513942715
 10
484.1708461442
 20
152.9839291949
 10
484.4278569829
 20
152.9198541348
 10
484.6872930498
 20
152.8592130053
 10
484.9489765403
 20
152.8020473666
 10
485.2127281096
 20
152.7483963973
 10
485.4783669956
 20
152.698296867
 10
485.7457111426
 20
152.6517831115
 10
485.761062448
 20
152.6492297165
  0
LWPOLYLINE
  5
241
330
1F
100
AcDbEntity
  8
0
  6
Continuous
 62
     8
370
     0
100
AcDbPolyline
 90
        9
 70
   128
 43
0.0
 10
612.2540000365
 20
118.7558845971
 10
611.9805829857
 20
118.5314425921
 10
611.7069828535
 20
118.3071052647
 10
611.4331997583
 20
118.0828727122
 10
611.1592338187
 20
117.8587450316
 10
610.8850851534
 20
117.6347223201
 10
610.6107538812
 20
117.4108046746
 10
610.3362401208
 20
117.1869921922
 10
610.0615439912
 20
116.9632849698
  0
LWPOLYLINE
  5
242
330
1F
100
AcDbEntity
  8
0
  6
Continuous
 62
     8
370
     0
100
AcDbPolyline
 90
        9
 70
   128
 43
0.0
 10
609.6359930592
 20
117.5167784699
 10
609.9104602753
 20
117.7402992697
 10
610.1847452743
 20
117.9639252417
 10
610.4588479371
 20
118.1876562891
 10
610.7327681451
 20
118.4114923151
 10
611.0065057797
 20
118.6354332226
 10
611.2800607224
 20
118.8594789146
 10
611.5534328545
 20
119.0836292942
 10
611.8266220578
 20
119.3078842643
  0
SPLINE
  5
243
330
1F
100
AcDbEntity
  8
0
  6
Continuous
 62
     8
370
     0
100
AcDbSpline
210
0.0
220
0.0
230
1.0
 70
     8
 71
     3
 72
    11
 73
     7
 74
     0
 42
0.000000001
 43
0.00000001
 40
0.0
 40
0.0
 40
0.0
 40
0.0
 40
0.2800017735076621
 40
0.55999925948857
 40
0.7799978768318022
 40
1.0
 40
1.0
 40
1.0
 40
1.0
 10
613.4962349256846
 20
111.8226831346428
 30
0.0
 10
613.3834769731991
 20
112.466970210951
 30
0.0
 10
613.157962794834
 20
113.7555344979224
 30
0.0
 10
612.8356872870377
 20
115.5566399662054
 30
0.0
 10
612.5343565556923
 20
117.2231312735474
 30
0.0
 10
612.3474527059636
 20
118.2449641086963
 30
0.0
 10
612.2540000364958
 20
118.7558845971356
 30
0.0
  0
SPLINE
  5
244
330
1F
100
AcDbEntity
  8
0
  6
Continuous
 62
     8
370
     0
100
AcDbSpline
210
0.0
220
0.0
230
1.0
 70
     8
 71
     3
 72
    23
 73
    19
 74
     0
 42
0.000000001
 43
0.00000001
 40
0.0
 40
0.0
 40
0.0
 40
0.0
 40
0.0632249835057995
 40
0.1259252898978706
 40
0.1883454436631493
 40
0.2509585274889309
 40
0.3140323428852071
 40
0.3755494434161867
 40
0.4368609932320053
 40
0.4984198811438982
 40
0.5603673066557356
 40
0.62308906533328
 40
0.6856601477846064
 40
0.7485704832860948
 40
0.8117244422787473
 40
0.8743675577834369
 40
0.9369596944759999
 40
1.0
 40
1.0
 40
1.0
 40
1.0
 10
614.5679625454788
 20
111.400448312484
 30
0.0
 10
614.5363073296916
 20
111.3831948283668
 30
0.0
 10
614.4732595912224
 20
111.3488310394224
 30
0.0
 10
614.3795269603025
 20
111.3099596943938
 30
0.0
 10
614.2874089723884
 20
111.2806866961757
 30
0.0
 10
614.197104145249
 20
111.2619343656533
 30
0.0
 10
614.1099182319377
 20
111.253777012115
 30
0.0
 10
614.0266475724051
 20
111.2561531739741
 30
0.0
 10
613.947901010904
 20
111.2687373604989
 30
0.0
 10
613.8734136055922
 20
111.2915352891655
 30
0.0
 10
613.8034259756275
 20
111.3246709469754
 30
0.0
 10
613.738746151485
 20
111.3680700399682
 30
0.0
 10
613.6799956386316
 20
111.4215597924786
 30
0.0
 10
613.6278804050625
 20
111.4846907415193
 30
0.0
 10
613.5829225126292
 20
111.5568924710809
 30
0.0
 10
613.5457607758993
 20
111.6375818181252
 30
0.0
 10
613.5158573539888
 20
111.725588406083
 30
0.0
 10
613.5027912720051
 20
111.7902413462739
 30
0.0
 10
613.4962349256847
 20
111.8226831346427
 30
0.0
  0
LWPOLYLINE
  5
245
330
1F
100
AcDbEntity
  8
0
  6
Continuous
 62
     8
370
     0
100
AcDbPolyline
 90
        9
 70
   128
 43
0.0
 10
615.5397910181
 20
111.9602020167
 10
615.4184338125
 20
111.8901638514
 10
615.2970419146
 20
111.8201453754
 10
615.1756153344
 20
111.7501465942
 10
615.0541540817
 20
111.6801675137
 10
614.9326581666
 20
111.6102081396
 10
614.8111275988
 20
111.5402684775
 10
614.6895623885
 20
111.4703485332
 10
614.5679625455
 20
111.4004483125
  0
LWPOLYLINE
  5
246
330
1F
100
AcDbEntity
  8
0
  6
Continuous
 62
     8
370
     0
100
AcDbPolyline
 90
      180
 70
   128
 43
0.0
 10
610.2354578983
 20
102.77282758
 10
610.2372959254
 20
102.6126527979
 10
610.242808733
 20
102.4547111624
 10
610.2519925004
 20
102.2991121317
 10
610.2648408631
 20
102.1459635402
 10
610.2813449168
 20
101.9953715243
 10
610.3014932237
 20
101.8474404485
 10
610.3252718204
 20
101.7022728334
 10
610.3526642278
 20
101.5599692842
 10
610.3836514621
 20
101.4206284214
 10
610.4182120482
 20
101.284346812
 10
610.4563220347
 20
101.1512189033
 10
610.4979550103
 20
101.0213369566
 10
610.5430821221
 20
100.8947909838
 10
610.5916720957
 20
100.7716686849
 10
610.643691257
 20
100.6520553872
 10
610.6991035552
 20
100.536033986
 10
610.7578705879
 20
100.4236848876
 10
610.8199516279
 20
100.315085953
 10
610.8853036513
 20
100.2103124445
 10
610.9538813673
 20
100.109436973
 10
611.0256372496
 20
100.0125294481
 10
611.1005215692
 20
99.9196570295
 10
611.1784824293
 20
99.8308840805
 10
611.2594658006
 20
99.7462721232
 10
611.3434155595
 20
99.6658797962
 10
611.4302735264
 20
99.5897628135
 10
611.5199795061
 20
99.5179739266
 10
611.6124713299
 20
99.450562887
 10
611.7076848984
 20
99.3875764126
 10
611.8055542257
 20
99.3290581548
 10
611.9060114857
 20
99.2750486684
 10
612.0089870586
 20
99.2255853835
 10
612.1144095795
 20
99.1807025797
 10
612.2222059874
 20
99.1404313619
 10
612.3323015764
 20
99.1047996393
 10
612.4446200472
 20
99.0738321057
 10
612.5590835597
 20
99.0475502224
 10
612.6756127876
 20
99.0259722036
 10
612.7941269727
 20
99.0091130034
 10
612.9145439814
 20
98.9969843058
 10
613.0367803612
 20
98.9895945162
 10
613.1607513988
 20
98.986948756
 10
613.2863711787
 20
98.9890488589
 10
613.4135526429
 20
98.9958933693
 10
613.542207651
 20
99.0074775438
 10
613.6722470414
 20
99.0237933543
 10
613.803580693
 20
99.0448294934
 10
613.9361175879
 20
99.0705713826
 10
614.0697658743
 20
99.1010011818
 10
614.2044329301
 20
99.1360978025
 10
614.3400254271
 20
99.1758369216
 10
614.4764493959
 20
99.2201909989
 10
614.6136102908
 20
99.2691292956
 10
614.7514130554
 20
99.3226178961
 10
614.8897621884
 20
99.3806197313
 10
615.0285618099
 20
99.4430946044
 10
615.1677157279
 20
99.5099992183
 10
615.3071275046
 20
99.5812872063
 10
615.4467005238
 20
99.6569091638
 10
615.5863380574
 20
99.7368126827
 10
615.7259433326
 20
99.8209423874
 10
615.8654195989
 20
99.9092399737
 10
616.0046701953
 20
100.0016442489
 10
616.1435986171
 20
100.0980911742
 10
616.2821085831
 20
100.1985139091
 10
616.4201041018
 20
100.3028428577
 10
616.5574895384
 20
100.4110057172
 10
616.6941696809
 20
100.5229275275
 10
616.830049806
 20
100.6385307237
 10
616.965035745
 20
100.7577351895
 10
617.0990339487
 20
100.8804583128
 10
617.2319515525
 20
101.0066150429
 10
617.3636964409
 20
101.1361179496
 10
617.4941773107
 20
101.2688772837
 10
617.623303735
 20
101.4048010393
 10
617.7509862256
 20
101.5437950172
 10
617.8771362948
 20
101.6857628907
 10
618.001666517
 20
101.8306062719
 10
618.1244905892
 20
101.9782247804
 10
618.2455233908
 20
102.1285161122
 10
618.3646810428
 20
102.2813761111
 10
618.4818809653
 20
102.4366988409
 10
618.5970419355
 20
102.5943766585
 10
618.7100841436
 20
102.7543002885
 10
618.8209292481
 20
102.9163588994
 10
618.9295004301
 20
103.08044018
 10
619.0357224468
 20
103.2464304172
 10
619.1395216832
 20
103.414214575
 10
619.2408262036
 20
103.5836763743
 10
619.339565801
 20
103.7546983731
 10
619.435672046
 20
103.9271620484
 10
619.5290783342
 20
104.100947878
 10
619.6197199326
 20
104.2759354231
 10
619.7075340237
 20
104.4520034126
 10
619.79245975
 20
104.6290298263
 10
619.8744382555
 20
104.8068919797
 10
619.9534127268
 20
104.9854666094
 10
620.0293284323
 20
105.164629958
 10
620.1021327602
 20
105.3442578603
 10
620.1717752551
 20
105.5242258289
 10
620.2382076528
 20
105.704409141
 10
620.3013839136
 20
105.8846829243
 10
620.3612602547
 20
106.064922244
 10
620.41779518
 20
106.2450021891
 10
620.4709495092
 20
106.424797959
 10
620.5206864049
 20
106.6041849502
 10
620.5669713979
 20
106.7830388423
 10
620.6097724114
 20
106.9612356844
 10
620.6490597831
 20
107.1386519812
 10
620.6848062858
 20
107.315164778
 10
620.7169871461
 20
107.4906517465
 10
620.7455800617
 20
107.664991269
 10
620.770565217
 20
107.8380625235
 10
620.7919252964
 20
108.0097455665
 10
620.809645497
 20
108.1799214169
 10
620.8237135379
 20
108.3484721378
 10
620.8341196698
 20
108.5152809189
 10
620.8408566809
 20
108.6802321569
 10
620.8439199021
 20
108.8432115359
 10
620.8433072107
 20
109.0041061065
 10
620.8390190312
 20
109.1628043641
 10
620.8310583354
 20
109.3191963265
 10
620.8194306404
 20
109.4731736094
 10
620.8041440045
 20
109.6246295022
 10
620.7852090217
 20
109.7734590417
 10
620.7626388146
 20
109.9195590847
 10
620.7364490249
 20
110.0628283798
 10
620.7066578029
 20
110.2031676373
 10
620.6732857947
 20
110.3404795979
 10
620.6363561282
 20
110.4746691007
 10
620.5958943966
 20
110.6056431485
 10
620.5519286411
 20
110.7333109725
 10
620.5044893312
 20
110.8575840952
 10
620.4536093437
 20
110.9783763919
 10
620.3993239398
 20
111.09560415
 10
620.3416707409
 20
111.2091861274
 10
620.2806897024
 20
111.3190436085
 10
620.2164230858
 20
111.4251004589
 10
620.1489154297
 20
111.5272831782
 10
620.0782135188
 20
111.625520951
 10
620.0043663517
 20
111.7197456955
 10
619.9274251064
 20
111.8098921113
 10
619.8474431055
 20
111.8958977245
 10
619.7644757787
 20
111.9777029306
 10
619.6785806249
 20
112.0552510364
 10
619.5898171717
 20
112.1284882988
 10
619.4982469349
 20
112.1973639622
 10
619.4039333751
 20
112.2618302939
 10
619.3069418544
 20
112.3218426168
 10
619.2073395907
 20
112.3773593408
 10
619.1051956111
 20
112.4283419911
 10
619.0005807045
 20
112.4747552353
 10
618.8935673718
 20
112.5165669077
 10
618.7842297763
 20
112.5537480316
 10
618.6726436923
 20
112.5862728394
 10
618.5588864519
 20
112.6141187906
 10
618.4430368922
 20
112.637266587
 10
618.3251753003
 20
112.6557001866
 10
618.2053833576
 20
112.6694068144
 10
618.0837440833
 20
112.6783769713
 10
617.960341777
 20
112.6826044408
 10
617.8352619599
 20
112.682086293
 10
617.7085913159
 20
112.676822887
 10
617.5804176315
 20
112.6668178706
 10
617.4508297345
 20
112.6520781776
 10
617.3199174332
 20
112.6326140228
 10
617.1877714535
 20
112.6084388956
 10
617.0544833763
 20
112.57956955
 10
616.9201455741
 20
112.5460259933
 10
616.7848511468
 20
112.5078314722
 10
616.6486938573
 20
112.4650124564
 10
616.5117680664
 20
112.4175986209
 10
616.3741686678
 20
112.3656228247
 10
616.2359910216
 20
112.3091210886
 10
616.0973308889
 20
112.2481325699
 10
615.9582843653
 20
112.1826995354
 10
615.8189478137
 20
112.112867332
 10
615.6794177986
 20
112.0386843555
 10
615.5397910181
 20
111.9602020167
  0
LWPOLYLINE
  5
247
330
1F
100
AcDbEntity
  8
0
  6
Continuous
 62
     8
370
     0
100
AcDbPolyline
 90
       12
 70
   128
 43
0.0
 10
610.0615439912
 20
116.9632849698
 10
610.0917256771
 20
115.6651073685
 10
610.119033539
 20
114.3685304477
 10
610.1434673902
 20
113.073563071
 10
610.1650270637
 20
111.7802140905
 10
610.1837124121
 20
110.4884923476
 10
610.1995233077
 20
109.1984066723
 10
610.2124596424
 20
107.9099658837
 10
610.2225213278
 20
106.6231787894
 10
610.229708295
 20
105.3380541859
 10
610.234020495
 20
104.0546008582
 10
610.2354578983
 20
102.77282758
  0
LWPOLYLINE
  5
248
330
1F
100
AcDbEntity
  8
0
  6
Continuous
 62
     8
370
     0
100
AcDbPolyline
 90
       12
 70
   128
 43
0.0
 10
609.5297271939
 20
102.7771522748
 10
609.5282909885
 20
104.0578574086
 10
609.523982382
 20
105.3402411919
 10
609.5168014039
 20
106.6242948582
 10
609.5067481033
 20
107.9100096299
 10
609.4938225489
 20
109.1973767179
 10
609.478024829
 20
110.4863873217
 10
609.4593550517
 20
111.7770326299
 10
609.4378133446
 20
113.0693038195
 10
609.4133998549
 20
114.3631920568
 10
609.3861147496
 20
115.6586884968
 10
609.3559582151
 20
116.9557842834
  0
LINE
  5
249
330
1F
100
AcDbEntity
  8
0
  6
Continuous
 62
     8
370
     0
100
AcDbLine
 10
603.884649488
 20
120.8480707178
 30
0.0
 11
609.6359930592
 21
117.5167784699
 31
0.0
  0
LINE
  5
24A
330
1F
100
AcDbEntity
  8
0
  6
Continuous
 62
     8
370
     0
100
AcDbLine
 10
605.9785161695
 20
122.5707789768
 30
0.0
 11
603.884649488
 21
120.8480707178
 31
0.0
  0
SPLINE
  5
24B
330
1F
100
AcDbEntity
  8
0
  6
Continuous
 62
     8
370
     0
100
AcDbSpline
210
0.0
220
0.0
230
1.0
 70
     8
 71
     3
 72
     9
 73
     5
 74
     0
 42
0.000000001
 43
0.00000001
 40
0.0
 40
0.0
 40
0.0
 40
0.0
 40
0.5599999969701227
 40
1.0
 40
1.0
 40
1.0
 40
1.0
 10
611.8266220577549
 20
119.3078842642614
 30
0.0
 10
610.7360719865444
 20
119.9178735317614
 30
0.0
 10
608.7886611345607
 20
121.007140086762
 30
0.0
 10
606.8371715795987
 20
122.093000424808
 30
0.0
 10
605.9785161695028
 20
122.5707789768383
 30
0.0
  0
LINE
  5
24C
330
1F
100
AcDbEntity
  8
0
  6
Continuous
 62
     8
370
     0
100
AcDbLine
 10
609.3559582151
 20
116.9557842834
 30
0.0
 11
603.6046146439
 21
120.2870765313
 31
0.0
  0
LINE
  5
24D
330
1F
100
AcDbEntity
  8
0
  6
Continuous
 62
     8
370
     0
100
AcDbLine
 10
603.6046146439
 20
120.2870765313
 30
0.0
 11
603.6046146439
 21
106.2578729364
 31
0.0
  0
ARC
  5
24E
330
1F
100
AcDbEntity
  8
0
  6
Continuous
 62
     8
370
     0
100
AcDbCircle
 10
613.3280415625
 20
112.0830111361
 30
0.0
 40
0.3099349541332201
100
AcDbArc
 50
302.8657946026
 51
4.5353161176
  0
SPLINE
  5
24F
330
1F
100
AcDbEntity
  8
0
  6
Continuous
 62
     8
370
     0
100
AcDbSpline
210
0.0
220
0.0
230
1.0
 70
     8
 71
     3
 72
    13
 73
     9
 74
     0
 42
0.000000001
 43
0.00000001
 40
0.0
 40
0.0
 40
0.0
 40
0.0
 40
0.0615801180644856
 40
0.1903550771996442
 40
0.3925627346757092
 40
0.5948055739272124
 40
0.7972969337803697
 40
1.0
 40
1.0
 40
1.0
 40
1.0
 10
603.4619480119201
 20
107.924430179045
 30
0.0
 10
603.4618048092326
 20
107.8895597805844
 30
0.0
 10
603.4613621443028
 20
107.7817691884328
 30
0.0
 10
603.4677177391035
 20
107.5602593622895
 30
0.0
 10
603.4837201029172
 20
107.2607292271808
 30
0.0
 10
603.5139102892931
 20
106.9228120199792
 30
0.0
 10
603.5535202270564
 20
106.5877763963901
 30
0.0
 10
603.5875772402698
 20
106.3678790537819
 30
0.0
 10
603.6046146439467
 20
106.2578729363922
 30
0.0
  0
ARC
  5
250
330
1F
100
AcDbEntity
  8
0
  6
Continuous
 62
     8
370
     0
100
AcDbCircle
 10
617.5294206115
 20
109.28552294
 30
0.0
 40
4.03577866984922
100
AcDbArc
 50
66.2326385902
 51
125.5462610244
  0
ARC
  5
251
330
1F
100
AcDbEntity
  8
0
  6
Continuous
 62
     8
370
     0
100
AcDbCircle
 10
613.5477053345
 20
102.3868763193
 30
0.0
 40
4.036887868081418
100
AcDbArc
 50
174.4521259065
 51
233.7485776634
  0
SPLINE
  5
252
330
1F
100
AcDbEntity
  8
0
  6
Continuous
 62
     8
370
     0
100
AcDbSpline
210
0.0
220
0.0
230
1.0
 70
     8
 71
     3
 72
    18
 73
    14
 74
     0
 42
0.000000001
 43
0.00000001
 40
0.0
 40
0.0
 40
0.0
 40
0.0
 40
0.0988910715707102
 40
0.1976821548320919
 40
0.2962443823423282
 40
0.3946751797292469
 40
0.4930786939939782
 40
0.5915709461229965
 40
0.6902866218860517
 40
0.7680338998966643
 40
0.8455816045007086
 40
0.9229363050118821
 40
1.0
 40
1.0
 40
1.0
 40
1.0
 10
603.6046146439467
 20
106.2578729363922
 30
0.0
 10
603.5869310843856
 20
106.3396410159995
 30
0.0
 10
603.5515818450292
 20
106.5030944998833
 30
0.0
 10
603.5067820993171
 20
106.7520682097265
 30
0.0
 10
603.4686650955642
 20
107.0031622211988
 30
0.0
 10
603.4382776664884
 20
107.2563880650688
 30
0.0
 10
603.4160248269915
 20
107.5115577336871
 30
0.0
 10
603.4025709674905
 20
107.7685913342595
 30
0.0
 10
603.398969747711
 20
108.0087333132584
 30
0.0
 10
603.4035970961847
 20
108.2310393873298
 30
0.0
 10
603.4149046582128
 20
108.4346788653288
 30
0.0
 10
603.4329667330788
 20
108.6374853453411
 30
0.0
 10
603.4518273378105
 20
108.7717366462208
 30
0.0
 10
603.4612398685238
 20
108.838735796609
 30
0.0
  0
SPLINE
  5
253
330
1F
100
AcDbEntity
  8
0
  6
Continuous
 62
     8
370
     0
100
AcDbSpline
210
0.0
220
0.0
230
1.0
 70
     8
 71
     3
 72
    14
 73
    10
 74
     0
 42
0.000000001
 43
0.00000001
 40
0.0
 40
0.0
 40
0.0
 40
0.0
 40
0.1525332157760198
 40
0.2931204156600226
 40
0.4344569917341984
 40
0.5761623357786602
 40
0.7167936840308321
 40
0.8577444858228741
 40
0.9999999999999999
 40
0.9999999999999999
 40
0.9999999999999999
 40
0.9999999999999999
 10
613.701350707474
 20
111.9596347107824
 30
0.0
 10
613.7234531418128
 20
111.9511642107593
 30
0.0
 10
613.7659270037026
 20
111.9348865988637
 30
0.0
 10
613.8351675896415
 20
111.9237270682618
 30
0.0
 10
613.9060049818495
 20
111.9217029666867
 30
0.0
 10
613.9799440063706
 20
111.9294055138445
 30
0.0
 10
614.0560000871455
 20
111.9466559358437
 30
0.0
 10
614.1336153005029
 20
111.9725551095589
 30
0.0
 10
614.185899043559
 20
111.9974351229953
 30
0.0
 10
614.2121613489248
 20
112.009932439985
 30
0.0
  0
LWPOLYLINE
  5
254
330
1F
100
AcDbEntity
  8
0
  6
Continuous
 62
     8
370
     0
100
AcDbPolyline
 90
        9
 70
   128
 43
0.0
 10
614.2121613489
 20
112.00993244
 10
614.3336598587
 20
112.0797744105
 10
614.4551237647
 20
112.1496360882
 10
614.576553057
 20
112.2195174672
 10
614.6979477255
 20
112.2894185419
 10
614.8193077605
 20
112.3593393065
 10
614.9406331519
 20
112.4292797553
 10
615.0619238899
 20
112.4992398827
 10
615.1831799645
 20
112.5692196828
  0
ELLIPSE
  5
255
330
1F
100
AcDbEntity
  8
0
  6
Continuous
 62
     8
370
     0
100
AcDbEllipse
 10
578.7658497276
 20
184.6912413092
 30
0.0
 11
1.545518330358959
 21
2.571605528830332
 31
0.0
210
0.0
220
0.0
230
1.0
 40
0.6006125807
 41
5.586815897756554
 42
6.991805945612189
  0
LINE
  5
256
330
1F
100
AcDbEntity
  8
0
  6
Continuous
 62
     8
370
     0
100
AcDbLine
 10
493.5635129669
 20
149.283738841
 30
0.0
 11
578.9341345786
 21
187.2478573814
 31
0.0
  0
LINE
  5
257
330
1F
100
AcDbEntity
  8
0
  6
Continuous
 62
     8
370
     0
100
AcDbLine
 10
495.3816933592
 20
161.4510248457
 30
0.0
 11
493.5635129669
 21
149.283738841
 31
0.0
  0
LINE
  5
258
330
1F
100
AcDbEntity
  8
0
  6
Continuous
 62
     8
370
     0
100
AcDbLine
 10
611.5689979857
 20
224.621664243
 30
0.0
 11
495.3816933592
 21
161.4510248457
 31
0.0
  0
LINE
  5
259
330
1F
100
AcDbEntity
  8
0
  6
Continuous
 62
     8
370
     0
100
AcDbLine
 10
630.1774015677
 20
108.3640195674
 30
0.0
 11
611.5689979857
 21
224.621664243
 31
0.0
  0
LINE
  5
25A
330
1F
100
AcDbEntity
  8
0
  6
Continuous
 62
     8
370
     0
100
AcDbLine
 10
580.9422579862
 20
186.0686969205
 30
0.0
 11
589.1404188075
 21
86.0523526583
 31
0.0
  0
ARC
  5
25B
330
1F
100
AcDbEntity
  8
0
  6
Continuous
 62
     8
370
     0
100
AcDbCircle
 10
493.8070025251
 20
161.3775000798
 30
0.0
 40
1.576406392491119
100
AcDbArc
 50
2.6732875684
 51
55.6660134561
  0
LINE
  5
25C
330
1F
100
AcDbEntity
  8
0
  6
Continuous
 62
     8
370
     0
100
AcDbLine
 10
494.6961209094
 20
162.6792395365
 30
0.0
 11
610.8834255358
 21
225.8498789338
 31
0.0
  0
ARC
  5
25D
330
1F
100
AcDbEntity
  8
0
  6
Continuous
 62
     8
370
     0
100
AcDbCircle
 10
609.9943071515
 20
224.5481394771
 30
0.0
 40
1.576406392492407
100
AcDbArc
 50
2.6732875684
 51
55.6660134561
  0
LINE
  5
25E
330
1F
100
AcDbEntity
  8
0
  6
Continuous
 62
     8
370
     0
100
AcDbLine
 10
467.32108743
 20
178.482509982
 30
0.0
 11
494.6961209094
 21
162.6792395365
 31
0.0
  0
LINE
  5
25F
330
1F
100
AcDbEntity
  8
0
  6
Continuous
 62
     8
370
     0
100
AcDbLine
 10
576.7477010142
 20
245.5560132432
 30
0.0
 11
467.32108743
 21
178.482509982
 31
0.0
  0
LINE
  5
260
330
1F
100
AcDbEntity
  8
0
  6
Continuous
 62
     8
370
     0
100
AcDbLine
 10
610.8834255358
 20
225.8498789338
 30
0.0
 11
576.7477010142
 21
245.5560132432
 31
0.0
  0
ARC
  5
261
330
1F
100
AcDbEntity
  8
0
  6
Continuous
 62
     8
370
     0
100
AcDbCircle
 10
493.0866360783
 20
151.1289684687
 30
0.0
 40
1.905855174354914
100
AcDbArc
 50
241.725013255
 51
284.4903387298
  0
LINE
  5
262
330
1F
100
AcDbEntity
  8
0
  6
Continuous
 62
     8
370
     0
100
AcDbLine
 10
492.1838252791
 20
149.4505118542
 30
0.0
 11
494.0020056713
 21
161.6177978589
 31
0.0
  0
ARC
  5
263
330
1F
100
AcDbEntity
  8
0
  6
Continuous
 62
     8
370
     0
100
AcDbCircle
 10
494.9048164706
 20
163.2962544733
 30
0.0
 40
1.905855174347949
100
AcDbArc
 50
241.7250132549
 51
284.4903387299
  0
LINE
  5
264
330
1F
100
AcDbEntity
  8
0
  6
Continuous
 62
     8
370
     0
100
AcDbLine
 10
464.7196248593
 20
165.3052572788
 30
0.0
 11
492.1838252791
 21
149.4505118542
 31
0.0
  0
LINE
  5
265
330
1F
100
AcDbEntity
  8
0
  6
Continuous
 62
     8
370
     0
100
AcDbLine
 10
466.626972192
 20
177.4210683045
 30
0.0
 11
464.7196248593
 21
165.3052572788
 31
0.0
  0
LINE
  5
266
330
1F
100
AcDbEntity
  8
0
  6
Continuous
 62
     8
370
     0
100
AcDbLine
 10
494.0020056713
 20
161.6177978589
 30
0.0
 11
466.626972192
 21
177.4210683045
 31
0.0
  0
ARC
  5
267
330
1F
100
AcDbEntity
  8
0
  6
Continuous
 62
     8
370
     0
100
AcDbCircle
 10
495.5422478419
 20
161.3682520128
 30
0.0
 40
1.56032659185463
100
AcDbArc
 50
122.8386789207
 51
170.7970621143
  0
ARC
  5
268
330
1F
100
AcDbEntity
  8
0
  6
Continuous
 62
     8
370
     0
100
AcDbCircle
 10
468.172492569
 20
177.1680708476
 30
0.0
 40
1.566090977212081
100
AcDbArc
 50
122.9324479289
 51
170.7032931061
  0
ARC
  5
269
330
1F
100
AcDbEntity
  8
0
  6
Continuous
 62
     8
370
     0
100
AcDbCircle
 10
578.3896744241
 20
187.2220030308
 30
0.0
 40
0.5450736714935183
100
AcDbArc
 50
299.1157343484
 51
2.7187172813
  0
ARC
  5
26A
330
1F
100
AcDbEntity
  8
0
  6
Continuous
 62
     8
370
     0
100
AcDbCircle
 10
493.0190528124
 20
149.2578844903
 30
0.0
 40
0.5450736714918918
100
AcDbArc
 50
299.1157343483
 51
2.7187172814
  0
ARC
  5
26B
330
1F
100
AcDbEntity
  8
0
  6
Continuous
 62
     8
370
     0
100
AcDbCircle
 10
492.7439392392
 20
149.2846717412
 30
0.0
 40
0.584149459876098
100
AcDbArc
 50
163.5068841587
 51
231.2090848771
  0
ARC
  5
26C
330
1F
100
AcDbEntity
  8
0
  6
Continuous
 62
     8
370
     0
100
AcDbCircle
 10
465.2735106416
 20
165.1374703878
 30
0.0
 40
0.5787416528100308
100
AcDbArc
 50
163.147028793
 51
231.5689402428
  0
LWPOLYLINE
  5
26D
330
1F
100
AcDbEntity
  8
0
  6
Continuous
 62
     8
370
     0
100
AcDbPolyline
 90
       16
 70
   128
 43
0.0
 10
466.626972192
 20
177.4210683045
 10
466.5848129486
 20
177.4468988887
 10
466.5454444578
 20
177.4735598304
 10
466.5090159407
 20
177.5009500745
 10
466.4756654748
 20
177.5289658021
 10
466.4455194708
 20
177.5575008232
 10
466.4186921931
 20
177.5864469793
 10
466.3952853271
 20
177.615694554
 10
466.3753875934
 20
177.6451326881
 10
466.3590744119
 20
177.6746498001
 10
466.3464076154
 20
177.7041340093
 10
466.3374352158
 20
177.7334735597
 10
466.332191222
 20
177.7625572435
 10
466.3306955104
 20
177.7912748228
 10
466.3329537504
 20
177.8195174473
 10
466.3332532816
 20
177.8214802477
  0
LWPOLYLINE
  5
26E
330
1F
100
AcDbEntity
  8
0
  6
Continuous
 62
     8
370
     0
100
AcDbPolyline
 90
       16
 70
   128
 43
0.0
 10
464.7196248593
 20
165.3052572788
 10
464.6774656159
 20
165.3310878631
 10
464.6380971251
 20
165.3577488047
 10
464.601668608
 20
165.3851390489
 10
464.5683181421
 20
165.4131547765
 10
464.5381721381
 20
165.4416897975
 10
464.5113448604
 20
165.4706359537
 10
464.4879379944
 20
165.4998835284
 10
464.4680402607
 20
165.5293216624
 10
464.4517270791
 20
165.5588387745
 10
464.4390602826
 20
165.5883229837
 10
464.4300878831
 20
165.6176625341
 10
464.4248438892
 20
165.6467462179
 10
464.4233481776
 20
165.6754637971
 10
464.4256064177
 20
165.7037064216
 10
464.4259059489
 20
165.7056692221
  0
ARC
  5
26F
330
1F
100
AcDbEntity
  8
0
  6
Continuous
 62
     8
370
     0
100
AcDbCircle
 10
467.0288403299
 20
178.05175321
 30
0.0
 40
0.5205379565275509
100
AcDbArc
 50
55.8450542081
 51
116.2645444574
  0
ARC
  5
270
330
1F
100
AcDbEntity
  8
0
  6
Continuous
 62
     8
370
     0
100
AcDbCircle
 10
576.4554539141
 20
245.1252564712
 30
0.0
 40
0.5205379565276911
100
AcDbArc
 50
55.8450542081
 51
116.2645444575
  0
ARC
  5
271
330
1F
100
AcDbEntity
  8
0
  6
Continuous
 62
     8
370
     0
100
AcDbCircle
 10
580.1924348413
 20
187.3179011486
 30
0.0
 40
1.456964636568502
100
AcDbArc
 50
243.9131146778
 51
300.9738934227
  0
ELLIPSE
  5
272
330
1F
100
AcDbEntity
  8
0
  6
Continuous
 62
     8
370
     0
100
AcDbEllipse
 10
578.0802772778
 20
185.1029151881
 30
0.0
 11
1.046531201368452
 21
1.704873731080255
 31
0.0
210
0.0
220
0.0
230
1.0
 40
0.6121276476
 41
5.592767640151624
 42
6.299707251271284
  0
LINE
  5
273
330
1F
100
AcDbEntity
  8
0
  6
Continuous
 62
     8
370
     0
100
AcDbLine
 10
579.5517585294
 20
186.0093600466
 30
0.0
 11
578.4409019273
 21
186.6506439129
 31
0.0
  0
LINE
  5
274
330
1F
100
AcDbEntity
  8
0
  6
Continuous
 62
     8
370
     0
100
AcDbLine
 10
587.7441631644
 20
86.0632404027
 30
0.0
 11
579.5517585294
 21
186.0093600466
 31
0.0
  0
LINE
  5
275
330
1F
100
AcDbEntity
  8
0
  6
Continuous
 62
     8
370
     0
100
AcDbLine
 10
548.6980463009
 20
173.4240646118
 30
0.0
 11
552.7110810623
 21
106.2874082167
 31
0.0
  0
ARC
  5
276
330
1F
100
AcDbEntity
  8
0
  6
Continuous
 62
     8
370
     0
100
AcDbCircle
 10
611.2645210449
 20
225.1478155751
 30
0.0
 40
0.607899195392307
100
AcDbArc
 50
300.0574089181
 51
4.1103257239
  0
ARC
  5
277
330
1F
100
AcDbEntity
  8
0
  6
Continuous
 62
     8
370
     0
100
AcDbCircle
 10
611.1759598735
 20
225.4448927872
 30
0.0
 40
0.4995899494803689
100
AcDbArc
 50
65.4686827627
 51
125.8417756664
  0
ARC
  5
278
330
1F
100
AcDbEntity
  8
0
  6
Continuous
 62
     8
370
     0
100
AcDbCircle
 10
577.0407729396
 20
245.1455982423
 30
0.0
 40
0.504313024257207
100
AcDbArc
 50
65.780328834
 51
125.5301295951
  0
ENDSEC
  0
SECTION
  2
OBJECTS
  0
DICTIONARY
  5
C
330
0
100
AcDbDictionary
281
     1
  3
ACAD_GROUP
350
D
  3
ACAD_LAYOUT
350
1A
  3
ACAD_MLINESTYLE
350
17
  3
ACAD_PLOTSETTINGS
350
19
  3
ACAD_PLOTSTYLENAME
350
E
  3
ACAD_SCALELIST
350
47
  0
DICTIONARY
  5
D
102
{ACAD_REACTORS
330
C
102
}
330
C
100
AcDbDictionary
281
     1
  0
DICTIONARY
  5
1A
102
{ACAD_REACTORS
330
C
102
}
330
C
100
AcDbDictionary
281
     1
  3
Layout1
350
1E
  3
Layout2
350
26
  3
Model
350
22
  0
DICTIONARY
  5
17
102
{ACAD_REACTORS
330
C
102
}
330
C
100
AcDbDictionary
281
     1
  3
Standard
350
18
  0
DICTIONARY
  5
19
102
{ACAD_REACTORS
330
C
102
}
330
C
100
AcDbDictionary
281
     1
  0
ACDBDICTIONARYWDFLT
  5
E
102
{ACAD_REACTORS
330
C
102
}
330
C
100
AcDbDictionary
281
     1
  3
Normal
350
F
100
AcDbDictionaryWithDefault
340
F
  0
DICTIONARY
  5
47
102
{ACAD_REACTORS
330
C
102
}
330
C
100
AcDbDictionary
281
     1
  3
A0
350
48
  3
A1
350
49
  3
A2
350
4A
  3
A3
350
4B
  3
A4
350
4C
  3
A5
350
4D
  3
A6
350
4E
  3
A7
350
4F
  3
A8
350
50
  3
A9
350
51
  3
B0
350
52
  3
B1
350
53
  3
B2
350
54
  3
B3
350
55
  3
B4
350
56
  3
B5
350
57
  3
B6
350
58
  3
B7
350
59
  3
B8
350
5A
  3
B9
350
5B
  3
C0
350
5C
  3
C1
350
5D
  3
C2
350
5E
  3
C3
350
5F
  3
C4
350
60
  3
C5
350
61
  3
C6
350
62
  3
C7
350
63
  3
C8
350
64
  3
C9
350
65
  3
D0
350
66
  3
D1
350
67
  3
D2
350
68
  0
LAYOUT
  5
1E
102
{ACAD_REACTORS
330
1A
102
}
330
1A
100
AcDbPlotSettings
  1

  2
none_device
  4

  6

 40
0.0
 41
0.0
 42
0.0
 43
0.0
 44
0.0
 45
0.0
 46
0.0
 47
0.0
 48
0.0
 49
0.0
140
0.0
141
0.0
142
1.0
143
1.0
 70
   688
 72
     1
 73
     0
 74
     5
  7

 75
    16
147
1.0
148
0.0
149
0.0
100
AcDbLayout
  1
Layout1
 70
     1
 71
     1
 10
0.0
 20
0.0
 11
420.0
 21
297.0
 12
0.0
 22
0.0
 32
0.0
 14
1.0000000000E+20
 24
1.0000000000E+20
 34
1.0000000000E+20
 15
-1.0000000000E+20
 25
-1.0000000000E+20
 35
-1.0000000000E+20
146
0.0
 13
0.0
 23
0.0
 33
0.0
 16
1.0
 26
0.0
 36
0.0
 17
0.0
 27
1.0
 37
0.0
 76
     0
330
1B
  0
LAYOUT
  5
26
102
{ACAD_REACTORS
330
1A
102
}
330
1A
100
AcDbPlotSettings
  1

  2
none_device
  4

  6

 40
0.0
 41
0.0
 42
0.0
 43
0.0
 44
0.0
 45
0.0
 46
0.0
 47
0.0
 48
0.0
 49
0.0
140
0.0
141
0.0
142
1.0
143
1.0
 70
   688
 72
     1
 73
     0
 74
     5
  7

 75
    16
147
1.0
148
0.0
149
0.0
100
AcDbLayout
  1
Layout2
 70
     1
 71
     2
 10
0.0
 20
0.0
 11
0.0
 21
0.0
 12
0.0
 22
0.0
 32
0.0
 14
0.0
 24
0.0
 34
0.0
 15
0.0
 25
0.0
 35
0.0
146
0.0
 13
0.0
 23
0.0
 33
0.0
 16
1.0
 26
0.0
 36
0.0
 17
0.0
 27
1.0
 37
0.0
 76
     0
330
23
  0
LAYOUT
  5
22
102
{ACAD_REACTORS
330
1A
102
}
330
1A
100
AcDbPlotSettings
  1

  2
none_device
  4
Letter_(8.50_x_11.00_Inches)
  6

 40
6.35
 41
6.35
 42
6.35000508
 43
6.35000508
 44
215.9
 45
279.4
 46
0.0
 47
0.0
 48
0.0
 49
0.0
140
0.0
141
0.0
142
1.0
143
1.0
 70
  1712
 72
     1
 73
     0
 74
     0
  7

 75
     0
147
1.0
148
0.0
149
0.0
100
AcDbLayout
  1
Model
 70
     1
 71
     0
 10
0.0
 20
0.0
 11
666.0
 21
477.0
 12
0.0
 22
0.0
 32
0.0
 14
0.0
 24
0.0
 34
0.0
 15
666.0
 25
477.0
 35
0.0
146
0.0
 13
0.0
 23
0.0
 33
0.0
 16
1.0
 26
0.0
 36
0.0
 17
0.0
 27
1.0
 37
0.0
 76
     0
330
1F
331
29
  0
MLINESTYLE
  5
18
102
{ACAD_REACTORS
330
17
102
}
330
17
100
AcDbMlineStyle
  2
Standard
 70
     0
  3

 62
   256
 51
90.0
 52
90.0
 71
     2
 49
0.5
 62
   256
  6
BYLAYER
 49
-0.5
 62
   256
  6
BYLAYER
  0
ACDBPLACEHOLDER
  5
F
102
{ACAD_REACTORS
330
E
102
}
330
E
  0
SCALE
  5
48
102
{ACAD_REACTORS
330
47
102
}
330
47
100
AcDbScale
 70
     0
300
1:1
140
1.0
141
1.0
290
     1
  0
SCALE
  5
49
102
{ACAD_REACTORS
330
47
102
}
330
47
100
AcDbScale
 70
     0
300
1:2
140
1.0
141
2.0
290
     0
  0
SCALE
  5
4A
102
{ACAD_REACTORS
330
47
102
}
330
47
100
AcDbScale
 70
     0
300
1:4
140
1.0
141
4.0
290
     0
  0
SCALE
  5
4B
102
{ACAD_REACTORS
330
47
102
}
330
47
100
AcDbScale
 70
     0
300
1:5
140
1.0
141
5.0
290
     0
  0
SCALE
  5
4C
102
{ACAD_REACTORS
330
47
102
}
330
47
100
AcDbScale
 70
     0
300
1:8
140
1.0
141
8.0
290
     0
  0
SCALE
  5
4D
102
{ACAD_REACTORS
330
47
102
}
330
47
100
AcDbScale
 70
     0
300
1:10
140
1.0
141
10.0
290
     0
  0
SCALE
  5
4E
102
{ACAD_REACTORS
330
47
102
}
330
47
100
AcDbScale
 70
     0
300
1:16
140
1.0
141
16.0
290
     0
  0
SCALE
  5
4F
102
{ACAD_REACTORS
330
47
102
}
330
47
100
AcDbScale
 70
     0
300
1:20
140
1.0
141
20.0
290
     0
  0
SCALE
  5
50
102
{ACAD_REACTORS
330
47
102
}
330
47
100
AcDbScale
 70
     0
300
1:30
140
1.0
141
30.0
290
     0
  0
SCALE
  5
51
102
{ACAD_REACTORS
330
47
102
}
330
47
100
AcDbScale
 70
     0
300
1:40
140
1.0
141
40.0
290
     0
  0
SCALE
  5
52
102
{ACAD_REACTORS
330
47
102
}
330
47
100
AcDbScale
 70
     0
300
1:50
140
1.0
141
50.0
290
     0
  0
SCALE
  5
53
102
{ACAD_REACTORS
330
47
102
}
330
47
100
AcDbScale
 70
     0
300
1:100
140
1.0
141
100.0
290
     0
  0
SCALE
  5
54
102
{ACAD_REACTORS
330
47
102
}
330
47
100
AcDbScale
 70
     0
300
2:1
140
2.0
141
1.0
290
     0
  0
SCALE
  5
55
102
{ACAD_REACTORS
330
47
102
}
330
47
100
AcDbScale
 70
     0
300
4:1
140
4.0
141
1.0
290
     0
  0
SCALE
  5
56
102
{ACAD_REACTORS
330
47
102
}
330
47
100
AcDbScale
 70
     0
300
8:1
140
8.0
141
1.0
290
     0
  0
SCALE
  5
57
102
{ACAD_REACTORS
330
47
102
}
330
47
100
AcDbScale
 70
     0
300
10:1
140
10.0
141
1.0
290
     0
  0
SCALE
  5
58
102
{ACAD_REACTORS
330
47
102
}
330
47
100
AcDbScale
 70
     0
300
100:1
140
100.0
141
1.0
290
     0
  0
SCALE
  5
59
102
{ACAD_REACTORS
330
47
102
}
330
47
100
AcDbScale
 70
     0
300
1/128" = 1'-0"
140
0.0078125
141
12.0
290
     0
  0
SCALE
  5
5A
102
{ACAD_REACTORS
330
47
102
}
330
47
100
AcDbScale
 70
     0
300
1/64" = 1'-0"
140
0.015625
141
12.0
290
     0
  0
SCALE
  5
5B
102
{ACAD_REACTORS
330
47
102
}
330
47
100
AcDbScale
 70
     0
300
1/32" = 1'-0"
140
0.03125
141
12.0
290
     0
  0
SCALE
  5
5C
102
{ACAD_REACTORS
330
47
102
}
330
47
100
AcDbScale
 70
     0
300
1/16" = 1'-0"
140
0.0625
141
12.0
290
     0
  0
SCALE
  5
5D
102
{ACAD_REACTORS
330
47
102
}
330
47
100
AcDbScale
 70
     0
300
3/32" = 1'-0"
140
0.09375
141
12.0
290
     0
  0
SCALE
  5
5E
102
{ACAD_REACTORS
330
47
102
}
330
47
100
AcDbScale
 70
     0
300
1/8" = 1'-0"
140
0.125
141
12.0
290
     0
  0
SCALE
  5
5F
102
{ACAD_REACTORS
330
47
102
}
330
47
100
AcDbScale
 70
     0
300
3/16" = 1'-0"
140
0.1875
141
12.0
290
     0
  0
SCALE
  5
60
102
{ACAD_REACTORS
330
47
102
}
330
47
100
AcDbScale
 70
     0
300
1/4" = 1'-0"
140
0.25
141
12.0
290
     0
  0
SCALE
  5
61
102
{ACAD_REACTORS
330
47
102
}
330
47
100
AcDbScale
 70
     0
300
3/8" = 1'-0"
140
0.375
141
12.0
290
     0
  0
SCALE
  5
62
102
{ACAD_REACTORS
330
47
102
}
330
47
100
AcDbScale
 70
     0
300
1/2" = 1'-0"
140
0.5
141
12.0
290
     0
  0
SCALE
  5
63
102
{ACAD_REACTORS
330
47
102
}
330
47
100
AcDbScale
 70
     0
300
3/4" = 1'-0"
140
0.75
141
12.0
290
     0
  0
SCALE
  5
64
102
{ACAD_REACTORS
330
47
102
}
330
47
100
AcDbScale
 70
     0
300
1" = 1'-0"
140
1.0
141
12.0
290
     0
  0
SCALE
  5
65
102
{ACAD_REACTORS
330
47
102
}
330
47
100
AcDbScale
 70
     0
300
1-1/2" = 1'-0"
140
1.5
141
12.0
290
     0
  0
SCALE
  5
66
102
{ACAD_REACTORS
330
47
102
}
330
47
100
AcDbScale
 70
     0
300
3" = 1'-0"
140
3.0
141
12.0
290
     0
  0
SCALE
  5
67
102
{ACAD_REACTORS
330
47
102
}
330
47
100
AcDbScale
 70
     0
300
6" = 1'-0"
140
6.0
141
12.0
290
     0
  0
SCALE
  5
68
102
{ACAD_REACTORS
330
47
102
}
330
47
100
AcDbScale
 70
     0
300
1'-0" = 1'-0"
140
12.0
141
12.0
290
     0
  0
ENDSEC
  0
EOF
