  0
SECTION
  2
HEADER
  9
$ACADVER
  1
AC1015
  9
$ACADMAINTVER
 70
     6
  9
$DWGCODEPAGE
  3
ANSI_1252
  9
$INSBASE
 10
0.0
 20
0.0
 30
0.0
  9
$EXTMIN
 10
0.0
 20
0.0
 30
0.0
  9
$EXTMAX
 10
800.0
 20
600.0
 30
0.0
  9
$LIMMIN
 10
0.0
 20
0.0
  9
$LIMMAX
 10
800.0
 20
600.0
  9
$ORTHOMODE
 70
     0
  9
$REGENMODE
 70
     1
  9
$FILLMODE
 70
     1
  9
$QTEXTMODE
 70
     0
  9
$MIRRTEXT
 70
     1
  9
$LTSCALE
 40
1.0
  9
$ATTMODE
 70
     1
  9
$TEXTSIZE
 40
3.5
  9
$TRACEWID
 40
1.0
  9
$TEXTSTYLE
  7
Standard
  9
$CLAYER
  8
0
  9
$CELTYPE
  6
ByLayer
  9
$CECOLOR
 62
   256
  9
$CELTSCALE
 40
1.0
  9
$DISPSILH
 70
     0
  9
$DIMSCALE
 40
1.0
  9
$DIMASZ
 40
3.302
  9
$DIMEXO
 40
1.0
  9
$DIMDLI
 40
3.75
  9
$DIMRND
 40
0.0
  9
$DIMDLE
 40
0.0
  9
$DIMEXE
 40
1.0
  9
$DIMTP
 40
0.0
  9
$DIMTM
 40
0.0
  9
$DIMTXT
 40
2.8
  9
$DIMCEN
 40
2.5
  9
$DIMTSZ
 40
0.0
  9
$DIMTOL
 70
     0
  9
$DIMLIM
 70
     0
  9
$DIMTIH
 70
     1
  9
$DIMTOH
 70
     1
  9
$DIMSE1
 70
     0
  9
$DIMSE2
 70
     0
  9
$DIMTAD
 70
     1
  9
$DIMZIN
 70
     0
  9
$DIMBLK
  1

  9
$DIMASO
 70
     1
  9
$DIMSHO
 70
     1
  9
$DIMPOST
  1

  9
$DIMAPOST
  1

  9
$DIMALT
 70
     0
  9
$DIMALTD
 70
     3
  9
$DIMALTF
 40
0.0393700787
  9
$DIMLFAC
 40
1.0
  9
$DIMTOFL
 70
     1
  9
$DIMTVP
 40
0.0
  9
$DIMTIX
 70
     0
  9
$DIMSOXD
 70
     0
  9
$DIMSAH
 70
     0
  9
$DIMBLK1
  1

  9
$DIMBLK2
  1

  9
$DIMSTYLE
  2
ISO-25
  9
$DIMCLRD
 70
     0
  9
$DIMCLRE
 70
     0
  9
$DIMCLRT
 70
     0
  9
$DIMTFAC
 40
1.0
  9
$DIMGAP
 40
1.524
  9
$DIMJUST
 70
     0
  9
$DIMSD1
 70
     0
  9
$DIMSD2
 70
     0
  9
$DIMTOLJ
 70
     0
  9
$DIMTZIN
 70
     0
  9
$DIMALTZ
 70
     0
  9
$DIMALTTZ
 70
     0
  9
$DIMUPT
 70
     0
  9
$DIMDEC
 70
     2
  9
$DIMTDEC
 70
     2
  9
$DIMALTU
 70
     2
  9
$DIMALTTD
 70
     3
  9
$DIMTXSTY
  7
Standard
  9
$DIMAUNIT
 70
     0
  9
$DIMADEC
 70
     2
  9
$DIMALTRND
 40
0.0
  9
$DIMAZIN
 70
     0
  9
$DIMDSEP
 70
    44
  9
$DIMATFIT
 70
     3
  9
$DIMFRAC
 70
     0
  9
$DIMLDRBLK
  1

  9
$DIMLUNIT
 70
     2
  9
$DIMLWD
 70
    -2
  9
$DIMLWE
 70
    -2
  9
$DIMTMOVE
 70
     0
  9
$LUNITS
 70
     2
  9
$LUPREC
 70
     2
  9
$SKETCHINC
 40
1.0
  9
$FILLETRAD
 40
10.0
  9
$AUNITS
 70
     0
  9
$AUPREC
 70
     2
  9
$MENU
  1
.
  9
$ELEVATION
 40
0.0
  9
$PELEVATION
 40
0.0
  9
$THICKNESS
 40
0.0
  9
$LIMCHECK
 70
     0
  9
$CHAMFERA
 40
0.0
  9
$CHAMFERB
 40
0.0
  9
$CHAMFERC
 40
0.0
  9
$CHAMFERD
 40
0.0
  9
$SKPOLY
 70
     0
  9
$TDCREATE
 40
2457366.321189259
  9
$TDUCREATE
 40
2457366.237855926
  9
$TDUPDATE
 40
2457366.321189641
  9
$TDUUPDATE
 40
2457366.237856308
  9
$TDINDWG
 40
0.0000000116
  9
$TDUSRTIMER
 40
0.0000000116
  9
$USRTIMER
 70
     1
  9
$ANGBASE
 50
0.0
  9
$ANGDIR
 70
     0
  9
$PDMODE
 70
     0
  9
$PDSIZE
 40
-1.0
  9
$PLINEWID
 40
0.0
  9
$SPLFRAME
 70
     0
  9
$SPLINETYPE
 70
     6
  9
$SPLINESEGS
 70
     8
  9
$HANDSEED
  5
2EB
  9
$SURFTAB1
 70
     6
  9
$SURFTAB2
 70
     6
  9
$SURFTYPE
 70
     6
  9
$SURFU
 70
     6
  9
$SURFV
 70
     6
  9
$UCSBASE
  2

  9
$UCSNAME
  2

  9
$UCSORG
 10
0.0
 20
0.0
 30
0.0
  9
$UCSXDIR
 10
1.0
 20
0.0
 30
0.0
  9
$UCSYDIR
 10
0.0
 20
1.0
 30
0.0
  9
$UCSORTHOREF
  2

  9
$UCSORTHOVIEW
 70
     0
  9
$UCSORGTOP
 10
0.0
 20
0.0
 30
0.0
  9
$UCSORGBOTTOM
 10
0.0
 20
0.0
 30
0.0
  9
$UCSORGLEFT
 10
0.0
 20
0.0
 30
0.0
  9
$UCSORGRIGHT
 10
0.0
 20
0.0
 30
0.0
  9
$UCSORGFRONT
 10
0.0
 20
0.0
 30
0.0
  9
$UCSORGBACK
 10
0.0
 20
0.0
 30
0.0
  9
$PUCSBASE
  2

  9
$PUCSNAME
  2

  9
$PUCSORG
 10
0.0
 20
0.0
 30
0.0
  9
$PUCSXDIR
 10
1.0
 20
0.0
 30
0.0
  9
$PUCSYDIR
 10
0.0
 20
1.0
 30
0.0
  9
$PUCSORTHOREF
  2

  9
$PUCSORTHOVIEW
 70
     0
  9
$PUCSORGTOP
 10
0.0
 20
0.0
 30
0.0
  9
$PUCSORGBOTTOM
 10
0.0
 20
0.0
 30
0.0
  9
$PUCSORGLEFT
 10
0.0
 20
0.0
 30
0.0
  9
$PUCSORGRIGHT
 10
0.0
 20
0.0
 30
0.0
  9
$PUCSORGFRONT
 10
0.0
 20
0.0
 30
0.0
  9
$PUCSORGBACK
 10
0.0
 20
0.0
 30
0.0
  9
$USERI1
 70
     0
  9
$USERI2
 70
     0
  9
$USERI3
 70
     0
  9
$USERI4
 70
     0
  9
$USERI5
 70
     0
  9
$USERR1
 40
0.0
  9
$USERR2
 40
0.0
  9
$USERR3
 40
0.0
  9
$USERR4
 40
0.0
  9
$USERR5
 40
0.0
  9
$WORLDVIEW
 70
     1
  9
$SHADEDGE
 70
     3
  9
$SHADEDIF
 70
    70
  9
$TILEMODE
 70
     1
  9
$MAXACTVP
 70
    64
  9
$PINSBASE
 10
0.0
 20
0.0
 30
0.0
  9
$PLIMCHECK
 70
     0
  9
$PEXTMIN
 10
1.0000000000E+20
 20
1.0000000000E+20
 30
1.0000000000E+20
  9
$PEXTMAX
 10
-1.0000000000E+20
 20
-1.0000000000E+20
 30
-1.0000000000E+20
  9
$PLIMMIN
 10
0.0
 20
0.0
  9
$PLIMMAX
 10
420.0
 20
297.0
  9
$UNITMODE
 70
     0
  9
$VISRETAIN
 70
     1
  9
$PLINEGEN
 70
     0
  9
$PSLTSCALE
 70
     1
  9
$TREEDEPTH
 70
  3020
  9
$CMLSTYLE
  2
Standard
  9
$CMLJUST
 70
     0
  9
$CMLSCALE
 40
20.0
  9
$PROXYGRAPHICS
 70
     1
  9
$MEASUREMENT
 70
     1
  9
$CELWEIGHT
370
    -1
  9
$ENDCAPS
280
     0
  9
$JOINSTYLE
280
     0
  9
$LWDISPLAY
290
     1
  9
$INSUNITS
 70
     4
  9
$HYPERLINKBASE
  1

  9
$STYLESHEET
  1

  9
$XEDIT
290
     1
  9
$CEPSNTYPE
380
     0
  9
$PSTYLEMODE
290
     1
  9
$FINGERPRINTGUID
  2
{71333233-B1C8-4D5D-ABE6-AAD54CED61FE}
  9
$VERSIONGUID
  2
{FAEB1C32-E019-11D5-929B-00C0DF256EC4}
  9
$EXTNAMES
290
     1
  9
$PSVPSCALE
 40
0.0
  9
$OLESTARTUP
290
     0
  0
ENDSEC
  0
SECTION
  2
CLASSES
  0
CLASS
  1
ACDBDICTIONARYWDFLT
  2
AcDbDictionaryWithDefault
  3
ObjectDBX Classes
 90
        0
280
     0
281
     0
  0
CLASS
  1
VISUALSTYLE
  2
AcDbVisualStyle
  3
ObjectDBX Classes
 90
     4095
280
     0
281
     0
  0
CLASS
  1
MATERIAL
  2
AcDbMaterial
  3
ObjectDBX Classes
 90
     1153
280
     0
281
     0
  0
CLASS
  1
SCALE
  2
AcDbScale
  3
ObjectDBX Classes
 90
     1153
280
     0
281
     0
  0
CLASS
  1
TABLESTYLE
  2
AcDbTableStyle
  3
ObjectDBX Classes
 90
     4095
280
     0
281
     0
  0
CLASS
  1
MLEADERSTYLE
  2
AcDbMLeaderStyle
  3
ACDB_MLEADERSTYLE_CLASS
 90
     4095
280
     0
281
     0
  0
CLASS
  1
SUN
  2
AcDbSun
  3
SCENEOE
 90
     1153
280
     0
281
     0
  0
CLASS
  1
ACDBPLACEHOLDER
  2
AcDbPlaceHolder
  3
ObjectDBX Classes
 90
        0
280
     0
281
     0
  0
CLASS
  1
LAYOUT
  2
AcDbLayout
  3
ObjectDBX Classes
 90
        0
280
     0
281
     0
  0
ENDSEC
  0
SECTION
  2
TABLES
  0
TABLE
  2
VPORT
  5
8
330
0
100
AcDbSymbolTable
 70
     1
  0
VPORT
  5
29
330
8
100
AcDbSymbolTableRecord
100
AcDbViewportTableRecord
  2
*Active
 70
     0
 10
0.0
 20
0.0
 11
1.0
 21
1.0
 12
400.0
 22
300.0
 13
0.0
 23
0.0
 14
10.0
 24
10.0
 15
10.0
 25
10.0
 16
0.0
 26
0.0
 36
1.0
 17
0.0
 27
0.0
 37
0.0
 40
600.0
 41
1.3333333333
 42
50.0
 43
0.0
 44
0.0
 50
0.0
 51
0.0
 71
     0
 72
  2000
 73
     1
 74
     3
 75
     0
 76
     0
 77
     0
 78
     0
281
     0
 65
     1
110
0.0
120
0.0
130
0.0
111
1.0
121
0.0
131
0.0
112
0.0
122
1.0
132
0.0
 79
     0
146
0.0
  0
ENDTAB
  0
TABLE
  2
LTYPE
  5
5
330
0
100
AcDbSymbolTable
 70
     6
  0
LTYPE
  5
14
330
5
100
AcDbSymbolTableRecord
100
AcDbLinetypeTableRecord
  2
ByBlock
 70
     0
  3

 72
    65
 73
     0
 40
0.0
  0
LTYPE
  5
15
330
5
100
AcDbSymbolTableRecord
100
AcDbLinetypeTableRecord
  2
ByLayer
 70
     0
  3

 72
    65
 73
     0
 40
0.0
  0
LTYPE
  5
16
330
5
100
AcDbSymbolTableRecord
100
AcDbLinetypeTableRecord
  2
Continuous
 70
     0
  3
Solid line
 72
    65
 73
     0
 40
0.0
  0
LTYPE
  5
6E
330
5
100
AcDbSymbolTableRecord
100
AcDbLinetypeTableRecord
  2
HIDDEN
 70
     0
  3
Hidden __ __ __ __ __ __ __ __ __ __ __ __ __ __
 72
    65
 73
     2
 40
1.905
 49
1.27
 74
     0
 49
-0.635
 74
     0
  0
LTYPE
  5
6F
330
5
100
AcDbSymbolTableRecord
100
AcDbLinetypeTableRecord
  2
PHANTOM
 70
     0
  3
Phantom ______  __  __  ______  __  __  ______
 72
    65
 73
     6
 40
12.7
 49
6.35
 74
     0
 49
-1.27
 74
     0
 49
1.27
 74
     0
 49
-1.27
 74
     0
 49
1.27
 74
     0
 49
-1.27
 74
     0
  0
LTYPE
  5
70
330
5
100
AcDbSymbolTableRecord
100
AcDbLinetypeTableRecord
  2
CENTER
 70
     0
  3
Center ____ _ ____ _ ____ _ ____ _ ____ _ ____
 72
    65
 73
     4
 40
10.16
 49
6.35
 74
     0
 49
-1.27
 74
     0
 49
1.27
 74
     0
 49
-1.27
 74
     0
  0
LTYPE
  5
71
330
5
100
AcDbSymbolTableRecord
100
AcDbLinetypeTableRecord
  2
CENTERX2
 70
     0
  3
Center (2x) ________  __  ________  __  _____
 72
    65
 73
     4
 40
20.32
 49
12.7
 74
     0
 49
-2.54
 74
     0
 49
2.54
 74
     0
 49
-2.54
 74
     0
  0
LTYPE
  5
72
330
5
100
AcDbSymbolTableRecord
100
AcDbLinetypeTableRecord
  2
DOT2
 70
     0
  3
Dot (.5x) ........................................
 72
    65
 73
     2
 40
0.635
 49
0.0
 74
     0
 49
-0.635
 74
     0
  0
ENDTAB
  0
TABLE
  2
LAYER
  5
2
330
0
100
AcDbSymbolTable
 70
     2
  0
LAYER
  5
10
330
2
100
AcDbSymbolTableRecord
100
AcDbLayerTableRecord
  2
0
 70
     0
 62
     7
  6
Continuous
370
    -3
390
F
  0
LAYER
  5
73
330
2
100
AcDbSymbolTableRecord
100
AcDbLayerTableRecord
  2
FORMAT
 70
     0
 62
     7
  6
Continuous
370
    -3
390
F
  0
ENDTAB
  0
TABLE
  2
STYLE
  5
3
330
0
100
AcDbSymbolTable
 70
     1
  0
STYLE
  5
11
330
3
100
AcDbSymbolTableRecord
100
AcDbTextStyleTableRecord
  2
Standard
 70
     0
 40
0.0
 41
1.0
 50
0.0
 71
     0
 42
3.5
  3
txt
  4

  0
ENDTAB
  0
TABLE
  2
VIEW
  5
6
330
0
100
AcDbSymbolTable
 70
     0
  0
ENDTAB
  0
TABLE
  2
UCS
  5
7
330
0
100
AcDbSymbolTable
 70
     0
  0
ENDTAB
  0
TABLE
  2
APPID
  5
9
330
0
100
AcDbSymbolTable
 70
     1
  0
APPID
  5
12
330
9
100
AcDbSymbolTableRecord
100
AcDbRegAppTableRecord
  2
ACAD
 70
     0
  0
ENDTAB
  0
TABLE
  2
DIMSTYLE
  5
A
330
0
100
AcDbSymbolTable
 70
     1
100
AcDbDimStyleTable
  0
DIMSTYLE
105
27
330
A
100
AcDbSymbolTableRecord
100
AcDbDimStyleTableRecord
  2
ISO-25
 70
     0
 41
2.5
 42
0.625
 43
3.75
 44
1.25
 73
     0
 74
     0
 77
     1
 78
     8
140
2.5
141
2.5
143
0.0393700787
147
0.625
171
     3
172
     1
178
     0
271
     2
272
     2
274
     3
278
    44
283
     0
284
     8
340
11
  0
ENDTAB
  0
TABLE
  2
BLOCK_RECORD
  5
1
330
0
100
AcDbSymbolTable
 70
     1
  0
BLOCK_RECORD
  5
1F
330
1
100
AcDbSymbolTableRecord
100
AcDbBlockTableRecord
  2
*Model_Space
340
22
  0
BLOCK_RECORD
  5
1B
330
1
100
AcDbSymbolTableRecord
100
AcDbBlockTableRecord
  2
*Paper_Space
340
1E
  0
BLOCK_RECORD
  5
23
330
1
100
AcDbSymbolTableRecord
100
AcDbBlockTableRecord
  2
*Paper_Space0
340
26
  0
ENDTAB
  0
ENDSEC
  0
SECTION
  2
BLOCKS
  0
BLOCK
  5
20
330
1F
100
AcDbEntity
  8
0
100
AcDbBlockBegin
  2
*Model_Space
 70
     0
 10
0.0
 20
0.0
 30
0.0
  3
*Model_Space
  1

  0
ENDBLK
  5
21
330
1F
100
AcDbEntity
  8
0
100
AcDbBlockEnd
  0
BLOCK
  5
1C
330
1B
100
AcDbEntity
 67
     1
  8
0
100
AcDbBlockBegin
  2
*Paper_Space
 70
     0
 10
0.0
 20
0.0
 30
0.0
  3
*Paper_Space
  1

  0
ENDBLK
  5
1D
330
1B
100
AcDbEntity
 67
     1
  8
0
100
AcDbBlockEnd
  0
BLOCK
  5
24
330
23
100
AcDbEntity
  8
0
100
AcDbBlockBegin
  2
*Paper_Space0
 70
     0
 10
0.0
 20
0.0
 30
0.0
  3
*Paper_Space0
  1

  0
ENDBLK
  5
25
330
23
100
AcDbEntity
  8
0
100
AcDbBlockEnd
  0
ENDSEC
  0
SECTION
  2
ENTITIES
  0
LINE
  5
74
330
1F
100
AcDbEntity
  8
0
  6
Continuous
 62
     7
370
    30
100
AcDbLine
 10
358.8481429198
 20
482.5603916223
 30
0.0
 11
358.8481429198
 21
408.6070036839
 31
0.0
  0
LINE
  5
75
330
1F
100
AcDbEntity
  8
0
  6
Continuous
 62
     7
370
    30
100
AcDbLine
 10
404.8481429198
 20
408.6070036839
 30
0.0
 11
404.8481429198
 21
482.5603916223
 31
0.0
  0
LINE
  5
76
330
1F
100
AcDbEntity
  8
0
  6
Continuous
 62
     7
370
    30
100
AcDbLine
 10
251.9627697018
 20
491.5293856821
 30
0.0
 11
252.3481429194
 21
491.1707554933
 31
0.0
  0
LINE
  5
77
330
1F
100
AcDbEntity
  8
0
  6
Continuous
 62
     7
370
    30
100
AcDbLine
 10
511.3481429194
 20
491.1707554933
 30
0.0
 11
511.733516137
 21
491.5293856821
 31
0.0
  0
LINE
  5
78
330
1F
100
AcDbEntity
  8
0
  6
Continuous
 62
     7
370
    30
100
AcDbLine
 10
252.2481429194
 20
482.4379114827
 30
0.0
 11
291.5481429194
 21
482.4379114827
 31
0.0
  0
ARC
  5
79
330
1F
100
AcDbEntity
  8
0
  6
Continuous
 62
     7
370
    30
100
AcDbCircle
 10
252.2481429194
 20
482.8379114827
 30
0.0
 40
0.4000000000000341
100
AcDbArc
 50
180.0
 51
270.0
  0
LINE
  5
7A
330
1F
100
AcDbEntity
  8
0
  6
Continuous
 62
     7
370
    30
100
AcDbLine
 10
472.1481429194
 20
482.4379114827
 30
0.0
 11
511.4481429194
 21
482.4379114827
 31
0.0
  0
ARC
  5
7B
330
1F
100
AcDbEntity
  8
0
  6
Continuous
 62
     7
370
    30
100
AcDbCircle
 10
511.4481429194
 20
482.8379114827
 30
0.0
 40
0.4000000000000909
100
AcDbArc
 50
270.0
 51
0.0
  0
LINE
  5
7C
330
1F
100
AcDbEntity
  8
0
  6
Continuous
 62
     7
370
    30
100
AcDbLine
 10
511.4481429194
 20
526.663497115
 30
0.0
 11
252.2481429194
 21
526.663497115
 31
0.0
  0
ARC
  5
7D
330
1F
100
AcDbEntity
  8
0
  6
Continuous
 62
     7
370
    30
100
AcDbCircle
 10
252.2481429194
 20
526.2634971149
 30
0.0
 40
0.4000000000000909
100
AcDbArc
 50
90.0
 51
180.0
  0
ARC
  5
7E
330
1F
100
AcDbEntity
  8
0
  6
Continuous
 62
     7
370
    30
100
AcDbCircle
 10
511.4481429194
 20
526.2634971149
 30
0.0
 40
0.4000000000000909
100
AcDbArc
 50
0.0
 51
90.0
  0
SPLINE
  5
7F
330
1F
100
AcDbEntity
  8
0
  6
Continuous
 62
     7
370
    30
100
AcDbSpline
210
0.0
220
0.0
230
1.0
 70
     8
 71
     3
 72
    12
 73
     8
 74
     0
 42
0.000000001
 43
0.00000001
 40
0.0
 40
0.0
 40
0.0
 40
0.0
 40
0.2505974025968358
 40
0.4879997761749892
 40
0.7257607761243716
 40
0.9584666233346198
 40
1.0
 40
1.0
 40
1.0
 40
1.0
 10
292.8455475089087
 20
483.6943037740887
 30
0.0
 10
292.8501588472097
 20
483.6550707317886
 30
0.0
 10
292.8591387170545
 20
483.5786704352864
 30
0.0
 10
292.9262619006948
 20
483.4824538067484
 30
0.0
 10
293.0185915677413
 20
483.4180789640125
 30
0.0
 10
293.0986278634836
 20
483.3979016273851
 30
0.0
 10
293.1416302344706
 20
483.3970386270055
 30
0.0
 10
293.1481429194413
 20
483.396907926082
 30
0.0
  0
SPLINE
  5
80
330
1F
100
AcDbEntity
  8
0
  6
Continuous
 62
     7
370
    30
100
AcDbSpline
210
0.0
220
0.0
230
1.0
 70
     8
 71
     3
 72
    12
 73
     8
 74
     0
 42
0.000000001
 43
0.00000001
 40
0.0
 40
0.0
 40
0.0
 40
0.0
 40
0.2449971636413402
 40
0.4905580448579988
 40
0.7354283994828844
 40
0.9626101032118967
 40
1.0
 40
1.0
 40
1.0
 40
1.0
 10
470.5481429194413
 20
483.3969079260821
 30
0.0
 10
470.586796738751
 20
483.4011578057291
 30
0.0
 10
470.6641933165114
 20
483.4096673436337
 30
0.0
 10
470.7636711694817
 20
483.475566541683
 30
0.0
 10
470.8299867134903
 20
483.5683263005547
 30
0.0
 10
470.8498498669823
 20
483.6473536627236
 30
0.0
 10
470.8506283174728
 20
483.6884902520544
 30
0.0
 10
470.8507383299739
 20
483.6943037740887
 30
0.0
  0
LINE
  5
81
330
1F
100
AcDbEntity
  8
0
  6
Continuous
 62
     7
370
    30
100
AcDbLine
 10
293.1481429194
 20
483.3969079261
 30
0.0
 11
470.5481429194
 21
483.3969079261
 31
0.0
  0
LINE
  5
82
330
1F
100
AcDbEntity
  8
0
  6
Continuous
 62
     7
370
    30
100
AcDbLine
 10
470.8500727979
 20
483.6745873004
 30
0.0
 11
470.8536475915
 21
483.7274807967
 31
0.0
  0
LINE
  5
83
330
1F
100
AcDbEntity
  8
0
  6
Continuous
 62
     7
370
    30
100
AcDbLine
 10
292.8426382474
 20
483.7274807967
 30
0.0
 11
292.846213041
 21
483.6745873004
 31
0.0
  0
LINE
  5
84
330
1F
100
AcDbEntity
  8
0
  6
Continuous
 62
     7
370
    30
100
AcDbLine
 10
292.3481429194
 20
482.5603916223
 30
0.0
 11
471.3481429194
 21
482.5603916223
 31
0.0
  0
LINE
  5
85
330
1F
100
AcDbEntity
  8
0
  6
Continuous
 62
     7
370
    30
100
AcDbLine
 10
291.8370123638
 20
483.1610925325
 30
0.0
 11
291.8466378556
 21
483.0186714642
 31
0.0
  0
LINE
  5
86
330
1F
100
AcDbEntity
  8
0
  6
Continuous
 62
     7
370
    30
100
AcDbLine
 10
471.8496479832
 20
483.0186714642
 30
0.0
 11
471.8592734751
 21
483.1610925325
 31
0.0
  0
ARC
  5
87
330
1F
100
AcDbEntity
  8
0
  6
Continuous
 62
     7
370
    30
100
AcDbCircle
 10
496.8481429194
 20
522.4302869483
 30
0.0
 40
1.32134827547596
100
AcDbArc
 50
55.4168213532
 51
124.5831786468
  0
LINE
  5
88
330
1F
100
AcDbEntity
  8
0
  6
Continuous
 62
     7
370
    30
100
AcDbLine
 10
496.0981429194
 20
522.2240617817
 30
0.0
 11
496.0981429194
 21
523.5181570072
 31
0.0
  0
ARC
  5
89
330
1F
100
AcDbEntity
  8
0
  6
Continuous
 62
     7
370
    30
100
AcDbCircle
 10
496.8481429194
 20
523.3119318407
 30
0.0
 40
1.321348275476053
100
AcDbArc
 50
235.4168213532
 51
304.5831786468
  0
LINE
  5
8A
330
1F
100
AcDbEntity
  8
0
  6
Continuous
 62
     7
370
    30
100
AcDbLine
 10
497.5981429194
 20
523.5181570072
 30
0.0
 11
497.5981429194
 21
522.2240617817
 31
0.0
  0
ARC
  5
8B
330
1F
100
AcDbEntity
  8
0
  6
Continuous
 62
     7
370
    30
100
AcDbCircle
 10
496.8481429194
 20
513.4768081267
 30
0.0
 40
1.321348275475866
100
AcDbArc
 50
235.4168213532
 51
304.5831786468
  0
LINE
  5
8C
330
1F
100
AcDbEntity
  8
0
  6
Continuous
 62
     7
370
    30
100
AcDbLine
 10
496.0981429194
 20
512.3889380678
 30
0.0
 11
496.0981429194
 21
516.1415187397
 31
0.0
  0
LINE
  5
8D
330
1F
100
AcDbEntity
  8
0
  6
Continuous
 62
     7
370
    30
100
AcDbLine
 10
497.5981429194
 20
516.1415187397
 30
0.0
 11
497.5981429194
 21
512.3889380678
 31
0.0
  0
ARC
  5
8E
330
1F
100
AcDbEntity
  8
0
  6
Continuous
 62
     7
370
    30
100
AcDbCircle
 10
496.8481429194
 20
518.8068203169
 30
0.0
 40
1.321348275475773
100
AcDbArc
 50
55.4168213532
 51
124.5831786468
  0
LINE
  5
8F
330
1F
100
AcDbEntity
  8
0
  6
Continuous
 62
     7
370
    30
100
AcDbLine
 10
497.5981429194
 20
510.0595666619
 30
0.0
 11
497.5981429194
 21
508.7654714364
 31
0.0
  0
ARC
  5
90
330
1F
100
AcDbEntity
  8
0
  6
Continuous
 62
     7
370
    30
100
AcDbCircle
 10
496.8481429194
 20
508.971696603
 30
0.0
 40
1.321348275475679
100
AcDbArc
 50
55.4168213532
 51
124.5831786468
  0
LINE
  5
91
330
1F
100
AcDbEntity
  8
0
  6
Continuous
 62
     7
370
    30
100
AcDbLine
 10
496.0981429194
 20
508.7654714364
 30
0.0
 11
496.0981429194
 21
510.0595666619
 31
0.0
  0
ARC
  5
92
330
1F
100
AcDbEntity
  8
0
  6
Continuous
 62
     7
370
    30
100
AcDbCircle
 10
496.8481429194
 20
509.8533414953
 30
0.0
 40
1.321348275475679
100
AcDbArc
 50
235.4168213532
 51
304.5831786468
  0
LINE
  5
93
330
1F
100
AcDbEntity
  8
0
  6
Continuous
 62
     7
370
    30
100
AcDbLine
 10
381.8481429198
 20
408.6070036839
 30
0.0
 11
358.8481429198
 21
408.6070036839
 31
0.0
  0
LINE
  5
94
330
1F
100
AcDbEntity
  8
0
  6
Continuous
 62
     7
370
    30
100
AcDbLine
 10
404.8481429198
 20
408.6070036839
 30
0.0
 11
381.8481429198
 21
408.6070036839
 31
0.0
  0
LINE
  5
95
330
1F
100
AcDbEntity
  8
0
  6
Continuous
 62
     7
370
    30
100
AcDbLine
 10
471.7981429194
 20
482.7586564886
 30
0.0
 11
471.7981429194
 21
482.8341365449
 31
0.0
  0
LINE
  5
96
330
1F
100
AcDbEntity
  8
0
  6
Continuous
 62
     7
370
    30
100
AcDbLine
 10
471.7981429194
 20
489.0620085795
 30
0.0
 11
471.7981429194
 21
489.1094943181
 31
0.0
  0
LINE
  5
97
330
1F
100
AcDbEntity
  8
0
  6
Continuous
 62
     7
370
    30
100
AcDbLine
 10
291.8981429194
 20
482.7586564886
 30
0.0
 11
291.9463723664
 21
482.7586564886
 31
0.0
  0
LINE
  5
98
330
1F
100
AcDbEntity
  8
0
  6
Continuous
 62
     7
370
    30
100
AcDbLine
 10
471.7499134725
 20
482.7586564886
 30
0.0
 11
471.7981429194
 21
482.7586564886
 31
0.0
  0
LINE
  5
99
330
1F
100
AcDbEntity
  8
0
  6
Continuous
 62
     7
370
    30
100
AcDbLine
 10
291.8981429194
 20
489.1094943181
 30
0.0
 11
291.8981429194
 21
489.0620085795
 31
0.0
  0
LINE
  5
9A
330
1F
100
AcDbEntity
  8
0
  6
Continuous
 62
     7
370
    30
100
AcDbLine
 10
291.8981429194
 20
482.8341365449
 30
0.0
 11
291.8981429194
 21
482.7586564886
 31
0.0
  0
LINE
  5
9B
330
1F
100
AcDbEntity
  8
0
  6
Continuous
 62
     7
370
    30
100
AcDbLine
 10
252.3481429194
 20
496.4764125025
 30
0.0
 11
252.3481429194
 21
496.966310451
 31
0.0
  0
ARC
  5
9C
330
1F
100
AcDbEntity
  8
0
  6
Continuous
 62
     7
370
    30
100
AcDbCircle
 10
252.2548416493
 20
496.9404285465
 30
0.0
 40
0.4733033024931945
100
AcDbArc
 50
229.609308093
 51
281.3690545088
  0
LINE
  5
9D
330
1F
100
AcDbEntity
  8
0
  6
Continuous
 62
     7
370
    30
100
AcDbLine
 10
252.3481429194
 20
496.966310451
 30
0.0
 11
251.9481429194
 21
496.5799401205
 31
0.0
  0
LINE
  5
9E
330
1F
100
AcDbEntity
  8
0
  6
Continuous
 62
     7
370
    30
100
AcDbLine
 10
511.3481429194
 20
496.4764125025
 30
0.0
 11
252.3481429194
 21
496.4764125025
 31
0.0
  0
LINE
  5
9F
330
1F
100
AcDbEntity
  8
0
  6
Continuous
 62
     7
370
    30
100
AcDbLine
 10
511.3481429194
 20
496.966310451
 30
0.0
 11
252.3481429194
 21
496.966310451
 31
0.0
  0
LINE
  5
A0
330
1F
100
AcDbEntity
  8
0
  6
Continuous
 62
     7
370
    30
100
AcDbLine
 10
511.3481429194
 20
496.4764125025
 30
0.0
 11
511.3481429194
 21
496.966310451
 31
0.0
  0
LINE
  5
A1
330
1F
100
AcDbEntity
  8
0
  6
Continuous
 62
     7
370
    30
100
AcDbLine
 10
511.7481429194
 20
496.5799401205
 30
0.0
 11
511.3481429194
 21
496.966310451
 31
0.0
  0
ARC
  5
A2
330
1F
100
AcDbEntity
  8
0
  6
Continuous
 62
     7
370
    30
100
AcDbCircle
 10
511.4414441896
 20
496.9404285465
 30
0.0
 40
0.4733033024926332
100
AcDbArc
 50
258.6309454912
 51
310.390691907
  0
LINE
  5
A3
330
1F
100
AcDbEntity
  8
0
  6
Continuous
 62
     7
370
    30
100
AcDbLine
 10
252.3481429194
 20
491.4535982058
 30
0.0
 11
511.3481429194
 21
491.4535982058
 31
0.0
  0
ARC
  5
A4
330
1F
100
AcDbEntity
  8
0
  6
Continuous
 62
     7
370
    30
100
AcDbCircle
 10
252.2548416493
 20
491.9176142498
 30
0.0
 40
0.473303302492693
100
AcDbArc
 50
229.609308093
 51
281.3690545088
  0
LINE
  5
A5
330
1F
100
AcDbEntity
  8
0
  6
Continuous
 62
     7
370
    30
100
AcDbLine
 10
251.9481429194
 20
491.5571258238
 30
0.0
 11
251.9481429194
 21
496.5799401205
 31
0.0
  0
ARC
  5
A6
330
1F
100
AcDbEntity
  8
0
  6
Continuous
 62
     7
370
    30
100
AcDbCircle
 10
511.4414441896
 20
491.9176142498
 30
0.0
 40
0.4733033024927098
100
AcDbArc
 50
258.6309454912
 51
310.390691907
  0
LINE
  5
A7
330
1F
100
AcDbEntity
  8
0
  6
Continuous
 62
     7
370
    30
100
AcDbLine
 10
511.7481429194
 20
496.5799401205
 30
0.0
 11
511.7481429194
 21
491.5571258238
 31
0.0
  0
LINE
  5
A8
330
1F
100
AcDbEntity
  8
0
  6
Continuous
 62
     7
370
    30
100
AcDbLine
 10
251.9481429194
 20
496.5799401205
 30
0.0
 11
251.9481429194
 21
497.83787729
 31
0.0
  0
LINE
  5
A9
330
1F
100
AcDbEntity
  8
0
  6
Continuous
 62
     7
370
    30
100
AcDbLine
 10
511.7481429194
 20
497.83787729
 30
0.0
 11
511.7481429194
 21
496.5799401205
 31
0.0
  0
LINE
  5
AA
330
1F
100
AcDbEntity
  8
0
  6
Continuous
 62
     7
370
    30
100
AcDbLine
 10
252.3481429194
 20
491.1707554933
 30
0.0
 11
252.3481429194
 21
491.4535982058
 31
0.0
  0
LINE
  5
AB
330
1F
100
AcDbEntity
  8
0
  6
Continuous
 62
     7
370
    30
100
AcDbLine
 10
511.3481429194
 20
491.1707554933
 30
0.0
 11
252.3481429194
 21
491.1707554933
 31
0.0
  0
LINE
  5
AC
330
1F
100
AcDbEntity
  8
0
  6
Continuous
 62
     7
370
    30
100
AcDbLine
 10
511.3481429194
 20
491.1707554933
 30
0.0
 11
511.3481429194
 21
491.4535982058
 31
0.0
  0
ARC
  5
AD
330
1F
100
AcDbEntity
  8
0
  6
Continuous
 62
     7
370
    30
100
AcDbCircle
 10
252.1548416493
 20
490.5394361885
 30
0.0
 40
0.4733033024936142
100
AcDbArc
 50
229.609308093
 51
281.3690545088
  0
LINE
  5
AE
330
1F
100
AcDbEntity
  8
0
  6
Continuous
 62
     7
370
    30
100
AcDbLine
 10
251.8481429194
 20
490.1789477625
 30
0.0
 11
251.8481429194
 21
497.9063543728
 31
0.0
  0
LINE
  5
AF
330
1F
100
AcDbEntity
  8
0
  6
Continuous
 62
     7
370
    30
100
AcDbLine
 10
511.8481429194
 20
497.9063543728
 30
0.0
 11
511.8481429194
 21
490.1789477625
 31
0.0
  0
ARC
  5
B0
330
1F
100
AcDbEntity
  8
0
  6
Continuous
 62
     7
370
    30
100
AcDbCircle
 10
511.5414441896
 20
490.5394361885
 30
0.0
 40
0.4733033024924904
100
AcDbArc
 50
258.6309454912
 51
310.390691907
  0
LINE
  5
B1
330
1F
100
AcDbEntity
  8
0
  6
Continuous
 62
     7
370
    30
100
AcDbLine
 10
511.4481429194
 20
490.0754201444
 30
0.0
 11
252.2481429194
 21
490.0754201444
 31
0.0
  0
LINE
  5
B2
330
1F
100
AcDbEntity
  8
0
  6
Continuous
 62
     7
370
    30
100
AcDbLine
 10
511.3481429194
 20
490.204829667
 30
0.0
 11
252.3481429194
 21
490.204829667
 31
0.0
  0
LINE
  5
B3
330
1F
100
AcDbEntity
  8
0
  6
Continuous
 62
     7
370
    30
100
AcDbLine
 10
251.8481429194
 20
482.8379114827
 30
0.0
 11
251.8481429194
 21
490.1789477625
 31
0.0
  0
LINE
  5
B4
330
1F
100
AcDbEntity
  8
0
  6
Continuous
 62
     7
370
    30
100
AcDbLine
 10
511.8481429194
 20
490.1789477625
 30
0.0
 11
511.8481429194
 21
482.8379114827
 31
0.0
  0
LINE
  5
B5
330
1F
100
AcDbEntity
  8
0
  6
Continuous
 62
     7
370
    30
100
AcDbLine
 10
472.1481429194
 20
484.9560132651
 30
0.0
 11
472.1481429194
 21
482.7343838646
 31
0.0
  0
LINE
  5
B6
330
1F
100
AcDbEntity
  8
0
  6
Continuous
 62
     7
370
    30
100
AcDbLine
 10
472.1481429194
 20
484.9560132651
 30
0.0
 11
472.8481429194
 21
484.9560132651
 31
0.0
  0
LINE
  5
B7
330
1F
100
AcDbEntity
  8
0
  6
Continuous
 62
     7
370
    30
100
AcDbLine
 10
472.8481429194
 20
484.9560132651
 30
0.0
 11
472.8481429194
 21
487.3708278308
 31
0.0
  0
LINE
  5
B8
330
1F
100
AcDbEntity
  8
0
  6
Continuous
 62
     7
370
    30
100
AcDbLine
 10
472.8481429194
 20
487.3708278308
 30
0.0
 11
472.1481429194
 21
487.3708278308
 31
0.0
  0
LINE
  5
B9
330
1F
100
AcDbEntity
  8
0
  6
Continuous
 62
     7
370
    30
100
AcDbLine
 10
472.1481429194
 20
489.1094943181
 30
0.0
 11
472.1481429194
 21
487.3708278308
 31
0.0
  0
LINE
  5
BA
330
1F
100
AcDbEntity
  8
0
  6
Continuous
 62
     7
370
    30
100
AcDbLine
 10
291.5481429194
 20
489.1094943181
 30
0.0
 11
472.1481429194
 21
489.1094943181
 31
0.0
  0
LINE
  5
BB
330
1F
100
AcDbEntity
  8
0
  6
Continuous
 62
     7
370
    30
100
AcDbLine
 10
291.5481429194
 20
489.1094943181
 30
0.0
 11
291.5481429194
 21
487.3708278308
 31
0.0
  0
LINE
  5
BC
330
1F
100
AcDbEntity
  8
0
  6
Continuous
 62
     7
370
    30
100
AcDbLine
 10
291.5481429194
 20
487.3708278308
 30
0.0
 11
290.8481429194
 21
487.3708278308
 31
0.0
  0
LINE
  5
BD
330
1F
100
AcDbEntity
  8
0
  6
Continuous
 62
     7
370
    30
100
AcDbLine
 10
290.8481429194
 20
484.9560132651
 30
0.0
 11
290.8481429194
 21
487.3708278308
 31
0.0
  0
LINE
  5
BE
330
1F
100
AcDbEntity
  8
0
  6
Continuous
 62
     7
370
    30
100
AcDbLine
 10
290.8481429194
 20
484.9560132651
 30
0.0
 11
291.5481429194
 21
484.9560132651
 31
0.0
  0
LINE
  5
BF
330
1F
100
AcDbEntity
  8
0
  6
Continuous
 62
     7
370
    30
100
AcDbLine
 10
291.5481429194
 20
484.9560132651
 30
0.0
 11
291.5481429194
 21
482.7343838646
 31
0.0
  0
LINE
  5
C0
330
1F
100
AcDbEntity
  8
0
  6
Continuous
 62
     7
370
    30
100
AcDbLine
 10
252.3481429194
 20
490.204829667
 30
0.0
 11
252.3481429194
 21
491.1707554933
 31
0.0
  0
LINE
  5
C1
330
1F
100
AcDbEntity
  8
0
  6
Continuous
 62
     7
370
    30
100
AcDbLine
 10
511.3481429194
 20
490.204829667
 30
0.0
 11
511.3481429194
 21
491.1707554933
 31
0.0
  0
LINE
  5
C2
330
1F
100
AcDbEntity
  8
0
  6
Continuous
 62
     7
370
    30
100
AcDbLine
 10
291.5481429194
 20
482.7343838646
 30
0.0
 11
291.5481429194
 21
482.4379114827
 31
0.0
  0
LINE
  5
C3
330
1F
100
AcDbEntity
  8
0
  6
Continuous
 62
     7
370
    30
100
AcDbLine
 10
291.5481429194
 20
484.9560132651
 30
0.0
 11
291.5481429194
 21
487.3708278308
 31
0.0
  0
LINE
  5
C4
330
1F
100
AcDbEntity
  8
0
  6
Continuous
 62
     7
370
    30
100
AcDbLine
 10
472.1481429194
 20
487.3708278308
 30
0.0
 11
472.1481429194
 21
484.9560132651
 31
0.0
  0
LINE
  5
C5
330
1F
100
AcDbEntity
  8
0
  6
Continuous
 62
     7
370
    30
100
AcDbLine
 10
472.1481429194
 20
482.4379114827
 30
0.0
 11
472.1481429194
 21
482.7343838646
 31
0.0
  0
ARC
  5
C6
330
1F
100
AcDbEntity
  8
0
  6
Continuous
 62
     7
370
    30
100
AcDbCircle
 10
292.0598887794
 20
485.4738215848
 30
0.0
 40
0.5293327311279238
100
AcDbArc
 50
113.8838666259
 51
165.1892388854
  0
ARC
  5
C7
330
1F
100
AcDbEntity
  8
0
  6
Continuous
 62
     7
370
    30
100
AcDbCircle
 10
471.6363970595
 20
485.4738215848
 30
0.0
 40
0.5293327311273333
100
AcDbArc
 50
14.8107611145
 51
66.1161333741
  0
ARC
  5
C8
330
1F
100
AcDbEntity
  8
0
  6
Continuous
 62
     7
370
    30
100
AcDbCircle
 10
471.6363970595
 20
487.2124880721
 30
0.0
 40
0.5293327311273853
100
AcDbArc
 50
14.8107611145
 51
66.1161333741
  0
ARC
  5
C9
330
1F
100
AcDbEntity
  8
0
  6
Continuous
 62
     7
370
    30
100
AcDbCircle
 10
292.0598887794
 20
487.2124880721
 30
0.0
 40
0.5293327311279382
100
AcDbArc
 50
113.8838666259
 51
165.1892388854
  0
LINE
  5
CA
330
1F
100
AcDbEntity
  8
0
  6
Continuous
 62
     7
370
    30
100
AcDbLine
 10
251.8481429194
 20
497.9063543728
 30
0.0
 11
251.8481429194
 21
505.2473906526
 31
0.0
  0
ARC
  5
CB
330
1F
100
AcDbEntity
  8
0
  6
Continuous
 62
     7
370
    30
100
AcDbCircle
 10
252.1548416493
 20
498.2668427988
 30
0.0
 40
0.4733033024926572
100
AcDbArc
 50
229.609308093
 51
281.3690545088
  0
LINE
  5
CC
330
1F
100
AcDbEntity
  8
0
  6
Continuous
 62
     7
370
    30
100
AcDbLine
 10
252.2481429194
 20
497.8028267548
 30
0.0
 11
511.4481429194
 21
497.8028267548
 31
0.0
  0
LINE
  5
CD
330
1F
100
AcDbEntity
  8
0
  6
Continuous
 62
     7
370
    30
100
AcDbLine
 10
511.8481429194
 20
505.2473906526
 30
0.0
 11
511.8481429194
 21
497.9063543728
 31
0.0
  0
ARC
  5
CE
330
1F
100
AcDbEntity
  8
0
  6
Continuous
 62
     7
370
    30
100
AcDbCircle
 10
511.5414441896
 20
498.2668427988
 30
0.0
 40
0.473303302493434
100
AcDbArc
 50
258.6309454912
 51
310.390691907
  0
LINE
  5
CF
330
1F
100
AcDbEntity
  8
0
  6
Continuous
 62
     7
370
    30
100
AcDbLine
 10
251.8481429194
 20
505.2473906526
 30
0.0
 11
251.8481429194
 21
526.2634971149
 31
0.0
  0
LINE
  5
D0
330
1F
100
AcDbEntity
  8
0
  6
Continuous
 62
     7
370
    30
100
AcDbLine
 10
496.0981429194
 20
512.3889380678
 30
0.0
 11
496.0981429194
 21
519.8946903758
 31
0.0
  0
LINE
  5
D1
330
1F
100
AcDbEntity
  8
0
  6
Continuous
 62
     7
370
    30
100
AcDbLine
 10
497.5981429194
 20
519.8946903758
 30
0.0
 11
497.5981429194
 21
512.3889380678
 31
0.0
  0
LINE
  5
D2
330
1F
100
AcDbEntity
  8
0
  6
Continuous
 62
     7
370
    30
100
AcDbLine
 10
511.8481429194
 20
526.2634971149
 30
0.0
 11
511.8481429194
 21
505.2473906526
 31
0.0
  0
LINE
  5
D3
330
1F
100
AcDbEntity
  8
0
  6
Continuous
 62
     7
370
    30
100
AcDbLine
 10
252.3481429194
 20
497.8028267548
 30
0.0
 11
252.3481429194
 21
496.966310451
 31
0.0
  0
LINE
  5
D4
330
1F
100
AcDbEntity
  8
0
  6
Continuous
 62
     7
370
    30
100
AcDbLine
 10
511.3481429194
 20
497.8028267548
 30
0.0
 11
511.3481429194
 21
496.966310451
 31
0.0
  0
ARC
  5
D5
330
1F
100
AcDbEntity
  8
0
  6
Continuous
 62
     7
370
    30
100
AcDbCircle
 10
293.1430757898
 20
487.9384539789
 30
0.0
 40
0.2975516815454435
100
AcDbArc
 50
89.0242395005
 51
178.9898148907
  0
ARC
  5
D6
330
1F
100
AcDbEntity
  8
0
  6
Continuous
 62
     7
370
    30
100
AcDbCircle
 10
470.5532100491
 20
487.9384539789
 30
0.0
 40
0.297551681545329
100
AcDbArc
 50
1.0101851093
 51
90.9757604995
  0
ELLIPSE
  5
D7
330
1F
100
AcDbEntity
  8
0
  6
Continuous
 62
     7
370
    30
100
AcDbEllipse
 10
468.3041227623
 20
485.6356321714
 30
0.0
 11
0.4002425663433655
 21
-0.001036778612501621
 31
0.0
210
0.0
220
0.0
230
1.0
 40
0.9653501859
 41
4.715072327326463
 42
6.285685921618244
  0
LINE
  5
D8
330
1F
100
AcDbEntity
  8
0
  6
Continuous
 62
     7
370
    30
100
AcDbLine
 10
468.70436658
 20
485.635561568
 30
0.0
 11
468.70436658
 21
485.9254739023
 31
0.0
  0
ELLIPSE
  5
D9
330
1F
100
AcDbEntity
  8
0
  6
Continuous
 62
     7
370
    30
100
AcDbEllipse
 10
468.3041227623
 20
485.9254032989
 30
0.0
 11
0.4002425663433655
 21
0.001036778612501621
 31
0.0
210
0.0
220
0.0
230
1.0
 40
0.9653501859
 41
6.280684692741238
 42
7.851298287032723
  0
LINE
  5
DA
330
1F
100
AcDbEntity
  8
0
  6
Continuous
 62
     7
370
    30
100
AcDbLine
 10
468.3041958999
 20
486.3117789257
 30
0.0
 11
295.392089939
 21
486.3117789257
 31
0.0
  0
LINE
  5
DB
330
1F
100
AcDbEntity
  8
0
  6
Continuous
 62
     7
370
    30
100
AcDbLine
 10
294.9919192588
 20
485.9254739023
 30
0.0
 11
294.9919192588
 21
485.635561568
 31
0.0
  0
ELLIPSE
  5
DC
330
1F
100
AcDbEntity
  8
0
  6
Continuous
 62
     7
370
    30
100
AcDbEllipse
 10
295.3921630766
 20
485.6356321714
 30
0.0
 11
0.4002425663433655
 21
0.001036778612501621
 31
0.0
210
0.0
220
0.0
230
1.0
 40
0.9653501859
 41
3.139092039151136
 42
4.709705633442943
  0
LINE
  5
DD
330
1F
100
AcDbEntity
  8
0
  6
Continuous
 62
     7
370
    30
100
AcDbLine
 10
295.392089939
 20
485.2492565446
 30
0.0
 11
468.3041958999
 21
485.2492565446
 31
0.0
  0
ELLIPSE
  5
DE
330
1F
100
AcDbEntity
  8
0
  6
Continuous
 62
     7
370
    30
100
AcDbEllipse
 10
295.3921630766
 20
485.9254032989
 30
0.0
 11
0.4002425663433655
 21
-0.001036778612558464
 31
0.0
210
0.0
220
0.0
230
1.0
 40
0.9653501859
 41
1.573479673736794
 42
3.144093268028465
  0
ARC
  5
DF
330
1F
100
AcDbEntity
  8
0
  6
Continuous
 62
     7
370
    30
100
AcDbCircle
 10
470.553270043
 20
487.9915107822
 30
0.0
 40
0.3010746380736886
100
AcDbArc
 50
1.0101851092
 51
90.9757604995
  0
ARC
  5
E0
330
1F
100
AcDbEntity
  8
0
  6
Continuous
 62
     7
370
    30
100
AcDbCircle
 10
293.1430157959
 20
487.9915107822
 30
0.0
 40
0.3010746380737494
100
AcDbArc
 50
89.0242395005
 51
178.9898148908
  0
ARC
  5
E1
330
1F
100
AcDbEntity
  8
0
  6
Continuous
 62
     7
370
    30
100
AcDbCircle
 10
292.3192343074
 20
488.8452208912
 30
0.0
 40
0.4736643706004007
100
AcDbArc
 50
146.0869642167
 51
179.9238962301
  0
ARC
  5
E2
330
1F
100
AcDbEntity
  8
0
  6
Continuous
 62
     7
370
    30
100
AcDbCircle
 10
471.3770515315
 20
488.8452208912
 30
0.0
 40
0.4736643706017656
100
AcDbArc
 50
0.0761037699
 51
33.9130357832
  0
LINE
  5
E3
330
1F
100
AcDbEntity
  8
0
  6
Continuous
 62
     7
370
    30
100
AcDbLine
 10
291.8455703546
 20
488.8458500411
 30
0.0
 11
291.8455703546
 21
483.0502950833
 31
0.0
  0
LINE
  5
E4
330
1F
100
AcDbEntity
  8
0
  6
Continuous
 62
     7
370
    30
100
AcDbLine
 10
471.8507154842
 20
483.0502950833
 30
0.0
 11
471.8507154842
 21
488.8458500411
 31
0.0
  0
LINE
  5
E5
330
1F
100
AcDbEntity
  8
0
  6
Continuous
 62
     7
370
    30
100
AcDbLine
 10
295.0058003323
 20
486.0263445594
 30
0.0
 11
294.9919192588
 21
485.9254739023
 31
0.0
  0
LINE
  5
E6
330
1F
100
AcDbEntity
  8
0
  6
Continuous
 62
     7
370
    30
100
AcDbLine
 10
292.846213041
 20
483.6745873004
 30
0.0
 11
292.8455703546
 21
483.6936262218
 31
0.0
  0
LINE
  5
E7
330
1F
100
AcDbEntity
  8
0
  6
Continuous
 62
     7
370
    30
100
AcDbLine
 10
470.8507154842
 20
483.6936262218
 30
0.0
 11
470.8500727979
 21
483.6745873004
 31
0.0
  0
LINE
  5
E8
330
1F
100
AcDbEntity
  8
0
  6
Continuous
 62
     7
370
    30
100
AcDbLine
 10
470.8536475915
 20
483.7274807967
 30
0.0
 11
470.8542978871
 21
483.7467451354
 31
0.0
  0
ARC
  5
E9
330
1F
100
AcDbEntity
  8
0
  6
Continuous
 62
     7
370
    30
100
AcDbCircle
 10
471.356559414
 20
483.0590084797
 30
0.0
 40
0.4942328854314336
100
AcDbArc
 50
269.0242395005
 51
358.9898148908
  0
ARC
  5
EA
330
1F
100
AcDbEntity
  8
0
  6
Continuous
 62
     7
370
    30
100
AcDbCircle
 10
292.3397264249
 20
483.0590084797
 30
0.0
 40
0.4942328854314488
100
AcDbArc
 50
181.0101851092
 51
270.9757604995
  0
LINE
  5
EB
330
1F
100
AcDbEntity
  8
0
  6
Continuous
 62
     7
370
    30
100
AcDbLine
 10
291.8455703546
 20
483.0502950833
 30
0.0
 11
291.835924374
 21
483.1933231104
 31
0.0
  0
LINE
  5
EC
330
1F
100
AcDbEntity
  8
0
  6
Continuous
 62
     7
370
    30
100
AcDbLine
 10
291.835924374
 20
483.1933231104
 30
0.0
 11
291.8370123638
 21
483.1610925325
 31
0.0
  0
LINE
  5
ED
330
1F
100
AcDbEntity
  8
0
  6
Continuous
 62
     7
370
    30
100
AcDbLine
 10
291.8402533406
 20
483.1291343483
 30
0.0
 11
291.8455703546
 21
483.0977566946
 31
0.0
  0
LINE
  5
EE
330
1F
100
AcDbEntity
  8
0
  6
Continuous
 62
     7
370
    30
100
AcDbLine
 10
471.8603614649
 20
483.1933231104
 30
0.0
 11
471.8507154842
 21
483.0502950833
 31
0.0
  0
LINE
  5
EF
330
1F
100
AcDbEntity
  8
0
  6
Continuous
 62
     7
370
    30
100
AcDbLine
 10
471.8507154842
 20
483.0977566946
 30
0.0
 11
471.8560324983
 21
483.1291343483
 31
0.0
  0
LINE
  5
F0
330
1F
100
AcDbEntity
  8
0
  6
Continuous
 62
     7
370
    30
100
AcDbLine
 10
471.8592734751
 20
483.1610925325
 30
0.0
 11
471.8603614649
 21
483.1933231104
 31
0.0
  0
LINE
  5
F1
330
1F
100
AcDbEntity
  8
0
  6
Continuous
 62
   252
370
     0
100
AcDbLine
 10
497.5981429194
 20
516.1415187397
 30
0.0
 11
496.0981429194
 21
516.1415187397
 31
0.0
  0
LINE
  5
F2
330
1F
100
AcDbEntity
  8
0
  6
Continuous
 62
   252
370
     0
100
AcDbLine
 10
252.3481429194
 20
496.4764125025
 30
0.0
 11
252.3481429194
 21
491.4535982058
 31
0.0
  0
LINE
  5
F3
330
1F
100
AcDbEntity
  8
0
  6
Continuous
 62
   252
370
     0
100
AcDbLine
 10
511.3481429194
 20
491.4535982058
 30
0.0
 11
511.3481429194
 21
496.4764125025
 31
0.0
  0
LINE
  5
F4
330
1F
100
AcDbEntity
  8
0
  6
Continuous
 62
   252
370
     0
100
AcDbLine
 10
252.2481429194
 20
490.0754201444
 30
0.0
 11
252.2481429194
 21
482.7343838646
 31
0.0
  0
ARC
  5
F5
330
1F
100
AcDbEntity
  8
0
  6
Continuous
 62
   252
370
     0
100
AcDbCircle
 10
252.1548416493
 20
483.1983999087
 30
0.0
 40
0.4733033024929716
100
AcDbArc
 50
229.609308093
 51
281.3690545088
  0
LINE
  5
F6
330
1F
100
AcDbEntity
  8
0
  6
Continuous
 62
   252
370
     0
100
AcDbLine
 10
511.4481429194
 20
482.7343838646
 30
0.0
 11
511.4481429194
 21
490.0754201444
 31
0.0
  0
ARC
  5
F7
330
1F
100
AcDbEntity
  8
0
  6
Continuous
 62
   252
370
     0
100
AcDbCircle
 10
511.5414441896
 20
483.1983999087
 30
0.0
 40
0.4733033024930106
100
AcDbArc
 50
258.6309454912
 51
310.390691907
  0
LINE
  5
F8
330
1F
100
AcDbEntity
  8
0
  6
Continuous
 62
   252
370
     0
100
AcDbLine
 10
252.2481429194
 20
482.7343838646
 30
0.0
 11
291.5481429194
 21
482.7343838646
 31
0.0
  0
LINE
  5
F9
330
1F
100
AcDbEntity
  8
0
  6
Continuous
 62
   252
370
     0
100
AcDbLine
 10
472.1481429194
 20
482.7343838646
 30
0.0
 11
511.4481429194
 21
482.7343838646
 31
0.0
  0
LINE
  5
FA
330
1F
100
AcDbEntity
  8
0
  6
Continuous
 62
   252
370
     0
100
AcDbLine
 10
252.2481429194
 20
482.4379114827
 30
0.0
 11
252.2481429194
 21
482.7343838646
 31
0.0
  0
LINE
  5
FB
330
1F
100
AcDbEntity
  8
0
  6
Continuous
 62
   252
370
     0
100
AcDbLine
 10
511.4481429194
 20
482.7343838646
 30
0.0
 11
511.4481429194
 21
482.4379114827
 31
0.0
  0
ARC
  5
FC
330
1F
100
AcDbEntity
  8
0
  6
Continuous
 62
   252
370
     0
100
AcDbCircle
 10
252.2414441896
 20
505.2404556172
 30
0.0
 40
0.3933624077725024
100
AcDbArc
 50
89.0242395005
 51
178.9898148908
  0
LINE
  5
FD
330
1F
100
AcDbEntity
  8
0
  6
Continuous
 62
   252
370
     0
100
AcDbLine
 10
252.2481429194
 20
505.1438630345
 30
0.0
 11
252.2481429194
 21
505.6337609831
 31
0.0
  0
ARC
  5
FE
330
1F
100
AcDbEntity
  8
0
  6
Continuous
 62
   252
370
     0
100
AcDbCircle
 10
252.1548416493
 20
505.6078790786
 30
0.0
 40
0.4733033024926039
100
AcDbArc
 50
229.609308093
 51
281.3690545088
  0
LINE
  5
FF
330
1F
100
AcDbEntity
  8
0
  6
Continuous
 62
   252
370
     0
100
AcDbLine
 10
511.4481429194
 20
505.1438630345
 30
0.0
 11
252.2481429194
 21
505.1438630345
 31
0.0
  0
LINE
  5
100
330
1F
100
AcDbEntity
  8
0
  6
Continuous
 62
   252
370
     0
100
AcDbLine
 10
252.2481429194
 20
505.6337609831
 30
0.0
 11
511.4481429194
 21
505.6337609831
 31
0.0
  0
LINE
  5
101
330
1F
100
AcDbEntity
  8
0
  6
Continuous
 62
   252
370
     0
100
AcDbLine
 10
511.4481429194
 20
505.1438630345
 30
0.0
 11
511.4481429194
 21
505.6337609831
 31
0.0
  0
ARC
  5
102
330
1F
100
AcDbEntity
  8
0
  6
Continuous
 62
   252
370
     0
100
AcDbCircle
 10
511.4548416493
 20
505.2404556172
 30
0.0
 40
0.3933624077724435
100
AcDbArc
 50
1.0101851092
 51
90.9757604995
  0
ARC
  5
103
330
1F
100
AcDbEntity
  8
0
  6
Continuous
 62
   252
370
     0
100
AcDbCircle
 10
511.5414441896
 20
505.6078790786
 30
0.0
 40
0.4733033024927434
100
AcDbArc
 50
258.6309454911
 51
310.390691907
  0
LINE
  5
104
330
1F
100
AcDbEntity
  8
0
  6
Continuous
 62
   252
370
     0
100
AcDbLine
 10
252.2481429194
 20
505.1438630345
 30
0.0
 11
252.2481429194
 21
497.8028267548
 31
0.0
  0
LINE
  5
105
330
1F
100
AcDbEntity
  8
0
  6
Continuous
 62
   252
370
     0
100
AcDbLine
 10
511.4481429194
 20
497.8028267548
 30
0.0
 11
511.4481429194
 21
505.1438630345
 31
0.0
  0
ARC
  5
106
330
1F
100
AcDbEntity
  8
0
  6
Continuous
 62
   252
370
     0
100
AcDbCircle
 10
252.2414441896
 20
526.2565620795
 30
0.0
 40
0.3933624077724446
100
AcDbArc
 50
89.0242395005
 51
178.9898148908
  0
LINE
  5
107
330
1F
100
AcDbEntity
  8
0
  6
Continuous
 62
   252
370
     0
100
AcDbLine
 10
252.2481429194
 20
526.6498674455
 30
0.0
 11
252.2481429194
 21
505.6337609831
 31
0.0
  0
LINE
  5
108
330
1F
100
AcDbEntity
  8
0
  6
Continuous
 62
   252
370
     0
100
AcDbLine
 10
511.4481429194
 20
505.6337609831
 30
0.0
 11
511.4481429194
 21
526.6498674455
 31
0.0
  0
LINE
  5
109
330
1F
100
AcDbEntity
  8
0
  6
Continuous
 62
   252
370
     0
100
AcDbLine
 10
511.4481429194
 20
526.6498674455
 30
0.0
 11
252.2481429194
 21
526.6498674455
 31
0.0
  0
ARC
  5
10A
330
1F
100
AcDbEntity
  8
0
  6
Continuous
 62
   252
370
     0
100
AcDbCircle
 10
511.4548416493
 20
526.2565620795
 30
0.0
 40
0.3933624077724446
100
AcDbArc
 50
1.0101851092
 51
90.9757604995
  0
LINE
  5
10B
330
1F
100
AcDbEntity
  8
0
  6
Continuous
 62
   252
370
     0
100
AcDbLine
 10
252.2481429194
 20
526.6498674455
 30
0.0
 11
252.2481429194
 21
526.663497115
 31
0.0
  0
LINE
  5
10C
330
1F
100
AcDbEntity
  8
0
  6
Continuous
 62
   252
370
     0
100
AcDbLine
 10
511.4481429194
 20
526.6498674455
 30
0.0
 11
511.4481429194
 21
526.663497115
 31
0.0
  0
ARC
  5
10D
330
1F
100
AcDbEntity
  8
0
  6
Continuous
 62
   252
370
     0
100
AcDbCircle
 10
293.1455874309
 20
487.9029089166
 30
0.0
 40
0.1500632452553576
100
AcDbArc
 50
89.0242395005
 51
178.9898148908
  0
ARC
  5
10E
330
1F
100
AcDbEntity
  8
0
  6
Continuous
 62
   252
370
     0
100
AcDbCircle
 10
292.9613783552
 20
488.0851182814
 30
0.0
 40
0.18278584084059
100
AcDbArc
 50
230.6858433571
 51
280.7739944044
  0
LINE
  5
10F
330
1F
100
AcDbEntity
  8
0
  6
Continuous
 62
   252
370
     0
100
AcDbLine
 10
293.1481429194
 20
488.052950401
 30
0.0
 11
293.1481429194
 21
488.2359625122
 31
0.0
  0
ARC
  5
110
330
1F
100
AcDbEntity
  8
0
  6
Continuous
 62
   252
370
     0
100
AcDbCircle
 10
470.550698408
 20
487.9029089166
 30
0.0
 40
0.1500632452553595
100
AcDbArc
 50
1.0101851092
 51
90.9757604996
  0
LINE
  5
111
330
1F
100
AcDbEntity
  8
0
  6
Continuous
 62
   252
370
     0
100
AcDbLine
 10
470.5481429194
 20
488.052950401
 30
0.0
 11
470.5481429194
 21
488.2359625122
 31
0.0
  0
ARC
  5
112
330
1F
100
AcDbEntity
  8
0
  6
Continuous
 62
   252
370
     0
100
AcDbCircle
 10
470.7349074837
 20
488.0851182814
 30
0.0
 40
0.1827858408409274
100
AcDbArc
 50
259.2260055957
 51
309.3141566429
  0
LINE
  5
113
330
1F
100
AcDbEntity
  8
0
  6
Continuous
 62
   252
370
     0
100
AcDbLine
 10
470.5481429194
 20
488.052950401
 30
0.0
 11
293.1481429194
 21
488.052950401
 31
0.0
  0
LINE
  5
114
330
1F
100
AcDbEntity
  8
0
  6
Continuous
 62
   252
370
     0
100
AcDbLine
 10
293.1481429194
 20
488.2359625122
 30
0.0
 11
470.5481429194
 21
488.2359625122
 31
0.0
  0
LINE
  5
115
330
1F
100
AcDbEntity
  8
0
  6
Continuous
 62
   252
370
     0
100
AcDbLine
 10
470.70073833
 20
483.6554809173
 30
0.0
 11
470.70073833
 21
487.905554553
 31
0.0
  0
ARC
  5
116
330
1F
100
AcDbEntity
  8
0
  6
Continuous
 62
   252
370
     0
100
AcDbCircle
 10
470.550698408
 20
483.6581265538
 30
0.0
 40
0.1500632452556117
100
AcDbArc
 50
269.0242395006
 51
358.9898148907
  0
LINE
  5
117
330
1F
100
AcDbEntity
  8
0
  6
Continuous
 62
   252
370
     0
100
AcDbLine
 10
293.1481429194
 20
483.5080850693
 30
0.0
 11
470.5481429194
 21
483.5080850693
 31
0.0
  0
ARC
  5
118
330
1F
100
AcDbEntity
  8
0
  6
Continuous
 62
   252
370
     0
100
AcDbCircle
 10
293.1455874309
 20
483.6581265538
 30
0.0
 40
0.1500632452556107
100
AcDbArc
 50
181.0101851093
 51
270.9757604994
  0
LINE
  5
119
330
1F
100
AcDbEntity
  8
0
  6
Continuous
 62
   252
370
     0
100
AcDbLine
 10
292.9955475089
 20
487.905554553
 30
0.0
 11
292.9955475089
 21
483.6554809173
 31
0.0
  0
ARC
  5
11A
330
1F
100
AcDbEntity
  8
0
  6
Continuous
 62
   252
370
     0
100
AcDbCircle
 10
292.9613783552
 20
483.8350446457
 30
0.0
 40
0.1827858408409035
100
AcDbArc
 50
230.6858433572
 51
280.7739944044
  0
LINE
  5
11B
330
1F
100
AcDbEntity
  8
0
  6
Continuous
 62
   252
370
     0
100
AcDbLine
 10
292.8455703546
 20
483.6936262218
 30
0.0
 11
292.8455703546
 21
487.9436998575
 31
0.0
  0
LINE
  5
11C
330
1F
100
AcDbEntity
  8
0
  6
Continuous
 62
   252
370
     0
100
AcDbLine
 10
470.8507154842
 20
487.9436998575
 30
0.0
 11
470.8507154842
 21
483.6936262218
 31
0.0
  0
ARC
  5
11D
330
1F
100
AcDbEntity
  8
0
  6
Continuous
 62
   252
370
     0
100
AcDbCircle
 10
470.7349074837
 20
483.8350446457
 30
0.0
 40
0.18278584084067
100
AcDbArc
 50
259.2260055957
 51
309.3141566429
  0
LINE
  5
11E
330
1F
100
AcDbEntity
  8
0
  6
Continuous
 62
   252
370
     0
100
AcDbLine
 10
293.1481429194
 20
488.2925417612
 30
0.0
 11
293.1481429194
 21
488.2359625122
 31
0.0
  0
LINE
  5
11F
330
1F
100
AcDbEntity
  8
0
  6
Continuous
 62
   252
370
     0
100
AcDbLine
 10
470.5481429194
 20
488.2925417612
 30
0.0
 11
293.1481429194
 21
488.2925417612
 31
0.0
  0
LINE
  5
120
330
1F
100
AcDbEntity
  8
0
  6
Continuous
 62
   252
370
     0
100
AcDbLine
 10
470.5481429194
 20
488.2359625122
 30
0.0
 11
470.5481429194
 21
488.2925417612
 31
0.0
  0
LINE
  5
121
330
1F
100
AcDbEntity
  8
0
  6
Continuous
 62
   252
370
     0
100
AcDbLine
 10
470.8542978871
 20
487.9968187711
 30
0.0
 11
470.8507154842
 21
487.9436998575
 31
0.0
  0
LINE
  5
122
330
1F
100
AcDbEntity
  8
0
  6
Continuous
 62
   252
370
     0
100
AcDbLine
 10
292.8455703546
 20
487.9436998575
 30
0.0
 11
292.8419879518
 21
487.9968187711
 31
0.0
  0
LINE
  5
123
330
1F
100
AcDbEntity
  8
0
  6
Continuous
 62
   252
370
     0
100
AcDbLine
 10
292.8419879518
 20
483.7467451354
 30
0.0
 11
292.8455703546
 21
483.6936262218
 31
0.0
  0
LINE
  5
124
330
1F
100
AcDbEntity
  8
0
  6
Continuous
 62
   252
370
     0
100
AcDbLine
 10
292.8419879518
 20
487.9968187711
 30
0.0
 11
292.8419879518
 21
483.7467451354
 31
0.0
  0
LINE
  5
125
330
1F
100
AcDbEntity
  8
0
  6
Continuous
 62
   252
370
     0
100
AcDbLine
 10
470.8542978871
 20
483.7467451354
 30
0.0
 11
470.8542978871
 21
487.9968187711
 31
0.0
  0
LINE
  5
126
330
1F
100
AcDbEntity
  8
0
  6
Continuous
 62
   252
370
     0
100
AcDbLine
 10
470.8507154842
 20
483.6936262218
 30
0.0
 11
470.8542978871
 21
483.7467451354
 31
0.0
  0
ARC
  5
127
330
1F
100
AcDbEntity
  8
0
  6
Continuous
 62
   252
370
     0
100
AcDbCircle
 10
292.335439948
 20
488.8048335912
 30
0.0
 40
0.3399045654304745
100
AcDbArc
 50
116.3224767565
 51
179.5160215972
  0
ARC
  5
128
330
1F
100
AcDbEntity
  8
0
  6
Continuous
 62
   252
370
     0
100
AcDbCircle
 10
291.9613783552
 20
488.987268465
 30
0.0
 40
0.1827858408408689
100
AcDbArc
 50
230.6858433572
 51
280.7739944044
  0
ARC
  5
129
330
1F
100
AcDbEntity
  8
0
  6
Continuous
 62
   252
370
     0
100
AcDbCircle
 10
471.7349074837
 20
488.987268465
 30
0.0
 40
0.1827858408402546
100
AcDbArc
 50
259.2260055956
 51
309.3141566429
  0
ARC
  5
12A
330
1F
100
AcDbEntity
  8
0
  6
Continuous
 62
   252
370
     0
100
AcDbCircle
 10
471.3608458909
 20
488.8048335912
 30
0.0
 40
0.3399045654300121
100
AcDbArc
 50
0.4839784028
 51
63.6775232436
  0
ARC
  5
12B
330
1F
100
AcDbEntity
  8
0
  6
Continuous
 62
   252
370
     0
100
AcDbCircle
 10
293.1405041548
 20
483.7927986709
 30
0.0
 40
0.4485630743632902
100
AcDbArc
 50
181.0101851092
 51
270.9757604995
  0
LINE
  5
12C
330
1F
100
AcDbEntity
  8
0
  6
Continuous
 62
   252
370
     0
100
AcDbLine
 10
470.5481429194
 20
483.3443006431
 30
0.0
 11
293.1481429194
 21
483.3443006431
 31
0.0
  0
ARC
  5
12D
330
1F
100
AcDbEntity
  8
0
  6
Continuous
 62
   252
370
     0
100
AcDbCircle
 10
470.555781684
 20
483.7927986709
 30
0.0
 40
0.4485630743633848
100
AcDbArc
 50
269.0242395005
 51
358.9898148908
  0
LINE
  5
12E
330
1F
100
AcDbEntity
  8
0
  6
Continuous
 62
   252
370
     0
100
AcDbLine
 10
471.0042750414
 20
488.0349640755
 30
0.0
 11
471.0042750414
 21
483.7848904399
 31
0.0
  0
ARC
  5
12F
330
1F
100
AcDbEntity
  8
0
  6
Continuous
 62
   252
370
     0
100
AcDbCircle
 10
470.555781684
 20
488.0270558445
 30
0.0
 40
0.4485630743634667
100
AcDbArc
 50
1.0101851092
 51
90.9757604995
  0
LINE
  5
130
330
1F
100
AcDbEntity
  8
0
  6
Continuous
 62
   252
370
     0
100
AcDbLine
 10
293.1481429194
 20
488.4755538723
 30
0.0
 11
470.5481429194
 21
488.4755538723
 31
0.0
  0
ARC
  5
131
330
1F
100
AcDbEntity
  8
0
  6
Continuous
 62
   252
370
     0
100
AcDbCircle
 10
293.1405041548
 20
488.0270558445
 30
0.0
 40
0.448563074363273
100
AcDbArc
 50
89.0242395005
 51
178.9898148908
  0
LINE
  5
132
330
1F
100
AcDbEntity
  8
0
  6
Continuous
 62
   252
370
     0
100
AcDbLine
 10
292.6920107975
 20
483.7848904399
 30
0.0
 11
292.6920107975
 21
488.0349640755
 31
0.0
  0
ARC
  5
133
330
1F
100
AcDbEntity
  8
0
  6
Continuous
 62
   252
370
     0
100
AcDbCircle
 10
292.342238066
 20
483.018262933
 30
0.0
 40
0.3467444491419235
100
AcDbArc
 50
181.0101851092
 51
270.9757604995
  0
LINE
  5
134
330
1F
100
AcDbEntity
  8
0
  6
Continuous
 62
   252
370
     0
100
AcDbLine
 10
291.9955475089
 20
488.8077047366
 30
0.0
 11
291.9955475089
 21
483.0121497788
 31
0.0
  0
LINE
  5
135
330
1F
100
AcDbEntity
  8
0
  6
Continuous
 62
   252
370
     0
100
AcDbLine
 10
471.70073833
 20
483.0121497788
 30
0.0
 11
471.70073833
 21
488.8077047366
 31
0.0
  0
ARC
  5
136
330
1F
100
AcDbEntity
  8
0
  6
Continuous
 62
   252
370
     0
100
AcDbCircle
 10
471.3540477729
 20
483.018262933
 30
0.0
 40
0.3467444491417163
100
AcDbArc
 50
269.0242395005
 51
358.9898148908
  0
LINE
  5
137
330
1F
100
AcDbEntity
  8
0
  6
Continuous
 62
   252
370
     0
100
AcDbLine
 10
292.3481429194
 20
482.6715687656
 30
0.0
 11
471.3481429194
 21
482.6715687656
 31
0.0
  0
LINE
  5
138
330
1F
100
AcDbEntity
  8
0
  6
Continuous
 62
   252
370
     0
100
AcDbLine
 10
293.1481429194
 20
488.2925417612
 30
0.0
 11
293.1481429194
 21
488.4755538723
 31
0.0
  0
ARC
  5
139
330
1F
100
AcDbEntity
  8
0
  6
Continuous
 62
   252
370
     0
100
AcDbCircle
 10
292.7261799512
 20
487.8554003472
 30
0.0
 40
0.1827858408406136
100
AcDbArc
 50
50.6858433571
 51
100.7739944043
  0
LINE
  5
13A
330
1F
100
AcDbEntity
  8
0
  6
Continuous
 62
   252
370
     0
100
AcDbLine
 10
470.5481429194
 20
488.2925417612
 30
0.0
 11
470.5481429194
 21
488.4755538723
 31
0.0
  0
ARC
  5
13B
330
1F
100
AcDbEntity
  8
0
  6
Continuous
 62
   252
370
     0
100
AcDbCircle
 10
470.9701058877
 20
487.8554003472
 30
0.0
 40
0.1827858408404355
100
AcDbArc
 50
79.2260055957
 51
129.3141566429
  0
ARC
  5
13C
330
1F
100
AcDbEntity
  8
0
  6
Continuous
 62
   252
370
     0
100
AcDbCircle
 10
291.9613783552
 20
483.1917135072
 30
0.0
 40
0.1827858408406801
100
AcDbArc
 50
230.6858433571
 51
280.7739944044
  0
ARC
  5
13D
330
1F
100
AcDbEntity
  8
0
  6
Continuous
 62
   252
370
     0
100
AcDbCircle
 10
471.7349074837
 20
483.1917135072
 30
0.0
 40
0.1827858408397862
100
AcDbArc
 50
259.2260055955
 51
309.314156643
  0
ARC
  5
13E
330
1F
100
AcDbEntity
  8
0
  6
Continuous
 62
   252
370
     0
100
AcDbCircle
 10
292.7261799512
 20
483.6053267115
 30
0.0
 40
0.1827858408406695
100
AcDbArc
 50
50.6858433571
 51
100.7739944043
  0
ARC
  5
13F
330
1F
100
AcDbEntity
  8
0
  6
Continuous
 62
   252
370
     0
100
AcDbCircle
 10
470.9701058877
 20
483.6053267115
 30
0.0
 40
0.1827858408406242
100
AcDbArc
 50
79.2260055956
 51
129.3141566429
  0
LINE
  5
140
330
1F
100
AcDbEntity
  8
0
  6
Continuous
 62
   252
370
     0
100
AcDbLine
 10
468.70436658
 20
485.9254739023
 30
0.0
 11
468.6904855065
 21
486.0263445594
 31
0.0
  0
LINE
  5
141
330
1F
100
AcDbEntity
  8
0
  6
Continuous
 62
   252
370
     0
100
AcDbLine
 10
294.9919192588
 20
485.635561568
 30
0.0
 11
295.0585295314
 21
486.1388980348
 31
0.0
  0
LINE
  5
142
330
1F
100
AcDbEntity
  8
0
  6
Continuous
 62
   252
370
     0
100
AcDbLine
 10
468.6377563074
 20
486.1388980348
 30
0.0
 11
468.70436658
 21
485.635561568
 31
0.0
  0
LINE
  5
143
330
1F
100
AcDbEntity
  8
0
  6
Continuous
 62
   252
370
     0
100
AcDbLine
 10
295.5327014586
 20
486.3117789257
 30
0.0
 11
295.392089939
 21
485.2492565446
 31
0.0
  0
LINE
  5
144
330
1F
100
AcDbEntity
  8
0
  6
Continuous
 62
   252
370
     0
100
AcDbLine
 10
468.3041958999
 20
485.2492565446
 30
0.0
 11
468.1635843803
 21
486.3117789257
 31
0.0
  0
LINE
  5
145
330
1F
100
AcDbEntity
  8
0
  6
Continuous
 62
   252
370
     0
100
AcDbLine
 10
293.1481429194
 20
483.3969079321
 30
0.0
 11
293.1481429194
 21
483.5080850693
 31
0.0
  0
LINE
  5
146
330
1F
100
AcDbEntity
  8
0
  6
Continuous
 62
   252
370
     0
100
AcDbLine
 10
470.5481429194
 20
483.396907935
 30
0.0
 11
470.5481429194
 21
483.5080850693
 31
0.0
  0
LINE
  5
147
330
1F
100
AcDbEntity
  8
0
  6
Continuous
 62
   252
370
     0
100
AcDbLine
 10
292.8419879518
 20
483.7467451354
 30
0.0
 11
292.8426382474
 21
483.7274807967
 31
0.0
  0
LINE
  5
148
330
1F
100
AcDbEntity
  8
0
  6
Continuous
 62
   252
370
     0
100
AcDbLine
 10
293.1481429194
 20
483.3443006431
 30
0.0
 11
293.1481429194
 21
483.3969079261
 31
0.0
  0
LINE
  5
149
330
1F
100
AcDbEntity
  8
0
  6
Continuous
 62
   252
370
     0
100
AcDbLine
 10
470.5481429194
 20
483.3443006431
 30
0.0
 11
470.5481429194
 21
483.3969079261
 31
0.0
  0
LINE
  5
14A
330
1F
100
AcDbEntity
  8
0
  6
Continuous
 62
   252
370
     0
100
AcDbLine
 10
471.3481429194
 20
482.6715687656
 30
0.0
 11
471.3481429194
 21
482.5603916223
 31
0.0
  0
LINE
  5
14B
330
1F
100
AcDbEntity
  8
0
  6
Continuous
 62
   252
370
     0
100
AcDbLine
 10
292.3481429194
 20
482.6715687656
 30
0.0
 11
292.3481429194
 21
482.5603916223
 31
0.0
  0
LINE
  5
14C
330
1F
100
AcDbEntity
  8
0
  6
Continuous
 62
     7
370
    30
100
AcDbLine
 10
647.8141738531
 20
501.2688372628
 30
0.0
 11
608.4815590751
 21
408.6070036839
 31
0.0
  0
LINE
  5
14D
330
1F
100
AcDbEntity
  8
0
  6
Continuous
 62
     7
370
    30
100
AcDbLine
 10
658.4541364357
 20
408.6070036839
 30
0.0
 11
692.6834263433
 21
489.246157293
 31
0.0
  0
LINE
  5
14E
330
1F
100
AcDbEntity
  8
0
  6
Continuous
 62
     7
370
    30
100
AcDbLine
 10
663.0615349578
 20
522.0299474979
 30
0.0
 11
662.3370905881
 21
522.2240617817
 31
0.0
  0
LINE
  5
14F
330
1F
100
AcDbEntity
  8
0
  6
Continuous
 62
     7
370
    30
100
AcDbLine
 10
658.4541364357
 20
408.6070036839
 30
0.0
 11
608.4815590751
 21
408.6070036839
 31
0.0
  0
LINE
  5
150
330
1F
100
AcDbEntity
  8
0
  6
Continuous
 62
     7
370
    30
100
AcDbLine
 10
643.5869801634
 20
517.9306531044
 30
0.0
 11
643.4834525453
 21
517.5442827738
 31
0.0
  0
LINE
  5
151
330
1F
100
AcDbEntity
  8
0
  6
Continuous
 62
     7
370
    30
100
AcDbLine
 10
643.4834525453
 20
517.5442827738
 30
0.0
 11
643.0970822148
 21
517.6478103919
 31
0.0
  0
LINE
  5
152
330
1F
100
AcDbEntity
  8
0
  6
Continuous
 62
     7
370
    30
100
AcDbLine
 10
643.5869801634
 20
517.9306531044
 30
0.0
 11
643.0970822148
 21
517.6478103919
 31
0.0
  0
LINE
  5
153
330
1F
100
AcDbEntity
  8
0
  6
Continuous
 62
     7
370
    30
100
AcDbLine
 10
642.1375935108
 20
512.5214684771
 30
0.0
 11
642.0340658928
 21
512.1350981466
 31
0.0
  0
LINE
  5
154
330
1F
100
AcDbEntity
  8
0
  6
Continuous
 62
     7
370
    30
100
AcDbLine
 10
641.7512231803
 20
512.6249960952
 30
0.0
 11
642.0340658928
 21
512.1350981466
 31
0.0
  0
LINE
  5
155
330
1F
100
AcDbEntity
  8
0
  6
Continuous
 62
     7
370
    30
100
AcDbLine
 10
641.7512231803
 20
512.6249960952
 30
0.0
 11
642.1375935108
 21
512.5214684771
 31
0.0
  0
LINE
  5
156
330
1F
100
AcDbEntity
  8
0
  6
Continuous
 62
     7
370
    30
100
AcDbLine
 10
641.7512231803
 20
512.6249960952
 30
0.0
 11
643.0970822148
 21
517.6478103919
 31
0.0
  0
LINE
  5
157
330
1F
100
AcDbEntity
  8
0
  6
Continuous
 62
     7
370
    30
100
AcDbLine
 10
642.1375935108
 20
512.5214684771
 30
0.0
 11
720.3775854402
 21
491.5571258238
 31
0.0
  0
LINE
  5
158
330
1F
100
AcDbEntity
  8
0
  6
Continuous
 62
     7
370
    30
100
AcDbLine
 10
720.3775854402
 20
491.5571258238
 30
0.0
 11
720.2740578222
 21
491.1707554933
 31
0.0
  0
LINE
  5
159
330
1F
100
AcDbEntity
  8
0
  6
Continuous
 62
     7
370
    30
100
AcDbLine
 10
720.2740578222
 20
491.1707554933
 30
0.0
 11
642.0340658928
 21
512.1350981466
 31
0.0
  0
LINE
  5
15A
330
1F
100
AcDbEntity
  8
0
  6
Continuous
 62
     7
370
    30
100
AcDbLine
 10
721.8269720928
 20
496.966310451
 30
0.0
 11
721.7234444747
 21
496.5799401205
 31
0.0
  0
LINE
  5
15B
330
1F
100
AcDbEntity
  8
0
  6
Continuous
 62
     7
370
    30
100
AcDbLine
 10
721.7234444747
 20
496.5799401205
 30
0.0
 11
643.4834525453
 21
517.5442827738
 31
0.0
  0
LINE
  5
15C
330
1F
100
AcDbEntity
  8
0
  6
Continuous
 62
     7
370
    30
100
AcDbLine
 10
721.8269720928
 20
496.966310451
 30
0.0
 11
643.5869801634
 21
517.9306531044
 31
0.0
  0
LINE
  5
15D
330
1F
100
AcDbEntity
  8
0
  6
Continuous
 62
     7
370
    30
100
AcDbLine
 10
722.1098148052
 20
496.4764125025
 30
0.0
 11
721.8269720928
 21
496.966310451
 31
0.0
  0
LINE
  5
15E
330
1F
100
AcDbEntity
  8
0
  6
Continuous
 62
     7
370
    30
100
AcDbLine
 10
722.1098148052
 20
496.4764125025
 30
0.0
 11
721.7234444747
 21
496.5799401205
 31
0.0
  0
LINE
  5
15F
330
1F
100
AcDbEntity
  8
0
  6
Continuous
 62
     7
370
    30
100
AcDbLine
 10
720.3775854402
 20
491.5571258238
 30
0.0
 11
720.7639557707
 21
491.4535982058
 31
0.0
  0
LINE
  5
160
330
1F
100
AcDbEntity
  8
0
  6
Continuous
 62
     7
370
    30
100
AcDbLine
 10
720.2740578222
 20
491.1707554933
 30
0.0
 11
720.7639557707
 21
491.4535982058
 31
0.0
  0
LINE
  5
161
330
1F
100
AcDbEntity
  8
0
  6
Continuous
 62
     7
370
    30
100
AcDbLine
 10
722.1098148052
 20
496.4764125025
 30
0.0
 11
720.7639557707
 21
491.4535982058
 31
0.0
  0
LINE
  5
162
330
1F
100
AcDbEntity
  8
0
  6
Continuous
 62
     7
370
    30
100
AcDbLine
 10
718.0412789989
 20
482.4515411522
 30
0.0
 11
639.6081019042
 21
503.4676476145
 31
0.0
  0
LINE
  5
163
330
1F
100
AcDbEntity
  8
0
  6
Continuous
 62
     7
370
    30
100
AcDbLine
 10
720.1118313597
 20
490.1789477625
 30
0.0
 11
641.678654265
 21
511.1950542248
 31
0.0
  0
LINE
  5
164
330
1F
100
AcDbEntity
  8
0
  6
Continuous
 62
     7
370
    30
100
AcDbLine
 10
639.3252591917
 20
503.9575455631
 30
0.0
 11
641.2922839345
 21
511.2985818429
 31
0.0
  0
LINE
  5
165
330
1F
100
AcDbEntity
  8
0
  6
Continuous
 62
     7
370
    30
100
AcDbLine
 10
641.2922839345
 20
511.2985818429
 30
0.0
 11
641.678654265
 21
511.1950542248
 31
0.0
  0
LINE
  5
166
330
1F
100
AcDbEntity
  8
0
  6
Continuous
 62
     7
370
    30
100
AcDbLine
 10
720.1118313597
 20
490.1789477625
 30
0.0
 11
720.4982016902
 21
490.0754201444
 31
0.0
  0
ARC
  5
167
330
1F
100
AcDbEntity
  8
0
  6
Continuous
 62
     7
370
    30
100
AcDbCircle
 10
639.7116295222
 20
503.854017945
 30
0.0
 40
0.3999999999999861
100
AcDbArc
 50
165.0
 51
255.0
  0
LINE
  5
168
330
1F
100
AcDbEntity
  8
0
  6
Continuous
 62
     7
370
    30
100
AcDbLine
 10
720.4982016902
 20
490.0754201444
 30
0.0
 11
718.5311769474
 21
482.7343838646
 31
0.0
  0
ARC
  5
169
330
1F
100
AcDbEntity
  8
0
  6
Continuous
 62
     7
370
    30
100
AcDbCircle
 10
718.1448066169
 20
482.8379114827
 30
0.0
 40
0.4000000000000812
100
AcDbArc
 50
255.0
 51
345.0
  0
LINE
  5
16A
330
1F
100
AcDbEntity
  8
0
  6
Continuous
 62
     7
370
    30
100
AcDbLine
 10
641.7752468476
 20
511.1691723203
 30
0.0
 11
642.0340658928
 21
512.1350981466
 31
0.0
  0
LINE
  5
16B
330
1F
100
AcDbEntity
  8
0
  6
Continuous
 62
     7
370
    30
100
AcDbLine
 10
720.0152387771
 20
490.204829667
 30
0.0
 11
720.2740578222
 21
491.1707554933
 31
0.0
  0
LINE
  5
16C
330
1F
100
AcDbEntity
  8
0
  6
Continuous
 62
     7
370
    30
100
AcDbLine
 10
645.8197589867
 20
526.6498674455
 30
0.0
 11
724.2529360813
 21
505.6337609831
 31
0.0
  0
ARC
  5
16D
330
1F
100
AcDbEntity
  8
0
  6
Continuous
 62
     7
370
    30
100
AcDbCircle
 10
645.7162313686
 20
526.263497115
 30
0.0
 40
0.399999999999942
100
AcDbArc
 50
75.0
 51
165.0
  0
LINE
  5
16E
330
1F
100
AcDbEntity
  8
0
  6
Continuous
 62
     7
370
    30
100
AcDbLine
 10
643.3628362953
 20
519.0259884532
 30
0.0
 11
645.3298610381
 21
526.367024733
 31
0.0
  0
LINE
  5
16F
330
1F
100
AcDbEntity
  8
0
  6
Continuous
 62
     7
370
    30
100
AcDbLine
 10
643.7492066258
 20
518.9224608352
 30
0.0
 11
643.3628362953
 21
519.0259884532
 31
0.0
  0
LINE
  5
170
330
1F
100
AcDbEntity
  8
0
  6
Continuous
 62
     7
370
    30
100
AcDbLine
 10
643.7492066258
 20
518.9224608352
 30
0.0
 11
722.1823837205
 21
497.9063543728
 31
0.0
  0
LINE
  5
171
330
1F
100
AcDbEntity
  8
0
  6
Continuous
 62
     7
370
    30
100
AcDbLine
 10
722.568754051
 20
497.8028267548
 30
0.0
 11
722.1823837205
 21
497.9063543728
 31
0.0
  0
ARC
  5
172
330
1F
100
AcDbEntity
  8
0
  6
Continuous
 62
     7
370
    30
100
AcDbCircle
 10
724.1494084633
 20
505.2473906526
 30
0.0
 40
0.4000000000000812
100
AcDbArc
 50
345.0
 51
75.0
  0
LINE
  5
173
330
1F
100
AcDbEntity
  8
0
  6
Continuous
 62
     7
370
    30
100
AcDbLine
 10
724.5357787938
 20
505.1438630345
 30
0.0
 11
722.568754051
 21
497.8028267548
 31
0.0
  0
LINE
  5
174
330
1F
100
AcDbEntity
  8
0
  6
Continuous
 62
     7
370
    30
100
AcDbLine
 10
722.0857911379
 20
497.9322362773
 30
0.0
 11
721.8269720928
 21
496.966310451
 31
0.0
  0
LINE
  5
175
330
1F
100
AcDbEntity
  8
0
  6
Continuous
 62
     7
370
    30
100
AcDbLine
 10
643.8457992085
 20
518.8965789306
 30
0.0
 11
643.5869801634
 21
517.9306531044
 31
0.0
  0
LINE
  5
176
330
1F
100
AcDbEntity
  8
0
  6
Continuous
 62
     7
370
    30
100
AcDbLine
 10
717.6084752078
 20
482.5648472634
 30
0.0
 11
717.0721907803
 21
482.6985579887
 31
0.0
  0
LINE
  5
177
330
1F
100
AcDbEntity
  8
0
  6
Continuous
 62
     7
370
    30
100
AcDbLine
 10
717.0753531726
 20
482.7103601973
 30
0.0
 11
717.0721907803
 21
482.6985579887
 31
0.0
  0
LINE
  5
178
330
1F
100
AcDbEntity
  8
0
  6
Continuous
 62
     7
370
    30
100
AcDbLine
 10
717.6334485537
 20
482.5608189906
 30
0.0
 11
717.6084752078
 21
482.5648472634
 31
0.0
  0
LINE
  5
179
330
1F
100
AcDbEntity
  8
0
  6
Continuous
 62
   252
370
     0
100
AcDbLine
 10
643.4834525453
 20
517.5442827738
 30
0.0
 11
642.1375935108
 21
512.5214684771
 31
0.0
  0
LINE
  5
17A
330
1F
100
AcDbEntity
  8
0
  6
Continuous
 62
   252
370
     0
100
AcDbLine
 10
720.3775854402
 20
491.5571258238
 30
0.0
 11
721.7234444747
 21
496.5799401205
 31
0.0
  0
LINE
  5
17B
330
1F
100
AcDbEntity
  8
0
  6
Continuous
 62
   252
370
     0
100
AcDbLine
 10
639.6081019042
 20
503.4676476145
 30
0.0
 11
639.7116295222
 21
503.854017945
 31
0.0
  0
LINE
  5
17C
330
1F
100
AcDbEntity
  8
0
  6
Continuous
 62
   252
370
     0
100
AcDbLine
 10
639.7116295222
 20
503.854017945
 30
0.0
 11
718.1448066169
 21
482.8379114827
 31
0.0
  0
LINE
  5
17D
330
1F
100
AcDbEntity
  8
0
  6
Continuous
 62
   252
370
     0
100
AcDbLine
 10
718.0412789989
 20
482.4515411522
 30
0.0
 11
718.1448066169
 21
482.8379114827
 31
0.0
  0
LINE
  5
17E
330
1F
100
AcDbEntity
  8
0
  6
Continuous
 62
   252
370
     0
100
AcDbLine
 10
718.1448066169
 20
482.8379114827
 30
0.0
 11
720.1118313597
 21
490.1789477625
 31
0.0
  0
LINE
  5
17F
330
1F
100
AcDbEntity
  8
0
  6
Continuous
 62
   252
370
     0
100
AcDbLine
 10
641.678654265
 20
511.1950542248
 30
0.0
 11
639.7116295222
 21
503.854017945
 31
0.0
  0
LINE
  5
180
330
1F
100
AcDbEntity
  8
0
  6
Continuous
 62
   252
370
     0
100
AcDbLine
 10
639.7116295222
 20
503.854017945
 30
0.0
 11
639.3252591917
 21
503.9575455631
 31
0.0
  0
LINE
  5
181
330
1F
100
AcDbEntity
  8
0
  6
Continuous
 62
   252
370
     0
100
AcDbLine
 10
718.5311769474
 20
482.7343838646
 30
0.0
 11
718.1448066169
 21
482.8379114827
 31
0.0
  0
LINE
  5
182
330
1F
100
AcDbEntity
  8
0
  6
Continuous
 62
   252
370
     0
100
AcDbLine
 10
724.1494084633
 20
505.2473906526
 30
0.0
 11
645.7162313686
 21
526.263497115
 31
0.0
  0
LINE
  5
183
330
1F
100
AcDbEntity
  8
0
  6
Continuous
 62
   252
370
     0
100
AcDbLine
 10
645.7162313686
 20
526.263497115
 30
0.0
 11
645.8197589867
 21
526.6498674455
 31
0.0
  0
LINE
  5
184
330
1F
100
AcDbEntity
  8
0
  6
Continuous
 62
   252
370
     0
100
AcDbLine
 10
724.1494084633
 20
505.2473906526
 30
0.0
 11
724.2529360813
 21
505.6337609831
 31
0.0
  0
LINE
  5
185
330
1F
100
AcDbEntity
  8
0
  6
Continuous
 62
   252
370
     0
100
AcDbLine
 10
645.7162313686
 20
526.263497115
 30
0.0
 11
645.3298610381
 21
526.367024733
 31
0.0
  0
LINE
  5
186
330
1F
100
AcDbEntity
  8
0
  6
Continuous
 62
   252
370
     0
100
AcDbLine
 10
645.7162313686
 20
526.263497115
 30
0.0
 11
643.7492066258
 21
518.9224608352
 31
0.0
  0
LINE
  5
187
330
1F
100
AcDbEntity
  8
0
  6
Continuous
 62
   252
370
     0
100
AcDbLine
 10
722.1823837205
 20
497.9063543728
 30
0.0
 11
724.1494084633
 21
505.2473906526
 31
0.0
  0
LINE
  5
188
330
1F
100
AcDbEntity
  8
0
  6
Continuous
 62
   252
370
     0
100
AcDbLine
 10
724.1494084633
 20
505.2473906526
 30
0.0
 11
724.5357787938
 21
505.1438630345
 31
0.0
  0
LINE
  5
189
330
1F
100
AcDbEntity
  8
0
  6
Continuous
 62
   252
370
     0
100
AcDbLine
 10
717.6084752078
 20
482.5648472634
 30
0.0
 11
717.6091410365
 21
482.5673321702
 31
0.0
  0
LINE
  5
18A
330
1F
100
AcDbEntity
  8
0
  6
Continuous
 62
     7
370
    30
100
AcDbLine
 10
83.9143083942
 20
489.246157293
 30
0.0
 11
118.1435983018
 21
408.6070036839
 31
0.0
  0
LINE
  5
18B
330
1F
100
AcDbEntity
  8
0
  6
Continuous
 62
     7
370
    30
100
AcDbLine
 10
168.1161756624
 20
408.6070036839
 30
0.0
 11
128.7835608844
 21
501.2688372628
 31
0.0
  0
LINE
  5
18C
330
1F
100
AcDbEntity
  8
0
  6
Continuous
 62
     7
370
    30
100
AcDbLine
 10
168.1161756624
 20
408.6070036839
 30
0.0
 11
118.1435983018
 21
408.6070036839
 31
0.0
  0
LINE
  5
18D
330
1F
100
AcDbEntity
  8
0
  6
Continuous
 62
     7
370
    30
100
AcDbLine
 10
134.5636688447
 20
512.1350981466
 30
0.0
 11
134.4601412267
 21
512.5214684771
 31
0.0
  0
LINE
  5
18E
330
1F
100
AcDbEntity
  8
0
  6
Continuous
 62
     7
370
    30
100
AcDbLine
 10
134.4601412267
 20
512.5214684771
 30
0.0
 11
134.8465115572
 21
512.6249960952
 31
0.0
  0
LINE
  5
18F
330
1F
100
AcDbEntity
  8
0
  6
Continuous
 62
     7
370
    30
100
AcDbLine
 10
134.8465115572
 20
512.6249960952
 30
0.0
 11
134.5636688447
 21
512.1350981466
 31
0.0
  0
LINE
  5
190
330
1F
100
AcDbEntity
  8
0
  6
Continuous
 62
     7
370
    30
100
AcDbLine
 10
133.5006525227
 20
517.6478103919
 30
0.0
 11
133.1142821922
 21
517.5442827738
 31
0.0
  0
LINE
  5
191
330
1F
100
AcDbEntity
  8
0
  6
Continuous
 62
     7
370
    30
100
AcDbLine
 10
133.5006525227
 20
517.6478103919
 30
0.0
 11
134.8465115572
 21
512.6249960952
 31
0.0
  0
LINE
  5
192
330
1F
100
AcDbEntity
  8
0
  6
Continuous
 62
     7
370
    30
100
AcDbLine
 10
133.0107545741
 20
517.9306531044
 30
0.0
 11
133.5006525227
 21
517.6478103919
 31
0.0
  0
LINE
  5
193
330
1F
100
AcDbEntity
  8
0
  6
Continuous
 62
     7
370
    30
100
AcDbLine
 10
133.1142821922
 20
517.5442827738
 30
0.0
 11
133.0107545741
 21
517.9306531044
 31
0.0
  0
LINE
  5
194
330
1F
100
AcDbEntity
  8
0
  6
Continuous
 62
     7
370
    30
100
AcDbLine
 10
56.2201492973
 20
491.5571258238
 30
0.0
 11
134.4601412267
 21
512.5214684771
 31
0.0
  0
LINE
  5
195
330
1F
100
AcDbEntity
  8
0
  6
Continuous
 62
     7
370
    30
100
AcDbLine
 10
133.1142821922
 20
517.5442827738
 30
0.0
 11
54.8742902628
 21
496.5799401205
 31
0.0
  0
LINE
  5
196
330
1F
100
AcDbEntity
  8
0
  6
Continuous
 62
     7
370
    30
100
AcDbLine
 10
134.5636688447
 20
512.1350981466
 30
0.0
 11
56.3236769153
 21
491.1707554933
 31
0.0
  0
LINE
  5
197
330
1F
100
AcDbEntity
  8
0
  6
Continuous
 62
     7
370
    30
100
AcDbLine
 10
56.3236769153
 20
491.1707554933
 30
0.0
 11
56.2201492973
 21
491.5571258238
 31
0.0
  0
LINE
  5
198
330
1F
100
AcDbEntity
  8
0
  6
Continuous
 62
     7
370
    30
100
AcDbLine
 10
54.8742902628
 20
496.5799401205
 30
0.0
 11
54.7707626447
 21
496.966310451
 31
0.0
  0
LINE
  5
199
330
1F
100
AcDbEntity
  8
0
  6
Continuous
 62
     7
370
    30
100
AcDbLine
 10
133.0107545741
 20
517.9306531044
 30
0.0
 11
54.7707626447
 21
496.966310451
 31
0.0
  0
LINE
  5
19A
330
1F
100
AcDbEntity
  8
0
  6
Continuous
 62
     7
370
    30
100
AcDbLine
 10
54.4879199322
 20
496.4764125025
 30
0.0
 11
54.7707626447
 21
496.966310451
 31
0.0
  0
LINE
  5
19B
330
1F
100
AcDbEntity
  8
0
  6
Continuous
 62
     7
370
    30
100
AcDbLine
 10
54.8742902628
 20
496.5799401205
 30
0.0
 11
54.4879199322
 21
496.4764125025
 31
0.0
  0
LINE
  5
19C
330
1F
100
AcDbEntity
  8
0
  6
Continuous
 62
     7
370
    30
100
AcDbLine
 10
56.3236769153
 20
491.1707554933
 30
0.0
 11
55.8337789668
 21
491.4535982058
 31
0.0
  0
LINE
  5
19D
330
1F
100
AcDbEntity
  8
0
  6
Continuous
 62
     7
370
    30
100
AcDbLine
 10
55.8337789668
 20
491.4535982058
 30
0.0
 11
56.2201492973
 21
491.5571258238
 31
0.0
  0
LINE
  5
19E
330
1F
100
AcDbEntity
  8
0
  6
Continuous
 62
     7
370
    30
100
AcDbLine
 10
55.8337789668
 20
491.4535982058
 30
0.0
 11
54.4879199322
 21
496.4764125025
 31
0.0
  0
LINE
  5
19F
330
1F
100
AcDbEntity
  8
0
  6
Continuous
 62
     7
370
    30
100
AcDbLine
 10
134.9190804725
 20
511.1950542248
 30
0.0
 11
56.4859033778
 21
490.1789477625
 31
0.0
  0
LINE
  5
1A0
330
1F
100
AcDbEntity
  8
0
  6
Continuous
 62
     7
370
    30
100
AcDbLine
 10
135.305450803
 20
511.2985818429
 30
0.0
 11
137.2724755458
 21
503.9575455631
 31
0.0
  0
LINE
  5
1A1
330
1F
100
AcDbEntity
  8
0
  6
Continuous
 62
     7
370
    30
100
AcDbLine
 10
134.9190804725
 20
511.1950542248
 30
0.0
 11
135.305450803
 21
511.2985818429
 31
0.0
  0
LINE
  5
1A2
330
1F
100
AcDbEntity
  8
0
  6
Continuous
 62
     7
370
    30
100
AcDbLine
 10
136.9896328333
 20
503.4676476145
 30
0.0
 11
58.5564557386
 21
482.4515411522
 31
0.0
  0
ARC
  5
1A3
330
1F
100
AcDbEntity
  8
0
  6
Continuous
 62
     7
370
    30
100
AcDbCircle
 10
136.8861052153
 20
503.854017945
 30
0.0
 40
0.400000000000041
100
AcDbArc
 50
285.0
 51
15.0
  0
LINE
  5
1A4
330
1F
100
AcDbEntity
  8
0
  6
Continuous
 62
     7
370
    30
100
AcDbLine
 10
56.0995330473
 20
490.0754201444
 30
0.0
 11
56.4859033778
 21
490.1789477625
 31
0.0
  0
LINE
  5
1A5
330
1F
100
AcDbEntity
  8
0
  6
Continuous
 62
     7
370
    30
100
AcDbLine
 10
58.0665577901
 20
482.7343838646
 30
0.0
 11
56.0995330473
 21
490.0754201444
 31
0.0
  0
ARC
  5
1A6
330
1F
100
AcDbEntity
  8
0
  6
Continuous
 62
     7
370
    30
100
AcDbCircle
 10
58.4529281206
 20
482.8379114827
 30
0.0
 40
0.4000000000001343
100
AcDbArc
 50
195.0
 51
285.0
  0
LINE
  5
1A7
330
1F
100
AcDbEntity
  8
0
  6
Continuous
 62
     7
370
    30
100
AcDbLine
 10
56.5824959604
 20
490.204829667
 30
0.0
 11
56.3236769153
 21
491.1707554933
 31
0.0
  0
LINE
  5
1A8
330
1F
100
AcDbEntity
  8
0
  6
Continuous
 62
     7
370
    30
100
AcDbLine
 10
134.8224878898
 20
511.1691723203
 30
0.0
 11
134.5636688447
 21
512.1350981466
 31
0.0
  0
LINE
  5
1A9
330
1F
100
AcDbEntity
  8
0
  6
Continuous
 62
     7
370
    30
100
AcDbLine
 10
52.3447986562
 20
505.6337609831
 30
0.0
 11
130.7779757508
 21
526.6498674455
 31
0.0
  0
LINE
  5
1AA
330
1F
100
AcDbEntity
  8
0
  6
Continuous
 62
     7
370
    30
100
AcDbLine
 10
54.415351017
 20
497.9063543728
 30
0.0
 11
132.8485281117
 21
518.9224608352
 31
0.0
  0
LINE
  5
1AB
330
1F
100
AcDbEntity
  8
0
  6
Continuous
 62
     7
370
    30
100
AcDbLine
 10
54.415351017
 20
497.9063543728
 30
0.0
 11
54.0289806865
 21
497.8028267548
 31
0.0
  0
LINE
  5
1AC
330
1F
100
AcDbEntity
  8
0
  6
Continuous
 62
     7
370
    30
100
AcDbLine
 10
133.2348984422
 20
519.0259884532
 30
0.0
 11
132.8485281117
 21
518.9224608352
 31
0.0
  0
ARC
  5
1AD
330
1F
100
AcDbEntity
  8
0
  6
Continuous
 62
     7
370
    30
100
AcDbCircle
 10
130.8815033689
 20
526.263497115
 30
0.0
 40
0.3999999999999694
100
AcDbArc
 50
15.0
 51
105.0
  0
LINE
  5
1AE
330
1F
100
AcDbEntity
  8
0
  6
Continuous
 62
     7
370
    30
100
AcDbLine
 10
131.2678736994
 20
526.367024733
 30
0.0
 11
133.2348984422
 21
519.0259884532
 31
0.0
  0
LINE
  5
1AF
330
1F
100
AcDbEntity
  8
0
  6
Continuous
 62
     7
370
    30
100
AcDbLine
 10
54.0289806865
 20
497.8028267548
 30
0.0
 11
52.0619559437
 21
505.1438630345
 31
0.0
  0
ARC
  5
1B0
330
1F
100
AcDbEntity
  8
0
  6
Continuous
 62
     7
370
    30
100
AcDbCircle
 10
52.4483262742
 20
505.2473906526
 30
0.0
 40
0.4000000000000245
100
AcDbArc
 50
105.0
 51
195.0
  0
LINE
  5
1B1
330
1F
100
AcDbEntity
  8
0
  6
Continuous
 62
     7
370
    30
100
AcDbLine
 10
132.751935529
 20
518.8965789306
 30
0.0
 11
133.0107545741
 21
517.9306531044
 31
0.0
  0
LINE
  5
1B2
330
1F
100
AcDbEntity
  8
0
  6
Continuous
 62
     7
370
    30
100
AcDbLine
 10
54.5119435996
 20
497.9322362773
 30
0.0
 11
54.7707626447
 21
496.966310451
 31
0.0
  0
LINE
  5
1B3
330
1F
100
AcDbEntity
  8
0
  6
Continuous
 62
     7
370
    30
100
AcDbLine
 10
59.5255439572
 20
482.6985579887
 30
0.0
 11
58.9892595297
 21
482.5648472634
 31
0.0
  0
LINE
  5
1B4
330
1F
100
AcDbEntity
  8
0
  6
Continuous
 62
     7
370
    30
100
AcDbLine
 10
59.5255439572
 20
482.6985579887
 30
0.0
 11
59.5223815649
 21
482.7103601973
 31
0.0
  0
LINE
  5
1B5
330
1F
100
AcDbEntity
  8
0
  6
Continuous
 62
     7
370
    30
100
AcDbLine
 10
58.9642861838
 20
482.5608189906
 30
0.0
 11
58.9892595297
 21
482.5648472634
 31
0.0
  0
LINE
  5
1B6
330
1F
100
AcDbEntity
  8
0
  6
Continuous
 62
   252
370
     0
100
AcDbLine
 10
134.4601412267
 20
512.5214684771
 30
0.0
 11
133.1142821922
 21
517.5442827738
 31
0.0
  0
LINE
  5
1B7
330
1F
100
AcDbEntity
  8
0
  6
Continuous
 62
   252
370
     0
100
AcDbLine
 10
54.8742902628
 20
496.5799401205
 30
0.0
 11
56.2201492973
 21
491.5571258238
 31
0.0
  0
LINE
  5
1B8
330
1F
100
AcDbEntity
  8
0
  6
Continuous
 62
   252
370
     0
100
AcDbLine
 10
136.8861052153
 20
503.854017945
 30
0.0
 11
134.9190804725
 21
511.1950542248
 31
0.0
  0
LINE
  5
1B9
330
1F
100
AcDbEntity
  8
0
  6
Continuous
 62
   252
370
     0
100
AcDbLine
 10
58.4529281206
 20
482.8379114827
 30
0.0
 11
136.8861052153
 21
503.854017945
 31
0.0
  0
LINE
  5
1BA
330
1F
100
AcDbEntity
  8
0
  6
Continuous
 62
   252
370
     0
100
AcDbLine
 10
56.4859033778
 20
490.1789477625
 30
0.0
 11
58.4529281206
 21
482.8379114827
 31
0.0
  0
LINE
  5
1BB
330
1F
100
AcDbEntity
  8
0
  6
Continuous
 62
   252
370
     0
100
AcDbLine
 10
137.2724755458
 20
503.9575455631
 30
0.0
 11
136.8861052153
 21
503.854017945
 31
0.0
  0
LINE
  5
1BC
330
1F
100
AcDbEntity
  8
0
  6
Continuous
 62
   252
370
     0
100
AcDbLine
 10
58.5564557386
 20
482.4515411522
 30
0.0
 11
58.4529281206
 21
482.8379114827
 31
0.0
  0
LINE
  5
1BD
330
1F
100
AcDbEntity
  8
0
  6
Continuous
 62
   252
370
     0
100
AcDbLine
 10
136.9896328333
 20
503.4676476145
 30
0.0
 11
136.8861052153
 21
503.854017945
 31
0.0
  0
LINE
  5
1BE
330
1F
100
AcDbEntity
  8
0
  6
Continuous
 62
   252
370
     0
100
AcDbLine
 10
58.0665577901
 20
482.7343838646
 30
0.0
 11
58.4529281206
 21
482.8379114827
 31
0.0
  0
LINE
  5
1BF
330
1F
100
AcDbEntity
  8
0
  6
Continuous
 62
   252
370
     0
100
AcDbLine
 10
130.7779757508
 20
526.6498674455
 30
0.0
 11
130.8815033689
 21
526.263497115
 31
0.0
  0
LINE
  5
1C0
330
1F
100
AcDbEntity
  8
0
  6
Continuous
 62
   252
370
     0
100
AcDbLine
 10
130.8815033689
 20
526.263497115
 30
0.0
 11
52.4483262742
 21
505.2473906526
 31
0.0
  0
LINE
  5
1C1
330
1F
100
AcDbEntity
  8
0
  6
Continuous
 62
   252
370
     0
100
AcDbLine
 10
52.3447986562
 20
505.6337609831
 30
0.0
 11
52.4483262742
 21
505.2473906526
 31
0.0
  0
LINE
  5
1C2
330
1F
100
AcDbEntity
  8
0
  6
Continuous
 62
   252
370
     0
100
AcDbLine
 10
52.4483262742
 20
505.2473906526
 30
0.0
 11
54.415351017
 21
497.9063543728
 31
0.0
  0
LINE
  5
1C3
330
1F
100
AcDbEntity
  8
0
  6
Continuous
 62
   252
370
     0
100
AcDbLine
 10
132.8485281117
 20
518.9224608352
 30
0.0
 11
130.8815033689
 21
526.263497115
 31
0.0
  0
LINE
  5
1C4
330
1F
100
AcDbEntity
  8
0
  6
Continuous
 62
   252
370
     0
100
AcDbLine
 10
130.8815033689
 20
526.263497115
 30
0.0
 11
131.2678736994
 21
526.367024733
 31
0.0
  0
LINE
  5
1C5
330
1F
100
AcDbEntity
  8
0
  6
Continuous
 62
   252
370
     0
100
AcDbLine
 10
52.0619559437
 20
505.1438630345
 30
0.0
 11
52.4483262742
 21
505.2473906526
 31
0.0
  0
LINE
  5
1C6
330
1F
100
AcDbEntity
  8
0
  6
Continuous
 62
   252
370
     0
100
AcDbLine
 10
58.988593701
 20
482.5673321702
 30
0.0
 11
58.9892595297
 21
482.5648472634
 31
0.0
  0
LINE
  5
1C7
330
1F
100
AcDbEntity
  8
0
  6
Continuous
 62
     7
370
    30
100
AcDbLine
 10
404.8481429198
 20
332.2187283934
 30
0.0
 11
404.8481429198
 21
338.0625101603
 31
0.0
  0
LINE
  5
1C8
330
1F
100
AcDbEntity
  8
0
  6
Continuous
 62
     7
370
    30
100
AcDbLine
 10
358.8481429198
 20
338.0625101603
 30
0.0
 11
358.8481429198
 21
332.2187283934
 31
0.0
  0
LINE
  5
1C9
330
1F
100
AcDbEntity
  8
0
  6
Continuous
 62
     7
370
    30
100
AcDbLine
 10
511.4481429194
 20
332.2187283934
 30
0.0
 11
252.2481429194
 21
332.2187283934
 31
0.0
  0
ARC
  5
1CA
330
1F
100
AcDbEntity
  8
0
  6
Continuous
 62
     7
370
    30
100
AcDbCircle
 10
252.2481429194
 20
331.8187283934
 30
0.0
 40
0.4000000000000341
100
AcDbArc
 50
90.0
 51
180.0
  0
ARC
  5
1CB
330
1F
100
AcDbEntity
  8
0
  6
Continuous
 62
     7
370
    30
100
AcDbCircle
 10
511.4481429194
 20
331.8187283934
 30
0.0
 40
0.4000000000000341
100
AcDbArc
 50
0.0
 51
90.0
  0
LINE
  5
1CC
330
1F
100
AcDbEntity
  8
0
  6
Continuous
 62
     7
370
    30
100
AcDbLine
 10
252.2481429194
 20
246.9809494524
 30
0.0
 11
511.4481429194
 21
246.9809494524
 31
0.0
  0
ARC
  5
1CD
330
1F
100
AcDbEntity
  8
0
  6
Continuous
 62
     7
370
    30
100
AcDbCircle
 10
252.2481429194
 20
247.3809494524
 30
0.0
 40
0.4000000000000057
100
AcDbArc
 50
180.0
 51
270.0
  0
ARC
  5
1CE
330
1F
100
AcDbEntity
  8
0
  6
Continuous
 62
     7
370
    30
100
AcDbCircle
 10
511.4481429194
 20
247.3809494524
 30
0.0
 40
0.4000000000000057
100
AcDbArc
 50
270.0
 51
0.0
  0
ARC
  5
1CF
330
1F
100
AcDbEntity
  8
0
  6
Continuous
 62
     7
370
    30
100
AcDbCircle
 10
496.8481429194
 20
314.0019681383
 30
0.0
 40
0.750291939585355
100
AcDbArc
 50
1.5983911499
 51
178.4016088501
  0
LINE
  5
1D0
330
1F
100
AcDbEntity
  8
0
  6
Continuous
 62
     7
370
    30
100
AcDbLine
 10
496.0981429194
 20
309.1932673275
 30
0.0
 11
496.0981429194
 21
314.022896459
 31
0.0
  0
ARC
  5
1D1
330
1F
100
AcDbEntity
  8
0
  6
Continuous
 62
     7
370
    30
100
AcDbCircle
 10
496.8481429194
 20
309.2141956482
 30
0.0
 40
0.7502919395853518
100
AcDbArc
 50
181.5983911499
 51
358.4016088501
  0
LINE
  5
1D2
330
1F
100
AcDbEntity
  8
0
  6
Continuous
 62
     7
370
    30
100
AcDbLine
 10
497.5981429194
 20
314.022896459
 30
0.0
 11
497.5981429194
 21
309.1932673275
 31
0.0
  0
LINE
  5
1D3
330
1F
100
AcDbEntity
  8
0
  6
Continuous
 62
     7
370
    30
100
AcDbLine
 10
497.5981429194
 20
300.4999348909
 30
0.0
 11
497.5981429194
 21
286.4929076557
 31
0.0
  0
ARC
  5
1D4
330
1F
100
AcDbEntity
  8
0
  6
Continuous
 62
     7
370
    30
100
AcDbCircle
 10
496.8481429194
 20
300.4790065703
 30
0.0
 40
0.7502919395853533
100
AcDbArc
 50
1.5983911499
 51
178.4016088501
  0
LINE
  5
1D5
330
1F
100
AcDbEntity
  8
0
  6
Continuous
 62
     7
370
    30
100
AcDbLine
 10
496.0981429194
 20
286.4929076557
 30
0.0
 11
496.0981429194
 21
300.4999348909
 31
0.0
  0
ARC
  5
1D6
330
1F
100
AcDbEntity
  8
0
  6
Continuous
 62
     7
370
    30
100
AcDbCircle
 10
496.8481429194
 20
272.5090142492
 30
0.0
 40
0.7502919395853533
100
AcDbArc
 50
181.5983911499
 51
358.4016088501
  0
LINE
  5
1D7
330
1F
100
AcDbEntity
  8
0
  6
Continuous
 62
     7
370
    30
100
AcDbLine
 10
497.5981429194
 20
286.4929076557
 30
0.0
 11
497.5981429194
 21
272.4880859286
 31
0.0
  0
LINE
  5
1D8
330
1F
100
AcDbEntity
  8
0
  6
Continuous
 62
     7
370
    30
100
AcDbLine
 10
496.0981429194
 20
272.4880859286
 30
0.0
 11
496.0981429194
 21
286.4929076557
 31
0.0
  0
ARC
  5
1D9
330
1F
100
AcDbEntity
  8
0
  6
Continuous
 62
     7
370
    30
100
AcDbCircle
 10
496.8481429194
 20
258.9860526812
 30
0.0
 40
0.7502919395853533
100
AcDbArc
 50
181.5983911499
 51
358.4016088501
  0
LINE
  5
1DA
330
1F
100
AcDbEntity
  8
0
  6
Continuous
 62
     7
370
    30
100
AcDbLine
 10
496.0981429194
 20
258.9651243605
 30
0.0
 11
496.0981429194
 21
263.794753492
 31
0.0
  0
ARC
  5
1DB
330
1F
100
AcDbEntity
  8
0
  6
Continuous
 62
     7
370
    30
100
AcDbCircle
 10
496.8481429194
 20
263.7738251713
 30
0.0
 40
0.7502919395853533
100
AcDbArc
 50
1.5983911499
 51
178.4016088501
  0
LINE
  5
1DC
330
1F
100
AcDbEntity
  8
0
  6
Continuous
 62
     7
370
    30
100
AcDbLine
 10
497.5981429194
 20
263.794753492
 30
0.0
 11
497.5981429194
 21
258.9651243605
 31
0.0
  0
ELLIPSE
  5
1DD
330
1F
100
AcDbEntity
  8
0
  6
Continuous
 62
     7
370
    30
100
AcDbEllipse
 10
381.8481429198
 20
338.0625101603
 30
0.0
 11
0.0
 21
-24.98628868032182
 31
0.0
210
0.0
220
0.0
230
1.0
 40
0.9205048535
 41
1.570796326794892
 42
4.712388980384707
  0
LINE
  5
1DE
330
1F
100
AcDbEntity
  8
0
  6
Continuous
 62
     7
370
    30
100
AcDbLine
 10
252.3481429194
 20
328.1675216203
 30
0.0
 11
252.3481429194
 21
328.4332757008
 31
0.0
  0
LINE
  5
1DF
330
1F
100
AcDbEntity
  8
0
  6
Continuous
 62
     7
370
    30
100
AcDbLine
 10
252.3481429194
 20
328.4332757008
 30
0.0
 11
511.3481429194
 21
328.4332757008
 31
0.0
  0
LINE
  5
1E0
330
1F
100
AcDbEntity
  8
0
  6
Continuous
 62
     7
370
    30
100
AcDbLine
 10
511.3481429194
 20
328.1675216203
 30
0.0
 11
511.3481429194
 21
328.4332757008
 31
0.0
  0
LINE
  5
1E1
330
1F
100
AcDbEntity
  8
0
  6
Continuous
 62
     7
370
    30
100
AcDbLine
 10
251.9558485903
 20
328.0449109959
 30
0.0
 11
251.9481429194
 21
328.0469053703
 31
0.0
  0
ARC
  5
1E2
330
1F
100
AcDbEntity
  8
0
  6
Continuous
 62
     7
370
    30
100
AcDbCircle
 10
252.3414441896
 20
328.0399703349
 30
0.0
 40
0.3933624077725896
100
AcDbArc
 50
89.0242395005
 51
178.9898148908
  0
ARC
  5
1E3
330
1F
100
AcDbEntity
  8
0
  6
Continuous
 62
     7
370
    30
100
AcDbCircle
 10
511.3548416493
 20
328.0399703349
 30
0.0
 40
0.3933624077725592
100
AcDbArc
 50
1.0101851092
 51
90.9757604995
  0
LINE
  5
1E4
330
1F
100
AcDbEntity
  8
0
  6
Continuous
 62
     7
370
    30
100
AcDbLine
 10
511.7481429194
 20
328.0469053703
 30
0.0
 11
511.7404372486
 21
328.0449109959
 31
0.0
  0
LINE
  5
1E5
330
1F
100
AcDbEntity
  8
0
  6
Continuous
 62
     7
370
    30
100
AcDbLine
 10
251.9481429194
 20
328.0367112419
 30
0.0
 11
251.9481429194
 21
328.0469053703
 31
0.0
  0
LINE
  5
1E6
330
1F
100
AcDbEntity
  8
0
  6
Continuous
 62
     7
370
    30
100
AcDbLine
 10
511.7481429194
 20
328.0469053703
 30
0.0
 11
511.7481429194
 21
328.0367112419
 31
0.0
  0
ARC
  5
1E7
330
1F
100
AcDbEntity
  8
0
  6
Continuous
 62
     7
370
    30
100
AcDbCircle
 10
252.3414441896
 20
329.3858293694
 30
0.0
 40
0.3933624077724596
100
AcDbArc
 50
89.0242395005
 51
178.9898148908
  0
LINE
  5
1E8
330
1F
100
AcDbEntity
  8
0
  6
Continuous
 62
     7
370
    30
100
AcDbLine
 10
251.9481429194
 20
328.0469053703
 30
0.0
 11
251.9481429194
 21
329.3927644049
 31
0.0
  0
ARC
  5
1E9
330
1F
100
AcDbEntity
  8
0
  6
Continuous
 62
     7
370
    30
100
AcDbCircle
 10
511.3548416493
 20
329.3858293694
 30
0.0
 40
0.3933624077725603
100
AcDbArc
 50
1.0101851092
 51
90.9757604995
  0
LINE
  5
1EA
330
1F
100
AcDbEntity
  8
0
  6
Continuous
 62
     7
370
    30
100
AcDbLine
 10
511.7481429194
 20
329.3927644049
 30
0.0
 11
511.7481429194
 21
328.0469053703
 31
0.0
  0
LINE
  5
1EB
330
1F
100
AcDbEntity
  8
0
  6
Continuous
 62
     7
370
    30
100
AcDbLine
 10
511.3481429194
 20
329.7791347354
 30
0.0
 11
252.3481429194
 21
329.7791347354
 31
0.0
  0
LINE
  5
1EC
330
1F
100
AcDbEntity
  8
0
  6
Continuous
 62
     7
370
    30
100
AcDbLine
 10
251.8481429194
 20
327.7811512898
 30
0.0
 11
251.8481429194
 21
329.8517036506
 31
0.0
  0
ARC
  5
1ED
330
1F
100
AcDbEntity
  8
0
  6
Continuous
 62
     7
370
    30
100
AcDbCircle
 10
252.2414441896
 20
329.8447686152
 30
0.0
 40
0.3933624077725886
100
AcDbArc
 50
89.0242395005
 51
178.9898148908
  0
LINE
  5
1EE
330
1F
100
AcDbEntity
  8
0
  6
Continuous
 62
     7
370
    30
100
AcDbLine
 10
252.2481429194
 20
330.2380739811
 30
0.0
 11
511.4481429194
 21
330.2380739811
 31
0.0
  0
ARC
  5
1EF
330
1F
100
AcDbEntity
  8
0
  6
Continuous
 62
     7
370
    30
100
AcDbCircle
 10
511.4548416493
 20
329.8447686152
 30
0.0
 40
0.3933624077726831
100
AcDbArc
 50
1.0101851092
 51
90.9757604995
  0
LINE
  5
1F0
330
1F
100
AcDbEntity
  8
0
  6
Continuous
 62
     7
370
    30
100
AcDbLine
 10
511.8481429194
 20
329.8517036506
 30
0.0
 11
511.8481429194
 21
327.7811512898
 31
0.0
  0
LINE
  5
1F1
330
1F
100
AcDbEntity
  8
0
  6
Continuous
 62
     7
370
    30
100
AcDbLine
 10
251.8481429194
 20
329.8517036506
 30
0.0
 11
251.8481429194
 21
331.8187283934
 31
0.0
  0
LINE
  5
1F2
330
1F
100
AcDbEntity
  8
0
  6
Continuous
 62
     7
370
    30
100
AcDbLine
 10
511.8481429194
 20
331.8187283934
 30
0.0
 11
511.8481429194
 21
329.8517036506
 31
0.0
  0
LINE
  5
1F3
330
1F
100
AcDbEntity
  8
0
  6
Continuous
 62
     7
370
    30
100
AcDbLine
 10
251.8481429194
 20
247.3809494524
 30
0.0
 11
251.8481429194
 21
325.814126547
 31
0.0
  0
LINE
  5
1F4
330
1F
100
AcDbEntity
  8
0
  6
Continuous
 62
     7
370
    30
100
AcDbLine
 10
511.8481429194
 20
325.814126547
 30
0.0
 11
511.8481429194
 21
247.3809494524
 31
0.0
  0
LINE
  5
1F5
330
1F
100
AcDbEntity
  8
0
  6
Continuous
 62
     7
370
    30
100
AcDbLine
 10
496.0981429194
 20
272.4880859286
 30
0.0
 11
496.0981429194
 21
300.4999348909
 31
0.0
  0
LINE
  5
1F6
330
1F
100
AcDbEntity
  8
0
  6
Continuous
 62
     7
370
    30
100
AcDbLine
 10
497.5981429194
 20
300.4999348909
 30
0.0
 11
497.5981429194
 21
272.4880859286
 31
0.0
  0
LINE
  5
1F7
330
1F
100
AcDbEntity
  8
0
  6
Continuous
 62
     7
370
    30
100
AcDbLine
 10
251.8481429194
 20
325.814126547
 30
0.0
 11
251.8481429194
 21
327.7811512898
 31
0.0
  0
ARC
  5
1F8
330
1F
100
AcDbEntity
  8
0
  6
Continuous
 62
     7
370
    30
100
AcDbCircle
 10
252.2414441896
 20
327.7742162544
 30
0.0
 40
0.3933624077726282
100
AcDbArc
 50
89.0242395005
 51
178.9898148908
  0
LINE
  5
1F9
330
1F
100
AcDbEntity
  8
0
  6
Continuous
 62
     7
370
    30
100
AcDbLine
 10
511.8481429194
 20
327.7811512898
 30
0.0
 11
511.8481429194
 21
325.814126547
 31
0.0
  0
ARC
  5
1FA
330
1F
100
AcDbEntity
  8
0
  6
Continuous
 62
     7
370
    30
100
AcDbCircle
 10
511.4548416493
 20
327.7742162544
 30
0.0
 40
0.3933624077724446
100
AcDbArc
 50
1.0101851092
 51
90.9757604995
  0
LINE
  5
1FB
330
1F
100
AcDbEntity
  8
0
  6
Continuous
 62
     7
370
    30
100
AcDbLine
 10
511.4481429194
 20
328.1675216203
 30
0.0
 11
252.2481429194
 21
328.1675216203
 31
0.0
  0
LINE
  5
1FC
330
1F
100
AcDbEntity
  8
0
  6
Continuous
 62
   252
370
     0
100
AcDbLine
 10
497.5981429194
 20
286.4929076557
 30
0.0
 11
496.0981429194
 21
286.4929076557
 31
0.0
  0
LINE
  5
1FD
330
1F
100
AcDbEntity
  8
0
  6
Continuous
 62
   252
370
     0
100
AcDbLine
 10
252.3481429194
 20
329.7791347354
 30
0.0
 11
252.3481429194
 21
328.4332757008
 31
0.0
  0
LINE
  5
1FE
330
1F
100
AcDbEntity
  8
0
  6
Continuous
 62
   252
370
     0
100
AcDbLine
 10
511.3481429194
 20
328.4332757008
 30
0.0
 11
511.3481429194
 21
329.7791347354
 31
0.0
  0
ARC
  5
1FF
330
1F
100
AcDbEntity
  8
0
  6
Continuous
 62
   252
370
     0
100
AcDbCircle
 10
252.2414441896
 20
331.811793358
 30
0.0
 40
0.3933624077725896
100
AcDbArc
 50
89.0242395005
 51
178.9898148908
  0
LINE
  5
200
330
1F
100
AcDbEntity
  8
0
  6
Continuous
 62
   252
370
     0
100
AcDbLine
 10
252.2481429194
 20
332.2050987239
 30
0.0
 11
252.2481429194
 21
330.2380739811
 31
0.0
  0
LINE
  5
201
330
1F
100
AcDbEntity
  8
0
  6
Continuous
 62
   252
370
     0
100
AcDbLine
 10
511.4481429194
 20
330.2380739811
 30
0.0
 11
511.4481429194
 21
332.2050987239
 31
0.0
  0
ARC
  5
202
330
1F
100
AcDbEntity
  8
0
  6
Continuous
 62
   252
370
     0
100
AcDbCircle
 10
511.4548416493
 20
331.811793358
 30
0.0
 40
0.3933624077724596
100
AcDbArc
 50
1.0101851092
 51
90.9757604995
  0
LINE
  5
203
330
1F
100
AcDbEntity
  8
0
  6
Continuous
 62
   252
370
     0
100
AcDbLine
 10
511.4481429194
 20
332.2050987239
 30
0.0
 11
252.2481429194
 21
332.2050987239
 31
0.0
  0
LINE
  5
204
330
1F
100
AcDbEntity
  8
0
  6
Continuous
 62
   252
370
     0
100
AcDbLine
 10
511.4481429194
 20
332.2187283934
 30
0.0
 11
511.4481429194
 21
332.2050987239
 31
0.0
  0
LINE
  5
205
330
1F
100
AcDbEntity
  8
0
  6
Continuous
 62
   252
370
     0
100
AcDbLine
 10
252.2481429194
 20
332.2187283934
 30
0.0
 11
252.2481429194
 21
332.2050987239
 31
0.0
  0
ARC
  5
206
330
1F
100
AcDbEntity
  8
0
  6
Continuous
 62
   252
370
     0
100
AcDbCircle
 10
252.2414441896
 20
325.8071915116
 30
0.0
 40
0.3933624077725613
100
AcDbArc
 50
89.0242395005
 51
178.9898148908
  0
LINE
  5
207
330
1F
100
AcDbEntity
  8
0
  6
Continuous
 62
   252
370
     0
100
AcDbLine
 10
252.2481429194
 20
325.710598929
 30
0.0
 11
252.2481429194
 21
326.2004968775
 31
0.0
  0
ARC
  5
208
330
1F
100
AcDbEntity
  8
0
  6
Continuous
 62
   252
370
     0
100
AcDbCircle
 10
252.1548416493
 20
326.174614973
 30
0.0
 40
0.4733033024929169
100
AcDbArc
 50
229.609308093
 51
281.3690545088
  0
LINE
  5
209
330
1F
100
AcDbEntity
  8
0
  6
Continuous
 62
   252
370
     0
100
AcDbLine
 10
511.4481429194
 20
325.710598929
 30
0.0
 11
252.2481429194
 21
325.710598929
 31
0.0
  0
LINE
  5
20A
330
1F
100
AcDbEntity
  8
0
  6
Continuous
 62
   252
370
     0
100
AcDbLine
 10
252.2481429194
 20
326.2004968775
 30
0.0
 11
511.4481429194
 21
326.2004968775
 31
0.0
  0
LINE
  5
20B
330
1F
100
AcDbEntity
  8
0
  6
Continuous
 62
   252
370
     0
100
AcDbLine
 10
511.4481429194
 20
325.710598929
 30
0.0
 11
511.4481429194
 21
326.2004968775
 31
0.0
  0
ARC
  5
20C
330
1F
100
AcDbEntity
  8
0
  6
Continuous
 62
   252
370
     0
100
AcDbCircle
 10
511.4548416493
 20
325.8071915116
 30
0.0
 40
0.3933624077725164
100
AcDbArc
 50
1.0101851092
 51
90.9757604995
  0
ARC
  5
20D
330
1F
100
AcDbEntity
  8
0
  6
Continuous
 62
   252
370
     0
100
AcDbCircle
 10
511.5414441896
 20
326.174614973
 30
0.0
 40
0.473303302493345
100
AcDbArc
 50
258.6309454912
 51
310.390691907
  0
LINE
  5
20E
330
1F
100
AcDbEntity
  8
0
  6
Continuous
 62
   252
370
     0
100
AcDbLine
 10
252.2481429194
 20
325.710598929
 30
0.0
 11
252.2481429194
 21
247.2774218343
 31
0.0
  0
ARC
  5
20F
330
1F
100
AcDbEntity
  8
0
  6
Continuous
 62
   252
370
     0
100
AcDbCircle
 10
252.1548416493
 20
247.7414378784
 30
0.0
 40
0.473303302492997
100
AcDbArc
 50
229.609308093
 51
281.3690545088
  0
LINE
  5
210
330
1F
100
AcDbEntity
  8
0
  6
Continuous
 62
   252
370
     0
100
AcDbLine
 10
511.4481429194
 20
247.2774218343
 30
0.0
 11
511.4481429194
 21
325.710598929
 31
0.0
  0
ARC
  5
211
330
1F
100
AcDbEntity
  8
0
  6
Continuous
 62
   252
370
     0
100
AcDbCircle
 10
511.5414441896
 20
247.7414378784
 30
0.0
 40
0.4733033024928152
100
AcDbArc
 50
258.6309454912
 51
310.390691907
  0
LINE
  5
212
330
1F
100
AcDbEntity
  8
0
  6
Continuous
 62
   252
370
     0
100
AcDbLine
 10
252.2481429194
 20
247.2774218343
 30
0.0
 11
511.4481429194
 21
247.2774218343
 31
0.0
  0
LINE
  5
213
330
1F
100
AcDbEntity
  8
0
  6
Continuous
 62
   252
370
     0
100
AcDbLine
 10
252.2481429194
 20
328.1675216203
 30
0.0
 11
252.2481429194
 21
326.2004968775
 31
0.0
  0
LINE
  5
214
330
1F
100
AcDbEntity
  8
0
  6
Continuous
 62
   252
370
     0
100
AcDbLine
 10
511.4481429194
 20
326.2004968775
 30
0.0
 11
511.4481429194
 21
328.1675216203
 31
0.0
  0
LINE
  5
215
330
1F
100
AcDbEntity
  8
0
  6
Continuous
 62
   252
370
     0
100
AcDbLine
 10
252.2481429194
 20
246.9809494524
 30
0.0
 11
252.2481429194
 21
247.2774218343
 31
0.0
  0
LINE
  5
216
330
1F
100
AcDbEntity
  8
0
  6
Continuous
 62
   252
370
     0
100
AcDbLine
 10
511.4481429194
 20
246.9809494524
 30
0.0
 11
511.4481429194
 21
247.2774218343
 31
0.0
  0
LINE
  5
217
330
1F
100
AcDbEntity
  8
0
  6
Continuous
 62
     7
370
    30
100
AcDbLine
 10
656.5422767802
 20
77.6220999559
 30
0.0
 11
662.6971376669
 21
64.4312258549
 31
0.0
  0
LINE
  5
218
330
1F
100
AcDbEntity
  8
0
  6
Continuous
 62
     7
370
    30
100
AcDbLine
 10
716.1057784653
 20
48.1661280321
 30
0.0
 11
716.1124472234
 21
48.167828106
 31
0.0
  0
LINE
  5
219
330
1F
100
AcDbEntity
  8
0
  6
Continuous
 62
     7
370
    30
100
AcDbLine
 10
716.1124472234
 20
48.167828106
 30
0.0
 11
716.1190726481
 21
48.1696899151
 31
0.0
  0
LINE
  5
21A
330
1F
100
AcDbEntity
  8
0
  6
Continuous
 62
     7
370
    30
100
AcDbLine
 10
771.749643379
 20
97.6006982241
 30
0.0
 11
770.7979773292
 21
101.1526459713
 31
0.0
  0
LINE
  5
21B
330
1F
100
AcDbEntity
  8
0
  6
Continuous
 62
     7
370
    30
100
AcDbLine
 10
531.5605473824
 20
157.6143331266
 30
0.0
 11
532.5122134322
 21
154.0623853794
 31
0.0
  0
ARC
  5
21C
330
1F
100
AcDbEntity
  8
0
  6
Continuous
 62
     7
370
    30
100
AcDbCircle
 10
717.6887658676
 20
42.1920694647
 30
0.0
 40
0.4000000000000241
100
AcDbArc
 50
240.0026882664
 51
311.5635822438
  0
LINE
  5
21D
330
1F
100
AcDbEntity
  8
0
  6
Continuous
 62
     7
370
    30
100
AcDbLine
 10
717.9541461759
 20
41.8927814898
 30
0.0
 11
773.4147775696
 21
91.0700311313
 31
0.0
  0
LINE
  5
21E
330
1F
100
AcDbEntity
  8
0
  6
Continuous
 62
     7
370
    30
100
AcDbLine
 10
689.6994856204
 20
57.8880693171
 30
0.0
 11
717.4887821211
 21
41.8456499198
 31
0.0
  0
LINE
  5
21F
330
1F
100
AcDbEntity
  8
0
  6
Continuous
 62
     7
370
    30
100
AcDbLine
 10
773.5357696443
 20
91.4728390637
 30
0.0
 11
772.14487311
 21
96.6641473096
 31
0.0
  0
ARC
  5
220
330
1F
100
AcDbEntity
  8
0
  6
Continuous
 62
     7
370
    30
100
AcDbCircle
 10
773.1493972612
 20
91.3693191062
 30
0.0
 40
0.4000000000001054
100
AcDbArc
 50
311.5635822438
 51
14.9988639926
  0
LINE
  5
221
330
1F
100
AcDbEntity
  8
0
  6
Continuous
 62
     7
370
    30
100
AcDbLine
 10
534.2067044375
 20
147.652141212
 30
0.0
 11
561.9960009382
 21
131.6097218147
 31
0.0
  0
LINE
  5
222
330
1F
100
AcDbEntity
  8
0
  6
Continuous
 62
     7
370
    30
100
AcDbLine
 10
532.6294192666
 20
153.0863490454
 30
0.0
 11
534.020315801
 21
147.8950407995
 31
0.0
  0
ARC
  5
223
330
1F
100
AcDbEntity
  8
0
  6
Continuous
 62
     7
370
    30
100
AcDbCircle
 10
534.4066881841
 20
147.9985607569
 30
0.0
 40
0.40000000000004
100
AcDbArc
 50
194.9988639926
 51
240.0026882663
  0
ARC
  5
224
330
1F
100
AcDbEntity
  8
0
  6
Continuous
 62
     7
370
    30
100
AcDbCircle
 10
768.9035025773
 20
107.2164705937
 30
0.0
 40
0.4000000000000077
100
AcDbArc
 50
14.9988639926
 51
60.0026882664
  0
LINE
  5
225
330
1F
100
AcDbEntity
  8
0
  6
Continuous
 62
     7
370
    30
100
AcDbLine
 10
769.1034863239
 20
107.5628901387
 30
0.0
 11
585.8214086403
 21
213.3693814309
 31
0.0
  0
LINE
  5
226
330
1F
100
AcDbEntity
  8
0
  6
Continuous
 62
     7
370
    30
100
AcDbLine
 10
770.6807714948
 20
102.1286823053
 30
0.0
 11
769.2898749604
 21
107.3199905512
 31
0.0
  0
ARC
  5
227
330
1F
100
AcDbEntity
  8
0
  6
Continuous
 62
     7
370
    30
100
AcDbCircle
 10
530.1607935001
 20
163.8457122444
 30
0.0
 40
0.4000000000001054
100
AcDbArc
 50
131.5635822438
 51
194.9988639926
  0
LINE
  5
228
330
1F
100
AcDbEntity
  8
0
  6
Continuous
 62
     7
370
    30
100
AcDbLine
 10
585.3560445855
 20
213.3222498609
 30
0.0
 11
529.8954131918
 21
164.1450002194
 31
0.0
  0
LINE
  5
229
330
1F
100
AcDbEntity
  8
0
  6
Continuous
 62
     7
370
    30
100
AcDbLine
 10
529.7744211171
 20
163.742192287
 30
0.0
 11
531.1653176514
 21
158.5508840411
 31
0.0
  0
ARC
  5
22A
330
1F
100
AcDbEntity
  8
0
  6
Continuous
 62
     7
370
    30
100
AcDbCircle
 10
585.6214248938
 20
213.022961886
 30
0.0
 40
0.4000000000000077
100
AcDbArc
 50
60.0026882664
 51
131.5635822437
  0
SPLINE
  5
22B
330
1F
100
AcDbEntity
  8
0
  6
Continuous
 62
     7
370
    30
100
AcDbSpline
210
0.0
220
0.0
230
1.0
 70
     8
 71
     3
 72
    11
 73
     7
 74
     0
 42
0.000000001
 43
0.00000001
 40
0.0
 40
0.0
 40
0.0
 40
0.0
 40
0.3525176620953116
 40
0.6332724098426239
 40
0.8864244118301688
 40
1.0
 40
1.0
 40
1.0
 40
1.0
 10
688.5221694437092
 20
59.23795378136672
 30
0.0
 10
688.549577365596
 20
59.22460345935715
 30
0.0
 10
688.5988137092128
 20
59.20062057424177
 30
0.0
 10
688.6762853673862
 20
59.19909415333284
 30
0.0
 10
688.7342737791112
 20
59.21552958720815
 30
0.0
 10
688.757900712965
 20
59.23860678167325
 30
0.0
 10
688.7652179778262
 20
59.2457537921656
 30
0.0
  0
SPLINE
  5
22C
330
1F
100
AcDbEntity
  8
0
  6
Continuous
 62
     7
370
    30
100
AcDbSpline
210
0.0
220
0.0
230
1.0
 70
     8
 71
     3
 72
     9
 73
     5
 74
     0
 42
0.000000001
 43
0.00000001
 40
0.0
 40
0.0
 40
0.0
 40
0.0
 40
0.7504172463341207
 40
1.0
 40
1.0
 40
1.0
 40
1.0
 10
688.9104662346072
 20
59.36311461699427
 30
0.0
 10
688.9244613410752
 20
59.37068520522396
 30
0.0
 10
688.9431111076369
 20
59.38077371034115
 30
0.0
 10
688.9397653603527
 20
59.38043787197495
 30
0.0
 10
688.9389303195325
 20
59.38035405251071
 30
0.0
  0
LINE
  5
22D
330
1F
100
AcDbEntity
  8
0
  6
Continuous
 62
     7
370
    30
100
AcDbLine
 10
688.7674626487
 20
59.2434847034
 30
0.0
 11
688.9100093849
 21
59.3650939306
 31
0.0
  0
LINE
  5
22E
330
1F
100
AcDbEntity
  8
0
  6
Continuous
 62
     7
370
    30
100
AcDbLine
 10
563.0814264612
 20
131.6533533
 30
0.0
 11
688.5221694437
 21
59.2379537814
 31
0.0
  0
LINE
  5
22F
330
1F
100
AcDbEntity
  8
0
  6
Continuous
 62
     7
370
    30
100
AcDbLine
 10
563.0402600891
 20
131.5996652469
 30
0.0
 11
689.4579998942
 21
58.6202574678
 31
0.0
  0
SPLINE
  5
230
330
1F
100
AcDbEntity
  8
0
  6
Continuous
 62
     7
370
    30
100
AcDbSpline
210
0.0
220
0.0
230
1.0
 70
     8
 71
     3
 72
    11
 73
     7
 74
     0
 42
0.000000001
 43
0.00000001
 40
0.0
 40
0.0
 40
0.0
 40
0.0
 40
0.1336992949607327
 40
0.4232076065096754
 40
0.6917629491289712
 40
1.0
 40
1.0
 40
1.0
 40
1.0
 10
562.1222436933473
 20
135.1149115932418
 30
0.0
 10
562.1144188919855
 20
135.1087023909206
 30
0.0
 10
562.0896505081525
 20
135.0890479742427
 30
0.0
 10
562.0683731404528
 20
135.0401818189639
 30
0.0
 10
562.05808569559
 20
134.9780725179272
 30
0.0
 10
562.0661416144355
 20
134.9379169227101
 30
0.0
 10
562.0704466862345
 20
134.9164578286141
 30
0.0
  0
SPLINE
  5
231
330
1F
100
AcDbEntity
  8
0
  6
Continuous
 62
     7
370
    30
100
AcDbSpline
210
0.0
220
0.0
230
1.0
 70
     8
 71
     3
 72
    10
 73
     6
 74
     0
 42
0.000000001
 43
0.00000001
 40
0.0
 40
0.0
 40
0.0
 40
0.0
 40
0.2540736450512251
 40
0.8983314945956604
 40
1.0
 40
1.0
 40
1.0
 40
1.0
 10
562.2763597738481
 20
135.2713259856079
 30
0.0
 10
562.2764570075951
 20
135.2721832065117
 30
0.0
 10
562.2768007982208
 20
135.2752140936215
 30
0.0
 10
562.2690725008113
 20
135.2513189770886
 30
0.0
 10
562.2587946292427
 20
135.2461632019438
 30
0.0
 10
562.2573937726647
 20
135.2454604784783
 30
0.0
  0
LINE
  5
232
330
1F
100
AcDbEntity
  8
0
  6
Continuous
 62
     7
370
    30
100
AcDbLine
 10
562.2577853963
 20
135.2441162357
 30
0.0
 11
562.1199920111
 21
135.1171463214
 31
0.0
  0
LINE
  5
233
330
1F
100
AcDbEntity
  8
0
  6
Continuous
 62
     7
370
    30
100
AcDbLine
 10
562.0704466862
 20
134.9164578286
 30
0.0
 11
562.8757025746
 21
131.910963581
 31
0.0
  0
LINE
  5
234
330
1F
100
AcDbEntity
  8
0
  6
Continuous
 62
     7
370
    30
100
AcDbLine
 10
561.6975035858
 20
135.6548828527
 30
0.0
 11
562.6565123058
 21
132.0755297139
 31
0.0
  0
SPLINE
  5
235
330
1F
100
AcDbEntity
  8
0
  6
Continuous
 62
     7
370
    30
100
AcDbSpline
210
0.0
220
0.0
230
1.0
 70
     8
 71
     3
 72
    11
 73
     7
 74
     0
 42
0.000000001
 43
0.00000001
 40
0.0
 40
0.0
 40
0.0
 40
0.0
 40
0.262642456370167
 40
0.5608225765987436
 40
0.8741664923699368
 40
1.0
 40
1.0
 40
1.0
 40
1.0
 10
562.8757025745616
 20
131.9109635809847
 30
0.0
 10
562.8851459807508
 20
131.8846188918681
 30
0.0
 10
562.9053105629137
 20
131.8283648625911
 30
0.0
 10
562.9663004287838
 20
131.7456265164387
 30
0.0
 10
563.0293840004734
 20
131.68581916592
 30
0.0
 10
563.0698360918597
 20
131.6605837686169
 30
0.0
 10
563.0814264612159
 20
131.6533533000411
 30
0.0
  0
SPLINE
  5
236
330
1F
100
AcDbEntity
  8
0
  6
Continuous
 62
     7
370
    30
100
AcDbSpline
210
0.0
220
0.0
230
1.0
 70
     8
 71
     3
 72
    11
 73
     7
 74
     0
 42
0.000000001
 43
0.00000001
 40
0.0
 40
0.0
 40
0.0
 40
0.0
 40
0.2545214239201433
 40
0.5175633750012232
 40
0.7926282216733215
 40
1.0
 40
1.0
 40
1.0
 40
1.0
 10
562.6565123058352
 20
132.0755297139373
 30
0.0
 10
562.6728476643929
 20
132.0301407542169
 30
0.0
 10
562.7060652347519
 20
131.9378433640057
 30
0.0
 10
562.8073926221978
 20
131.795549829862
 30
0.0
 10
562.9245176237284
 20
131.6751979567817
 30
0.0
 10
563.0054653247078
 20
131.6223720627401
 30
0.0
 10
563.0402600891052
 20
131.5996652469192
 30
0.0
  0
LWPOLYLINE
  5
237
330
1F
100
AcDbEntity
  8
0
  6
Continuous
 62
     7
370
    30
100
AcDbPolyline
 90
        9
 70
   128
 43
0.0
 10
749.7117547323
 20
106.4274926654
 10
749.9481569402
 20
106.5780119091
 10
750.2293070031
 20
106.659006937
 10
750.5124023725
 20
106.6581469904
 10
750.7543443447
 20
106.5755629884
 10
750.9182994476
 20
106.4238275966
 10
750.9793070031
 20
106.2260411529
 10
750.9280791639
 20
106.0123148506
 10
750.7724149041
 20
105.8151865815
  0
LINE
  5
238
330
1F
100
AcDbEntity
  8
0
  6
Continuous
 62
     7
370
    30
100
AcDbLine
 10
746.2966912229
 20
103.3993368993
 30
0.0
 11
749.7117547323
 21
106.4274926654
 31
0.0
  0
LWPOLYLINE
  5
239
330
1F
100
AcDbEntity
  8
0
  6
Continuous
 62
     7
370
    30
100
AcDbPolyline
 90
        9
 70
   128
 43
0.0
 10
747.3573513947
 20
102.7870308154
 10
747.1209491868
 20
102.6365115718
 10
746.8397991239
 20
102.5555165438
 10
746.5567037545
 20
102.5563764904
 10
746.3147617824
 20
102.6389604925
 10
746.1508066794
 20
102.7906958843
 10
746.0897991239
 20
102.9884823279
 10
746.1410269631
 20
103.2022086303
 10
746.2966912229
 20
103.3993368993
  0
LINE
  5
23A
330
1F
100
AcDbEntity
  8
0
  6
Continuous
 62
     7
370
    30
100
AcDbLine
 10
750.7724149041
 20
105.8151865815
 30
0.0
 11
747.3573513947
 21
102.7870308154
 31
0.0
  0
LWPOLYLINE
  5
23B
330
1F
100
AcDbEntity
  8
0
  6
Continuous
 62
     7
370
    30
100
AcDbPolyline
 90
        9
 70
   128
 43
0.0
 10
721.4028687228
 20
79.7730469931
 10
721.1664665149
 20
79.6225277494
 10
720.885316452
 20
79.5415327215
 10
720.6022210826
 20
79.542392668
 10
720.3602791105
 20
79.6249766701
 10
720.1963240075
 20
79.7767120619
 10
720.135316452
 20
79.9744985055
 10
720.1865442912
 20
80.1882248079
 10
720.342208551
 20
80.3853530769
  0
LINE
  5
23C
330
1F
100
AcDbEntity
  8
0
  6
Continuous
 62
     7
370
    30
100
AcDbLine
 10
720.342208551
 20
80.3853530769
 30
0.0
 11
730.2451129635
 21
89.1663133768
 31
0.0
  0
LINE
  5
23D
330
1F
100
AcDbEntity
  8
0
  6
Continuous
 62
     7
370
    30
100
AcDbLine
 10
731.3057731353
 20
88.5540072929
 30
0.0
 11
721.4028687228
 21
79.7730469931
 31
0.0
  0
LINE
  5
23E
330
1F
100
AcDbEntity
  8
0
  6
Continuous
 62
     7
370
    30
100
AcDbLine
 10
741.2102370776
 20
97.3363504365
 30
0.0
 11
731.3057731353
 21
88.5540072929
 31
0.0
  0
LWPOLYLINE
  5
23F
330
1F
100
AcDbEntity
  8
0
  6
Continuous
 62
     7
370
    30
100
AcDbPolyline
 90
        9
 70
   128
 43
0.0
 10
740.1495769059
 20
97.9486565203
 10
740.3859791137
 20
98.099175764
 10
740.6671291766
 20
98.1801707919
 10
740.950224546
 20
98.1793108453
 10
741.1921665182
 20
98.0967268433
 10
741.3561216211
 20
97.9449914515
 10
741.4171291766
 20
97.7472050079
 10
741.3659013374
 20
97.5334787055
 10
741.2102370776
 20
97.3363504365
  0
LINE
  5
240
330
1F
100
AcDbEntity
  8
0
  6
Continuous
 62
     7
370
    30
100
AcDbLine
 10
730.2451129635
 20
89.1663133768
 30
0.0
 11
740.1495769059
 21
97.9486565203
 31
0.0
  0
LWPOLYLINE
  5
241
330
1F
100
AcDbEntity
  8
0
  6
Continuous
 62
     7
370
    30
100
AcDbPolyline
 90
        9
 70
   128
 43
0.0
 10
711.8406908963
 20
71.294210848
 10
711.6042886884
 20
71.1436916043
 10
711.3231386255
 20
71.0626965764
 10
711.0400432561
 20
71.063556523
 10
710.798101284
 20
71.146140525
 10
710.634146181
 20
71.2978759168
 10
710.5731386255
 20
71.4956623604
 10
710.6243664647
 20
71.7093886628
 10
710.7800307245
 20
71.9065169318
  0
LINE
  5
242
330
1F
100
AcDbEntity
  8
0
  6
Continuous
 62
     7
370
    30
100
AcDbLine
 10
710.7800307245
 20
71.9065169318
 30
0.0
 11
714.195094234
 21
74.9346726979
 31
0.0
  0
LWPOLYLINE
  5
243
330
1F
100
AcDbEntity
  8
0
  6
Continuous
 62
     7
370
    30
100
AcDbPolyline
 90
        9
 70
   128
 43
0.0
 10
714.195094234
 20
74.9346726979
 10
714.4314964418
 20
75.0851919416
 10
714.7126465047
 20
75.1661869695
 10
714.9957418741
 20
75.165327023
 10
715.2376838463
 20
75.0827430209
 10
715.4016389492
 20
74.9310076291
 10
715.4626465047
 20
74.7332211855
 10
715.4114186655
 20
74.5194948831
 10
715.2557544057
 20
74.3223666141
  0
LINE
  5
244
330
1F
100
AcDbEntity
  8
0
  6
Continuous
 62
     7
370
    30
100
AcDbLine
 10
715.2557544057
 20
74.3223666141
 30
0.0
 11
711.8406908963
 21
71.294210848
 31
0.0
  0
ELLIPSE
  5
245
330
1F
100
AcDbEntity
  8
0
  6
Continuous
 62
     7
370
    30
100
AcDbEllipse
 10
685.9233788473
 20
69.0482274391
 30
0.0
 11
23.99370837838557
 21
1.708200295016894
 31
0.0
210
0.0
220
0.0
230
1.0
 40
0.5733653866
 41
3.357592763250224
 42
3.844824255267992
  0
ELLIPSE
  5
246
330
1F
100
AcDbEntity
  8
0
  6
Continuous
 62
     7
370
    30
100
AcDbEllipse
 10
685.9233788473
 20
69.0482274391
 30
0.0
 11
23.99370837838557
 21
1.708200295016894
 31
0.0
210
0.0
220
0.0
230
1.0
 40
0.5733653866
 41
3.844824255267978
 42
4.959765633216292
  0
LINE
  5
247
330
1F
100
AcDbEntity
  8
0
  6
Continuous
 62
     7
370
    30
100
AcDbLine
 10
714.814371012
 20
51.7507501417
 30
0.0
 11
715.014371012
 21
52.2662293528
 31
0.0
  0
LINE
  5
248
330
1F
100
AcDbEntity
  8
0
  6
Continuous
 62
     7
370
    30
100
AcDbLine
 10
715.3704188053
 20
51.8297209806
 30
0.0
 11
715.014371012
 21
52.2662293528
 31
0.0
  0
ARC
  5
249
330
1F
100
AcDbEntity
  8
0
  6
Continuous
 62
     7
370
    30
100
AcDbCircle
 10
715.0328399691
 20
52.2095725364
 30
0.0
 40
0.5081797664834009
100
AcDbArc
 50
244.5384768194
 51
311.6278941113
  0
LINE
  5
24A
330
1F
100
AcDbEntity
  8
0
  6
Continuous
 62
     7
370
    30
100
AcDbLine
 10
770.6944476585
 20
100.8858443915
 30
0.0
 11
715.3704188053
 21
51.8297209806
 31
0.0
  0
LINE
  5
24B
330
1F
100
AcDbEntity
  8
0
  6
Continuous
 62
     7
370
    30
100
AcDbLine
 10
770.6944476585
 20
100.8858443915
 30
0.0
 11
770.3383998653
 21
101.3223527636
 31
0.0
  0
LINE
  5
24C
330
1F
100
AcDbEntity
  8
0
  6
Continuous
 62
     7
370
    30
100
AcDbLine
 10
770.3383998653
 20
101.3223527636
 30
0.0
 11
715.014371012
 21
52.2662293528
 31
0.0
  0
LINE
  5
24D
330
1F
100
AcDbEntity
  8
0
  6
Continuous
 62
     7
370
    30
100
AcDbLine
 10
714.814371012
 20
51.7507501417
 30
0.0
 11
531.6737146847
 21
157.4756006227
 31
0.0
  0
LINE
  5
24E
330
1F
100
AcDbEntity
  8
0
  6
Continuous
 62
     7
370
    30
100
AcDbLine
 10
531.6737146847
 20
157.4756006227
 30
0.0
 11
531.8737146847
 21
157.9910798338
 31
0.0
  0
LINE
  5
24F
330
1F
100
AcDbEntity
  8
0
  6
Continuous
 62
     7
370
    30
100
AcDbLine
 10
715.014371012
 20
52.2662293528
 30
0.0
 11
531.8737146847
 21
157.9910798338
 31
0.0
  0
ARC
  5
250
330
1F
100
AcDbEntity
  8
0
  6
Continuous
 62
     7
370
    30
100
AcDbCircle
 10
715.9845060189
 20
48.6576247892
 30
0.0
 40
0.5081797664834075
100
AcDbArc
 50
244.5384768194
 51
311.6278941112
  0
LINE
  5
251
330
1F
100
AcDbEntity
  8
0
  6
Continuous
 62
     7
370
    30
100
AcDbLine
 10
716.3220848551
 20
48.2777732334
 30
0.0
 11
771.6461137084
 21
97.3338966443
 31
0.0
  0
LINE
  5
252
330
1F
100
AcDbEntity
  8
0
  6
Continuous
 62
     7
370
    30
100
AcDbLine
 10
532.6253807346
 20
153.9236528755
 30
0.0
 11
715.7660370619
 21
48.1988023945
 31
0.0
  0
LINE
  5
253
330
1F
100
AcDbEntity
  8
0
  6
Continuous
 62
     7
370
    30
100
AcDbLine
 10
770.3383998653
 20
101.3223527636
 30
0.0
 11
770.6848100268
 21
101.2913784751
 31
0.0
  0
ARC
  5
254
330
1F
100
AcDbEntity
  8
0
  6
Continuous
 62
     7
370
    30
100
AcDbCircle
 10
770.5653131913
 20
101.0856570368
 30
0.0
 40
0.2379092345331859
100
AcDbArc
 50
302.8736869072
 51
59.8491012454
  0
LINE
  5
255
330
1F
100
AcDbEntity
  8
0
  6
Continuous
 62
     7
370
    30
100
AcDbLine
 10
770.2848338192
 20
101.5222798249
 30
0.0
 11
770.6848100268
 21
101.2913784751
 31
0.0
  0
ARC
  5
256
330
1F
100
AcDbEntity
  8
0
  6
Continuous
 62
     7
370
    30
100
AcDbCircle
 10
771.4857566861
 20
97.5496091883
 30
0.0
 40
0.2687866742490159
100
AcDbArc
 50
306.6264825235
 51
10.9570327446
  0
ARC
  5
257
330
1F
100
AcDbEntity
  8
0
  6
Continuous
 62
     7
370
    30
100
AcDbCircle
 10
531.7932115203
 20
157.681322061
 30
0.0
 40
0.2379092345331783
100
AcDbArc
 50
122.8736869072
 51
239.8491012454
  0
LINE
  5
258
330
1F
100
AcDbEntity
  8
0
  6
Continuous
 62
     7
370
    30
100
AcDbLine
 10
531.8737146847
 20
157.9910798338
 30
0.0
 11
531.664077053
 21
157.8811347064
 31
0.0
  0
LINE
  5
259
330
1F
100
AcDbEntity
  8
0
  6
Continuous
 62
     7
370
    30
100
AcDbLine
 10
531.664077053
 20
157.8811347064
 30
0.0
 11
531.8572737098
 21
158.0524432541
 31
0.0
  0
ARC
  5
25A
330
1F
100
AcDbEntity
  8
0
  6
Continuous
 62
     7
370
    30
100
AcDbCircle
 10
532.7313232162
 20
154.1255954416
 30
0.0
 40
0.2280451915810887
100
AcDbArc
 50
196.0920998506
 51
242.3177374602
  0
LINE
  5
25B
330
1F
100
AcDbEntity
  8
0
  6
Continuous
 62
     7
370
    30
100
AcDbLine
 10
716.2954599253
 20
47.4847612315
 30
0.0
 11
716.1124472234
 21
48.167828106
 31
0.0
  0
LINE
  5
25C
330
1F
100
AcDbEntity
  8
0
  6
Continuous
 62
     7
370
    30
100
AcDbLine
 10
771.6194887786
 20
96.5408846424
 30
0.0
 11
771.4529170516
 21
97.1625880965
 31
0.0
  0
LINE
  5
25D
330
1F
100
AcDbEntity
  8
0
  6
Continuous
 62
     7
370
    30
100
AcDbLine
 10
771.6194887786
 20
96.5408846424
 30
0.0
 11
716.2954599253
 21
47.4847612315
 31
0.0
  0
LINE
  5
25E
330
1F
100
AcDbEntity
  8
0
  6
Continuous
 62
     7
370
    30
100
AcDbLine
 10
533.154803598
 20
153.2096117126
 30
0.0
 11
533.0253569422
 21
153.6927515258
 31
0.0
  0
LINE
  5
25F
330
1F
100
AcDbEntity
  8
0
  6
Continuous
 62
     7
370
    30
100
AcDbLine
 10
716.2954599253
 20
47.4847612315
 30
0.0
 11
533.154803598
 21
153.2096117126
 31
0.0
  0
ARC
  5
260
330
1F
100
AcDbEntity
  8
0
  6
Continuous
 62
     7
370
    30
100
AcDbCircle
 10
716.2431332095
 20
47.599947644
 30
0.0
 40
0.5081797664834202
100
AcDbArc
 50
244.5384768194
 51
311.6278941113
  0
ARC
  5
261
330
1F
100
AcDbEntity
  8
0
  6
Continuous
 62
     7
370
    30
100
AcDbCircle
 10
532.8620834044
 20
153.1533379799
 30
0.0
 40
0.2379092345332261
100
AcDbArc
 50
122.8736869072
 51
239.8491012454
  0
LINE
  5
262
330
1F
100
AcDbEntity
  8
0
  6
Continuous
 62
     7
370
    30
100
AcDbLine
 10
532.7329489372
 20
153.3531506252
 30
0.0
 11
533.0427460284
 21
153.6278494252
 31
0.0
  0
LINE
  5
263
330
1F
100
AcDbEntity
  8
0
  6
Continuous
 62
     7
370
    30
100
AcDbLine
 10
771.46102487
 20
97.1323269062
 30
0.0
 11
772.0317058076
 21
96.8028798134
 31
0.0
  0
ARC
  5
264
330
1F
100
AcDbEntity
  8
0
  6
Continuous
 62
     7
370
    30
100
AcDbCircle
 10
771.9122089721
 20
96.5971583751
 30
0.0
 40
0.2379092345332639
100
AcDbArc
 50
302.8736869072
 51
59.8491012453
  0
LINE
  5
265
330
1F
100
AcDbEntity
  8
0
  6
Continuous
 62
     7
370
    30
100
AcDbLine
 10
772.0413434393
 20
96.3973457298
 30
0.0
 11
716.5807120457
 21
47.2200960883
 31
0.0
  0
LINE
  5
266
330
1F
100
AcDbEntity
  8
0
  6
Continuous
 62
     7
370
    30
100
AcDbLine
 10
716.0246642525
 20
47.1411252493
 30
0.0
 11
532.7425865689
 21
152.9476165416
 31
0.0
  0
LINE
  5
267
330
1F
100
AcDbEntity
  8
0
  6
Continuous
 62
     7
370
    30
100
AcDbLine
 10
689.2053350719
 20
59.563290212
 30
0.0
 11
689.6262642862
 21
57.9922364008
 31
0.0
  0
LINE
  5
268
330
1F
100
AcDbEntity
  8
0
  6
Continuous
 62
     7
370
    30
100
AcDbLine
 10
689.2053350719
 20
59.563290212
 30
0.0
 11
689.7003098187
 21
59.2775473729
 31
0.0
  0
LINE
  5
269
330
1F
100
AcDbEntity
  8
0
  6
Continuous
 62
     7
370
    30
100
AcDbLine
 10
689.7003098187
 20
59.2775473729
 30
0.0
 11
689.242778064
 21
60.985214559
 31
0.0
  0
LINE
  5
26A
330
1F
100
AcDbEntity
  8
0
  6
Continuous
 62
     7
370
    30
100
AcDbLine
 10
689.242778064
 20
60.985214559
 30
0.0
 11
688.7478033171
 21
61.2709573982
 31
0.0
  0
LINE
  5
26B
330
1F
100
AcDbEntity
  8
0
  6
Continuous
 62
     7
370
    30
100
AcDbLine
 10
688.4183804537
 20
62.5004777722
 30
0.0
 11
688.7478033171
 21
61.2709573982
 31
0.0
  0
LINE
  5
26C
330
1F
100
AcDbEntity
  8
0
  6
Continuous
 62
     7
370
    30
100
AcDbLine
 10
560.7148957714
 20
136.2221302698
 30
0.0
 11
688.4183804537
 21
62.5004777722
 31
0.0
  0
LINE
  5
26D
330
1F
100
AcDbEntity
  8
0
  6
Continuous
 62
     7
370
    30
100
AcDbLine
 10
560.7148957714
 20
136.2221302698
 30
0.0
 11
561.0443186348
 21
134.9926098958
 31
0.0
  0
LINE
  5
26E
330
1F
100
AcDbEntity
  8
0
  6
Continuous
 62
     7
370
    30
100
AcDbLine
 10
561.0443186348
 20
134.9926098958
 30
0.0
 11
560.549343888
 21
135.2783527349
 31
0.0
  0
LINE
  5
26F
330
1F
100
AcDbEntity
  8
0
  6
Continuous
 62
     7
370
    30
100
AcDbLine
 10
561.0068756427
 20
133.5706855487
 30
0.0
 11
560.549343888
 21
135.2783527349
 31
0.0
  0
LINE
  5
270
330
1F
100
AcDbEntity
  8
0
  6
Continuous
 62
     7
370
    30
100
AcDbLine
 10
561.0068756427
 20
133.5706855487
 30
0.0
 11
561.5018503896
 21
133.2849427096
 31
0.0
  0
LINE
  5
271
330
1F
100
AcDbEntity
  8
0
  6
Continuous
 62
     7
370
    30
100
AcDbLine
 10
561.5018503896
 20
133.2849427096
 30
0.0
 11
561.9227796039
 21
131.7138888983
 31
0.0
  0
ARC
  5
272
330
1F
100
AcDbEntity
  8
0
  6
Continuous
 62
     7
370
    30
100
AcDbCircle
 10
689.7853433072
 20
58.0262385585
 30
0.0
 40
0.1626723136868561
100
AcDbArc
 50
192.0650686624
 51
238.143385482
  0
LINE
  5
273
330
1F
100
AcDbEntity
  8
0
  6
Continuous
 62
     7
370
    30
100
AcDbLine
 10
562.2691897654
 20
131.6829146098
 30
0.0
 11
562.6715075193
 21
132.0396519949
 31
0.0
  0
LINE
  5
274
330
1F
100
AcDbEntity
  8
0
  6
Continuous
 62
     7
370
    30
100
AcDbLine
 10
689.5434292213
 20
59.8630801706
 30
0.0
 11
689.2053350719
 21
59.563290212
 31
0.0
  0
LINE
  5
275
330
1F
100
AcDbEntity
  8
0
  6
Continuous
 62
     7
370
    30
100
AcDbLine
 10
561.0443186348
 20
134.9926098958
 30
0.0
 11
561.7154921752
 21
135.5877431987
 31
0.0
  0
LINE
  5
276
330
1F
100
AcDbEntity
  8
0
  6
Continuous
 62
     7
370
    30
100
AcDbLine
 10
562.0161433325
 20
134.4656088102
 30
0.0
 11
561.0068756427
 21
133.5706855487
 31
0.0
  0
LINE
  5
277
330
1F
100
AcDbEntity
  8
0
  6
Continuous
 62
     7
370
    30
100
AcDbLine
 10
561.5018503896
 20
133.2849427096
 30
0.0
 11
562.1730239299
 21
133.8800760125
 31
0.0
  0
LWPOLYLINE
  5
278
330
1F
100
AcDbEntity
  8
0
  6
Continuous
 62
     7
370
    30
100
AcDbPolyline
 90
        9
 70
   128
 43
0.0
 10
561.9227796039
 20
131.7138888983
 10
561.9423107657
 20
131.6652398169
 10
561.971590474
 20
131.6277699185
 10
562.0094935259
 20
131.6029191505
 10
562.0545633284
 20
131.5916425139
 10
562.1050678744
 20
131.5943733636
 10
562.1590663024
 20
131.6110067544
 10
562.2144834832
 20
131.6409034745
 10
562.2691897654
 20
131.6829146098
  0
ARC
  5
279
330
1F
100
AcDbEntity
  8
0
  6
Continuous
 62
     7
370
    30
100
AcDbCircle
 10
714.7790315944
 20
53.0644826397
 30
0.0
 40
0.5081797664834716
100
AcDbArc
 50
244.5384768194
 51
311.6278941113
  0
LWPOLYLINE
  5
27A
330
1F
100
AcDbEntity
  8
0
  6
Continuous
 62
     7
370
    30
100
AcDbPolyline
 90
        9
 70
   128
 43
0.0
 10
747.3573513947
 20
102.7870308154
 10
747.1209491868
 20
102.6365115718
 10
746.8397991239
 20
102.5555165438
 10
746.5567037545
 20
102.5563764904
 10
746.3147617824
 20
102.6389604925
 10
746.1508066794
 20
102.7906958843
 10
746.0897991239
 20
102.9884823279
 10
746.1410269631
 20
103.2022086303
 10
746.2966912229
 20
103.3993368993
  0
LWPOLYLINE
  5
27B
330
1F
100
AcDbEntity
  8
0
  6
Continuous
 62
     7
370
    30
100
AcDbPolyline
 90
        9
 70
   128
 43
0.0
 10
749.7117547323
 20
106.4274926654
 10
749.9481569402
 20
106.5780119091
 10
750.2293070031
 20
106.659006937
 10
750.5124023725
 20
106.6581469904
 10
750.7543443447
 20
106.5755629884
 10
750.9182994476
 20
106.4238275966
 10
750.9793070031
 20
106.2260411529
 10
750.9280791639
 20
106.0123148506
 10
750.7724149041
 20
105.8151865815
  0
LWPOLYLINE
  5
27C
330
1F
100
AcDbEntity
  8
0
  6
Continuous
 62
     7
370
    30
100
AcDbPolyline
 90
        9
 70
   128
 43
0.0
 10
711.8406908963
 20
71.294210848
 10
711.6042886884
 20
71.1436916043
 10
711.3231386255
 20
71.0626965764
 10
711.0400432561
 20
71.063556523
 10
710.798101284
 20
71.146140525
 10
710.634146181
 20
71.2978759168
 10
710.5731386255
 20
71.4956623604
 10
710.6243664647
 20
71.7093886628
 10
710.7800307245
 20
71.9065169318
  0
LWPOLYLINE
  5
27D
330
1F
100
AcDbEntity
  8
0
  6
Continuous
 62
     7
370
    30
100
AcDbPolyline
 90
        9
 70
   128
 43
0.0
 10
714.195094234
 20
74.9346726979
 10
714.4314964418
 20
75.0851919416
 10
714.7126465047
 20
75.1661869695
 10
714.9957418741
 20
75.165327023
 10
715.2376838463
 20
75.0827430209
 10
715.4016389492
 20
74.9310076291
 10
715.4626465047
 20
74.7332211855
 10
715.4114186655
 20
74.5194948831
 10
715.2557544057
 20
74.3223666141
  0
LWPOLYLINE
  5
27E
330
1F
100
AcDbEntity
  8
0
  6
Continuous
 62
     7
370
    30
100
AcDbPolyline
 90
        9
 70
   128
 43
0.0
 10
721.4028687228
 20
79.7730469931
 10
721.1664665149
 20
79.6225277494
 10
720.885316452
 20
79.5415327215
 10
720.6022210826
 20
79.542392668
 10
720.3602791105
 20
79.6249766701
 10
720.1963240075
 20
79.7767120619
 10
720.135316452
 20
79.9744985055
 10
720.1865442912
 20
80.1882248079
 10
720.342208551
 20
80.3853530769
  0
LINE
  5
27F
330
1F
100
AcDbEntity
  8
0
  6
Continuous
 62
     7
370
    30
100
AcDbLine
 10
720.342208551
 20
80.3853530769
 30
0.0
 11
740.1495769059
 21
97.9486565203
 31
0.0
  0
LWPOLYLINE
  5
280
330
1F
100
AcDbEntity
  8
0
  6
Continuous
 62
     7
370
    30
100
AcDbPolyline
 90
        9
 70
   128
 43
0.0
 10
740.1495769059
 20
97.9486565203
 10
740.3859791137
 20
98.099175764
 10
740.6671291766
 20
98.1801707919
 10
740.950224546
 20
98.1793108453
 10
741.1921665182
 20
98.0967268433
 10
741.3561216211
 20
97.9449914515
 10
741.4171291766
 20
97.7472050079
 10
741.3659013374
 20
97.5334787055
 10
741.2102370776
 20
97.3363504365
  0
LINE
  5
281
330
1F
100
AcDbEntity
  8
0
  6
Continuous
 62
     7
370
    30
100
AcDbLine
 10
741.2102370776
 20
97.3363504365
 30
0.0
 11
721.4028687228
 21
79.7730469931
 31
0.0
  0
LINE
  5
282
330
1F
100
AcDbEntity
  8
0
  6
Continuous
 62
     7
370
    30
100
AcDbLine
 10
715.1166104306
 20
52.684631084
 30
0.0
 11
770.5772418242
 21
101.8618807255
 31
0.0
  0
LINE
  5
283
330
1F
100
AcDbEntity
  8
0
  6
Continuous
 62
     7
370
    30
100
AcDbLine
 10
531.2784849538
 20
158.4121515373
 30
0.0
 11
714.5605626373
 21
52.605660245
 31
0.0
  0
ARC
  5
284
330
1F
100
AcDbEntity
  8
0
  6
Continuous
 62
     7
370
    30
100
AcDbCircle
 10
531.3844274354
 20
158.6140941033
 30
0.0
 40
0.2280451915808456
100
AcDbArc
 50
196.0920998506
 51
242.3177374602
  0
ARC
  5
285
330
1F
100
AcDbEntity
  8
0
  6
Continuous
 62
     7
370
    30
100
AcDbCircle
 10
770.4114612662
 20
102.079697818
 30
0.0
 40
0.2737288424721097
100
AcDbArc
 50
307.274757772
 51
10.3087574961
  0
LINE
  5
286
330
1F
100
AcDbEntity
  8
0
  6
Continuous
 62
     7
370
    30
100
AcDbLine
 10
714.9299271837
 20
52.5814030064
 30
0.0
 11
715.014371012
 21
52.2662293528
 31
0.0
  0
LINE
  5
287
330
1F
100
AcDbEntity
  8
0
  6
Continuous
 62
     7
370
    30
100
AcDbLine
 10
531.8491658914
 20
158.0827044445
 30
0.0
 11
531.8737146847
 21
157.9910798338
 31
0.0
  0
LINE
  5
288
330
1F
100
AcDbEntity
  8
0
  6
Continuous
 62
     7
370
    30
100
AcDbLine
 10
770.267444733
 20
101.5871819255
 30
0.0
 11
770.3383998653
 21
101.3223527636
 31
0.0
  0
ELLIPSE
  5
289
330
1F
100
AcDbEntity
  8
0
  6
Continuous
 62
     7
370
    30
100
AcDbEllipse
 10
686.5048460087
 20
61.6975568711
 30
0.0
 11
-0.2655828159018939
 21
0.2993547287509344
 31
0.0
210
0.0
220
0.0
230
1.0
 40
0.4081729109
 41
2.255286833297951
 42
3.825900427589899
  0
LINE
  5
28A
330
1F
100
AcDbEntity
  8
0
  6
Continuous
 62
     7
370
    30
100
AcDbLine
 10
686.7878745035
 20
61.5341257932
 30
0.0
 11
686.732945193
 21
61.73914103
 31
0.0
  0
ELLIPSE
  5
28B
330
1F
100
AcDbEntity
  8
0
  6
Continuous
 62
     7
370
    30
100
AcDbEllipse
 10
686.4499434525
 20
61.9024722517
 30
0.0
 11
-0.2655460302390792
 21
0.2992916038456528
 31
0.0
210
0.0
220
0.0
230
1.0
 40
0.4083190754
 41
3.826031821883484
 42
5.396645416175093
  0
LINE
  5
28C
330
1F
100
AcDbEntity
  8
0
  6
Continuous
 62
     7
370
    30
100
AcDbLine
 10
686.3767890843
 20
62.1756728918
 30
0.0
 11
564.1094664101
 21
132.7590958612
 31
0.0
  0
LINE
  5
28D
330
1F
100
AcDbEntity
  8
0
  6
Continuous
 62
     7
370
    30
100
AcDbLine
 10
563.8996957157
 20
132.6492665888
 30
0.0
 11
563.9546250262
 21
132.444251352
 31
0.0
  0
ELLIPSE
  5
28E
330
1F
100
AcDbEntity
  8
0
  6
Continuous
 62
     7
370
    30
100
AcDbEllipse
 10
564.2376267667
 20
132.2809201304
 30
0.0
 11
-0.2655460302390792
 21
0.2992916038456599
 31
0.0
210
0.0
220
0.0
230
1.0
 40
0.4083190754
 41
0.6844391682940103
 42
2.255052762584568
  0
LINE
  5
28F
330
1F
100
AcDbEntity
  8
0
  6
Continuous
 62
     7
370
    30
100
AcDbLine
 10
564.3107811348
 20
132.0077194903
 30
0.0
 11
686.578103809
 21
61.4242965209
 31
0.0
  0
ELLIPSE
  5
290
330
1F
100
AcDbEntity
  8
0
  6
Continuous
 62
     7
370
    30
100
AcDbEllipse
 10
564.1827242105
 20
132.485835511
 30
0.0
 11
-0.2655828159016664
 21
0.2993547287508989
 31
0.0
210
0.0
220
0.0
230
1.0
 40
0.4081729109
 41
5.396879486888696
 42
6.967493081179843
  0
LINE
  5
291
330
1F
100
AcDbEntity
  8
0
  6
Continuous
 62
     7
370
    30
100
AcDbLine
 10
564.0613506086
 20
132.7833509444
 30
0.0
 11
563.8996957157
 21
132.6492665888
 31
0.0
  0
LINE
  5
292
330
1F
100
AcDbEntity
  8
0
  6
Continuous
 62
   252
370
     0
100
AcDbLine
 10
731.3057731353
 20
88.5540072929
 30
0.0
 11
730.2451129635
 21
89.1663133768
 31
0.0
  0
LINE
  5
293
330
1F
100
AcDbEntity
  8
0
  6
Continuous
 62
   252
370
     0
100
AcDbLine
 10
715.7660370619
 20
48.1988023945
 30
0.0
 11
714.814371012
 21
51.7507501417
 31
0.0
  0
LINE
  5
294
330
1F
100
AcDbEntity
  8
0
  6
Continuous
 62
   252
370
     0
100
AcDbLine
 10
715.3704188053
 20
51.8297209806
 30
0.0
 11
716.3220848551
 21
48.2777732334
 31
0.0
  0
LINE
  5
295
330
1F
100
AcDbEntity
  8
0
  6
Continuous
 62
   252
370
     0
100
AcDbLine
 10
771.6461137084
 20
97.3338966443
 30
0.0
 11
770.6944476585
 21
100.8858443915
 31
0.0
  0
LINE
  5
296
330
1F
100
AcDbEntity
  8
0
  6
Continuous
 62
   252
370
     0
100
AcDbLine
 10
531.6737146847
 20
157.4756006227
 30
0.0
 11
532.6253807346
 21
153.9236528755
 31
0.0
  0
LINE
  5
297
330
1F
100
AcDbEntity
  8
0
  6
Continuous
 62
   252
370
     0
100
AcDbLine
 10
717.4155607868
 20
41.9498170034
 30
0.0
 11
716.0246642525
 21
47.1411252493
 31
0.0
  0
LINE
  5
298
330
1F
100
AcDbEntity
  8
0
  6
Continuous
 62
   252
370
     0
100
AcDbLine
 10
716.5807120457
 20
47.2200960883
 30
0.0
 11
717.9716085801
 21
42.0287878424
 31
0.0
  0
ARC
  5
299
330
1F
100
AcDbEntity
  8
0
  6
Continuous
 62
   252
370
     0
100
AcDbCircle
 10
717.6340297439
 20
42.4086393981
 30
0.0
 40
0.5081797664836063
100
AcDbArc
 50
244.5384768194
 51
311.6278941112
  0
LINE
  5
29A
330
1F
100
AcDbEntity
  8
0
  6
Continuous
 62
   252
370
     0
100
AcDbLine
 10
773.4322399737
 20
91.2060374839
 30
0.0
 11
772.0413434393
 21
96.3973457298
 31
0.0
  0
LINE
  5
29B
330
1F
100
AcDbEntity
  8
0
  6
Continuous
 62
   252
370
     0
100
AcDbLine
 10
717.9716085801
 20
42.0287878424
 30
0.0
 11
773.4322399737
 21
91.2060374839
 31
0.0
  0
LINE
  5
29C
330
1F
100
AcDbEntity
  8
0
  6
Continuous
 62
   252
370
     0
100
AcDbLine
 10
534.1334831033
 20
147.7563082957
 30
0.0
 11
561.9227796039
 21
131.7138888983
 31
0.0
  0
LINE
  5
29D
330
1F
100
AcDbEntity
  8
0
  6
Continuous
 62
   252
370
     0
100
AcDbLine
 10
532.7425865689
 20
152.9476165416
 30
0.0
 11
534.1334831033
 21
147.7563082957
 31
0.0
  0
LINE
  5
29E
330
1F
100
AcDbEntity
  8
0
  6
Continuous
 62
   252
370
     0
100
AcDbLine
 10
689.6262642862
 20
57.9922364008
 30
0.0
 11
717.4155607868
 21
41.9498170034
 31
0.0
  0
ARC
  5
29F
330
1F
100
AcDbEntity
  8
0
  6
Continuous
 62
   252
370
     0
100
AcDbCircle
 10
717.8546184646
 20
41.9746844646
 30
0.0
 40
0.1288947733633483
100
AcDbArc
 50
320.5484792034
 51
24.8187053671
  0
ARC
  5
2A0
330
1F
100
AcDbEntity
  8
0
  6
Continuous
 62
   252
370
     0
100
AcDbCircle
 10
717.5746398078
 20
41.9838191612
 30
0.0
 40
0.1626723136866998
100
AcDbArc
 50
192.0650686623
 51
238.143385482
  0
ARC
  5
2A1
330
1F
100
AcDbEntity
  8
0
  6
Continuous
 62
   252
370
     0
100
AcDbCircle
 10
773.3152498583
 20
91.1519341061
 30
0.0
 40
0.1288947733632682
100
AcDbArc
 50
320.5484792035
 51
24.8187053672
  0
ARC
  5
2A2
330
1F
100
AcDbEntity
  8
0
  6
Continuous
 62
   252
370
     0
100
AcDbCircle
 10
773.2664594158
 20
91.4238545764
 30
0.0
 40
0.2737288424729659
100
AcDbArc
 50
307.2747577721
 51
10.308757496
  0
ARC
  5
2A3
330
1F
100
AcDbEntity
  8
0
  6
Continuous
 62
   252
370
     0
100
AcDbCircle
 10
534.2925621243
 20
147.7903104534
 30
0.0
 40
0.1626723136878487
100
AcDbArc
 50
192.0650686625
 51
238.1433854818
  0
ARC
  5
2A4
330
1F
100
AcDbEntity
  8
0
  6
Continuous
 62
   252
370
     0
100
AcDbCircle
 10
534.239425585
 20
147.9582508617
 30
0.0
 40
0.228045191577478
100
AcDbArc
 50
196.0920998502
 51
242.3177374605
  0
ARC
  5
2A5
330
1F
100
AcDbEntity
  8
0
  6
Continuous
 62
   252
370
     0
100
AcDbCircle
 10
712.9429032123
 20
57.6008856788
 30
0.0
 40
0.8297271103762661
100
AcDbArc
 50
19.3597798433
 51
59.0465656955
  0
ARC
  5
2A6
330
1F
100
AcDbEntity
  8
0
  6
Continuous
 62
   252
370
     0
100
AcDbCircle
 10
713.38813506
 20
58.2557908856
 30
0.0
 40
0.5081797664838229
100
AcDbArc
 50
244.5384768194
 51
311.6278941112
  0
ARC
  5
2A7
330
1F
100
AcDbEntity
  8
0
  6
Continuous
 62
   252
370
     0
100
AcDbCircle
 10
713.740268406
 20
57.8721198202
 30
0.0
 40
0.5755299389106814
100
AcDbArc
 50
130.0856682716
 51
187.5029719881
  0
LINE
  5
2A8
330
1F
100
AcDbEntity
  8
0
  6
Continuous
 62
   252
370
     0
100
AcDbLine
 10
713.3696661029
 20
58.312447702
 30
0.0
 11
768.8302974966
 21
107.4896973435
 31
0.0
  0
ARC
  5
2A9
330
1F
100
AcDbEntity
  8
0
  6
Continuous
 62
   252
370
     0
100
AcDbCircle
 10
768.403534606
 20
106.7781353203
 30
0.0
 40
0.8297271103755697
100
AcDbArc
 50
19.3597798433
 51
59.0465656955
  0
LINE
  5
2AA
330
1F
100
AcDbEntity
  8
0
  6
Continuous
 62
   252
370
     0
100
AcDbLine
 10
769.1863452898
 20
107.0531889714
 30
0.0
 11
713.7257138962
 21
57.8759393299
 31
0.0
  0
LINE
  5
2AB
330
1F
100
AcDbEntity
  8
0
  6
Continuous
 62
   252
370
     0
100
AcDbLine
 10
713.1696661029
 20
57.7969684909
 30
0.0
 11
529.8875884194
 21
163.6034597832
 31
0.0
  0
ARC
  5
2AC
330
1F
100
AcDbEntity
  8
0
  6
Continuous
 62
   252
370
     0
100
AcDbCircle
 10
530.4581907225
 20
163.6786111124
 30
0.0
 40
0.5755299389109058
100
AcDbArc
 50
130.0856682716
 51
187.5029719881
  0
LINE
  5
2AD
330
1F
100
AcDbEntity
  8
0
  6
Continuous
 62
   252
370
     0
100
AcDbLine
 10
530.0875884194
 20
164.1189389942
 30
0.0
 11
713.3696661029
 21
58.312447702
 31
0.0
  0
LINE
  5
2AE
330
1F
100
AcDbEntity
  8
0
  6
Continuous
 62
   252
370
     0
100
AcDbLine
 10
713.7257138962
 20
57.8759393299
 30
0.0
 11
715.1166104306
 21
52.684631084
 31
0.0
  0
LINE
  5
2AF
330
1F
100
AcDbEntity
  8
0
  6
Continuous
 62
   252
370
     0
100
AcDbLine
 10
714.5605626373
 20
52.605660245
 30
0.0
 11
713.1696661029
 21
57.7969684909
 31
0.0
  0
LINE
  5
2B0
330
1F
100
AcDbEntity
  8
0
  6
Continuous
 62
   252
370
     0
100
AcDbLine
 10
585.548219813
 20
213.2961886357
 30
0.0
 11
530.0875884194
 21
164.1189389942
 31
0.0
  0
LINE
  5
2B1
330
1F
100
AcDbEntity
  8
0
  6
Continuous
 62
   252
370
     0
100
AcDbLine
 10
768.8302974966
 20
107.4896973435
 30
0.0
 11
585.548219813
 21
213.2961886357
 31
0.0
  0
LINE
  5
2B2
330
1F
100
AcDbEntity
  8
0
  6
Continuous
 62
   252
370
     0
100
AcDbLine
 10
770.5772418242
 20
101.8618807255
 30
0.0
 11
769.1863452898
 21
107.0531889714
 31
0.0
  0
LINE
  5
2B3
330
1F
100
AcDbEntity
  8
0
  6
Continuous
 62
   252
370
     0
100
AcDbLine
 10
529.8875884194
 20
163.6034597832
 30
0.0
 11
531.2784849538
 21
158.4121515373
 31
0.0
  0
ARC
  5
2B4
330
1F
100
AcDbEntity
  8
0
  6
Continuous
 62
   252
370
     0
100
AcDbCircle
 10
769.01780055
 20
107.3362795251
 30
0.0
 40
0.2422693171818234
100
AcDbArc
 50
69.2874433586
 51
140.7094529388
  0
ARC
  5
2B5
330
1F
100
AcDbEntity
  8
0
  6
Continuous
 62
   252
370
     0
100
AcDbCircle
 10
769.0259882675
 20
107.2689015154
 30
0.0
 40
0.2687866742483093
100
AcDbArc
 50
306.6264825235
 51
10.9570327447
  0
ARC
  5
2B6
330
1F
100
AcDbEntity
  8
0
  6
Continuous
 62
   252
370
     0
100
AcDbCircle
 10
585.7357228664
 20
213.1427708173
 30
0.0
 40
0.2422693171817965
100
AcDbArc
 50
69.2874433586
 51
140.7094529388
  0
ARC
  5
2B7
330
1F
100
AcDbEntity
  8
0
  6
Continuous
 62
   252
370
     0
100
AcDbCircle
 10
529.9716267923
 20
163.9854188207
 30
0.0
 40
0.1768466446217462
100
AcDbArc
 50
49.025842552
 51
115.528417182
  0
ARC
  5
2B8
330
1F
100
AcDbEntity
  8
0
  6
Continuous
 62
   252
370
     0
100
AcDbCircle
 10
529.993530901
 20
163.8054023492
 30
0.0
 40
0.2280451915808849
100
AcDbArc
 50
196.0920998506
 51
242.3177374602
  0
ARC
  5
2B9
330
1F
100
AcDbEntity
  8
0
  6
Continuous
 62
   252
370
     0
100
AcDbCircle
 10
585.4322581859
 20
213.1626684622
 30
0.0
 40
0.1768466446214017
100
AcDbArc
 50
49.0258425518
 51
115.528417182
  0
LWPOLYLINE
  5
2BA
330
1F
100
AcDbEntity
  8
0
  6
Continuous
 62
   252
370
     0
100
AcDbPolyline
 90
        9
 70
   128
 43
0.0
 10
689.1308250125
 20
59.4978699023
 10
689.1409133543
 20
59.4406635403
 10
689.1382192016
 20
59.3928109554
 10
689.1228460892
 20
59.3561510957
 10
689.095384797
 20
59.3320927791
 10
689.0568906473
 20
59.321560553
 10
689.0088429485
 20
59.3249591651
 10
688.9530881468
 20
59.3421580086
 10
688.9080609041
 20
59.363431646
  0
LINE
  5
2BB
330
1F
100
AcDbEntity
  8
0
  6
Continuous
 62
   252
370
     0
100
AcDbLine
 10
688.3255691241
 20
62.5033641499
 30
0.0
 11
689.1308250125
 21
59.4978699023
 31
0.0
  0
LINE
  5
2BC
330
1F
100
AcDbEntity
  8
0
  6
Continuous
 62
   252
370
     0
100
AcDbLine
 10
688.3034715907
 20
62.5668132468
 30
0.0
 11
688.3255691241
 21
62.5033641499
 31
0.0
  0
LINE
  5
2BD
330
1F
100
AcDbEntity
  8
0
  6
Continuous
 62
   252
370
     0
100
AcDbLine
 10
562.2397579086
 20
135.291153633
 30
0.0
 11
562.229721361
 21
135.347640071
 31
0.0
  0
LINE
  5
2BE
330
1F
100
AcDbEntity
  8
0
  6
Continuous
 62
   252
370
     0
100
AcDbLine
 10
562.2534346622
 20
135.2401072454
 30
0.0
 11
562.2397579086
 21
135.291153633
 31
0.0
  0
ARC
  5
2BF
330
1F
100
AcDbEntity
  8
0
  6
Continuous
 62
   252
370
     0
100
AcDbCircle
 10
563.3889886803
 20
132.2659616625
 30
0.0
 40
0.7313949277829659
100
AcDbArc
 50
199.3597798433
 51
239.0465656955
  0
LINE
  5
2C0
330
1F
100
AcDbEntity
  8
0
  6
Continuous
 62
   252
370
     0
100
AcDbLine
 10
561.7312169538
 20
135.6354205396
 30
0.0
 11
562.6989500442
 21
132.023505025
 31
0.0
  0
LINE
  5
2C1
330
1F
100
AcDbEntity
  8
0
  6
Continuous
 62
   252
370
     0
100
AcDbLine
 10
689.4673512859
 20
59.7956214431
 30
0.0
 11
689.1313988613
 21
61.0495124041
 31
0.0
  0
LINE
  5
2C2
330
1F
100
AcDbEntity
  8
0
  6
Continuous
 62
   252
370
     0
100
AcDbLine
 10
563.0128020888
 20
131.6387279033
 30
0.0
 11
689.4506429828
 21
58.6477160125
 31
0.0
  0
ARC
  5
2C3
330
1F
100
AcDbEntity
  8
0
  6
Continuous
 62
   252
370
     0
100
AcDbCircle
 10
687.5197019394
 20
62.2648036136
 30
0.0
 40
0.6350626916053627
100
AcDbArc
 50
19.3597798433
 51
59.0465656955
  0
LINE
  5
2C4
330
1F
100
AcDbEntity
  8
0
  6
Continuous
 62
   252
370
     0
100
AcDbLine
 10
687.8463408868
 20
62.8094242341
 30
0.0
 11
687.8598775574
 21
62.8228946314
 31
0.0
  0
ARC
  5
2C5
330
1F
100
AcDbEntity
  8
0
  6
Continuous
 62
   252
370
     0
100
AcDbCircle
 10
688.2436413565
 20
62.3313560235
 30
0.0
 40
0.1905228455141843
100
AcDbArc
 50
64.5314591762
 51
130.9170648107
  0
ARC
  5
2C6
330
1F
100
AcDbEntity
  8
0
  6
Continuous
 62
   252
370
     0
100
AcDbCircle
 10
687.4707966121
 20
62.219523678
 30
0.0
 40
0.3165313725937092
100
AcDbArc
 50
19.3597798432
 51
59.0465656955
  0
ARC
  5
2C7
330
1F
100
AcDbEntity
  8
0
  6
Continuous
 62
   252
370
     0
100
AcDbCircle
 10
687.8471529281
 20
62.5192494982
 30
0.0
 40
0.2154146438212369
100
AcDbArc
 50
130.6521198737
 51
187.5418043287
  0
ARC
  5
2C8
330
1F
100
AcDbEntity
  8
0
  6
Continuous
 62
   252
370
     0
100
AcDbCircle
 10
687.3840010511
 20
62.1444322005
 30
0.0
 40
0.6276316496899537
100
AcDbArc
 50
19.3597798433
 51
59.0465656955
  0
ARC
  5
2C9
330
1F
100
AcDbEntity
  8
0
  6
Continuous
 62
   252
370
     0
100
AcDbCircle
 10
687.8513576739
 20
62.4964616164
 30
0.0
 40
0.1905228455146013
100
AcDbArc
 50
244.5314591762
 51
310.9170648107
  0
LINE
  5
2CA
330
1F
100
AcDbEntity
  8
0
  6
Continuous
 62
   252
370
     0
100
AcDbLine
 10
687.7068179071
 20
62.6826800665
 30
0.0
 11
687.8463408868
 21
62.8094242341
 31
0.0
  0
LINE
  5
2CB
330
1F
100
AcDbEntity
  8
0
  6
Continuous
 62
   252
370
     0
100
AcDbLine
 10
688.1188553883
 20
62.4753262177
 30
0.0
 11
687.976143642
 21
62.3524914222
 31
0.0
  0
LINE
  5
2CC
330
1F
100
AcDbEntity
  8
0
  6
Continuous
 62
   252
370
     0
100
AcDbLine
 10
687.6336017583
 20
62.4909764256
 30
0.0
 11
562.1928587758
 21
134.9063759443
 31
0.0
  0
ARC
  5
2CD
330
1F
100
AcDbEntity
  8
0
  6
Continuous
 62
   252
370
     0
100
AcDbCircle
 10
562.4064099456
 20
134.9346490169
 30
0.0
 40
0.2154146438217488
100
AcDbArc
 50
130.6521198738
 51
187.5418043286
  0
LINE
  5
2CE
330
1F
100
AcDbEntity
  8
0
  6
Continuous
 62
   252
370
     0
100
AcDbLine
 10
562.2660749246
 20
135.0980795851
 30
0.0
 11
687.7068179071
 21
62.6826800665
 31
0.0
  0
LWPOLYLINE
  5
2CF
330
1F
100
AcDbEntity
  8
0
  6
Continuous
 62
   252
370
     0
100
AcDbPolyline
 90
        9
 70
   128
 43
0.0
 10
562.1928587758
 20
134.9063759443
 10
562.1723448938
 20
134.9165253279
 10
562.1536925638
 20
134.9222790656
 10
562.1376185844
 20
134.9234160445
 10
562.1247406697
 20
134.9198925712
 10
562.1155537106
 20
134.9118440507
 10
562.1104107568
 20
134.8995797833
 10
562.1095094493
 20
134.8835710777
 10
562.1128844246
 20
134.8644331397
  0
LINE
  5
2D0
330
1F
100
AcDbEntity
  8
0
  6
Continuous
 62
   252
370
     0
100
AcDbLine
 10
688.5746857946
 20
59.3189592424
 30
0.0
 11
687.7694299062
 21
62.32445349
 31
0.0
  0
LWPOLYLINE
  5
2D1
330
1F
100
AcDbEntity
  8
0
  6
Continuous
 62
   252
370
     0
100
AcDbPolyline
 90
        9
 70
   128
 43
0.0
 10
688.4947114434
 20
59.2770164377
 10
688.5152253254
 20
59.2668670542
 10
688.5338776554
 20
59.2611133165
 10
688.5499516347
 20
59.2599763376
 10
688.5628295495
 20
59.2634998109
 10
688.5720165086
 20
59.2715483313
 10
688.5771594623
 20
59.2838125988
 10
688.5780607699
 20
59.2998213043
 10
688.5746857946
 20
59.3189592424
  0
LINE
  5
2D2
330
1F
100
AcDbEntity
  8
0
  6
Continuous
 62
   252
370
     0
100
AcDbLine
 10
563.0539684609
 20
131.6924159564
 30
0.0
 11
688.4947114434
 21
59.2770164377
 31
0.0
  0
ARC
  5
2D3
330
1F
100
AcDbEntity
  8
0
  6
Continuous
 62
   252
370
     0
100
AcDbCircle
 10
563.2167736071
 20
131.963868704
 30
0.0
 40
0.3165313725951055
100
AcDbArc
 50
199.3597798433
 51
239.0465656955
  0
LINE
  5
2D4
330
1F
100
AcDbEntity
  8
0
  6
Continuous
 62
   252
370
     0
100
AcDbLine
 10
562.1128844246
 20
134.8644331397
 30
0.0
 11
562.9181403129
 21
131.858938892
 31
0.0
  0
LINE
  5
2D5
330
1F
100
AcDbEntity
  8
0
  6
Continuous
 62
   252
370
     0
100
AcDbLine
 10
687.8463408868
 20
62.8094242341
 30
0.0
 11
562.4055979043
 21
135.2248237528
 31
0.0
  0
LINE
  5
2D6
330
1F
100
AcDbEntity
  8
0
  6
Continuous
 62
   252
370
     0
100
AcDbLine
 10
562.4055979043
 20
135.2248237528
 30
0.0
 11
562.4191345749
 21
135.2382941501
 31
0.0
  0
LINE
  5
2D7
330
1F
100
AcDbEntity
  8
0
  6
Continuous
 62
   252
370
     0
100
AcDbLine
 10
687.976143642
 20
62.3524914222
 30
0.0
 11
688.7813995304
 21
59.3469971745
 31
0.0
  0
ARC
  5
2D8
330
1F
100
AcDbEntity
  8
0
  6
Continuous
 62
   252
370
     0
100
AcDbCircle
 10
688.6566135623
 20
59.4909673688
 30
0.0
 40
0.1905228455145012
100
AcDbArc
 50
244.5314591763
 51
310.9170648108
  0
LINE
  5
2D9
330
1F
100
AcDbEntity
  8
0
  6
Continuous
 62
   252
370
     0
100
AcDbLine
 10
562.4055979043
 20
135.2248237528
 30
0.0
 11
562.2660749246
 21
135.0980795851
 31
0.0
  0
LINE
  5
2DA
330
1F
100
AcDbEntity
  8
0
  6
Continuous
 62
   252
370
     0
100
AcDbLine
 10
688.9241112767
 20
59.4698319701
 30
0.0
 11
688.1188553883
 21
62.4753262177
 31
0.0
  0
ARC
  5
2DB
330
1F
100
AcDbEntity
  8
0
  6
Continuous
 62
   252
370
     0
100
AcDbCircle
 10
689.0488972448
 20
59.3258617759
 30
0.0
 40
0.1905228455143301
100
AcDbArc
 50
64.5314591762
 51
130.9170648108
  0
LINE
  5
2DC
330
1F
100
AcDbEntity
  8
0
  6
Continuous
 62
   252
370
     0
100
AcDbLine
 10
688.7813995304
 20
59.3469971745
 30
0.0
 11
688.9241112767
 21
59.4698319701
 31
0.0
  0
LINE
  5
2DD
330
1F
100
AcDbEntity
  8
0
  6
Continuous
 62
   252
370
     0
100
AcDbLine
 10
686.578103809
 20
61.4242965209
 30
0.0
 11
686.7688341131
 21
61.6051911335
 31
0.0
  0
ARC
  5
2DE
330
1F
100
AcDbEntity
  8
0
  6
Continuous
 62
   252
370
     0
100
AcDbCircle
 10
688.6935759055
 20
59.3061284611
 30
0.0
 40
0.0968671297344456
100
AcDbArc
 50
319.7028613737
 51
24.9549082117
  0
ARC
  5
2DF
330
1F
100
AcDbEntity
  8
0
  6
Continuous
 62
   252
370
     0
100
AcDbCircle
 10
688.5544234215
 20
59.2898088949
 30
0.0
 40
0.0610669082888598
100
AcDbArc
 50
192.0920353984
 51
238.1426980544
  0
ARC
  5
2E0
330
1F
100
AcDbEntity
  8
0
  6
Continuous
 62
   252
370
     0
100
AcDbCircle
 10
688.8360904488
 20
59.428550902
 30
0.0
 40
0.0972203308540959
100
AcDbArc
 50
318.6285911662
 51
25.1262037663
  0
LINE
  5
2E1
330
1F
100
AcDbEntity
  8
0
  6
Continuous
 62
   252
370
     0
100
AcDbLine
 10
564.7583584857
 20
132.3844984395
 30
0.0
 11
564.3107811348
 21
132.0077194903
 31
0.0
  0
ARC
  5
2E2
330
1F
100
AcDbEntity
  8
0
  6
Continuous
 62
   252
370
     0
100
AcDbCircle
 10
563.1136861064
 20
131.7052110586
 30
0.0
 40
0.0610730040916592
100
AcDbArc
 50
192.0933479003
 51
238.1151062442
  0
ARC
  5
2E3
330
1F
100
AcDbEntity
  8
0
  6
Continuous
 62
   252
370
     0
100
AcDbCircle
 10
563.0725197343
 20
131.6515230054
 30
0.0
 40
0.0610730040916468
100
AcDbArc
 50
192.0933479003
 51
238.115106244
  0
ARC
  5
2E4
330
1F
100
AcDbEntity
  8
0
  6
Continuous
 62
   252
370
     0
100
AcDbCircle
 10
562.1526608862
 20
134.9401973808
 30
0.0
 40
0.0855709479162655
100
AcDbArc
 50
196.0349007189
 51
242.3003878864
  0
ARC
  5
2E5
330
1F
100
AcDbEntity
  8
0
  6
Continuous
 62
   252
370
     0
100
AcDbCircle
 10
562.1787299612
 20
134.9980246652
 30
0.0
 40
0.1328161497066511
100
AcDbArc
 50
48.8800096054
 51
116.2474667913
  0
LWPOLYLINE
  5
2E6
330
1F
100
AcDbEntity
  8
0
  6
Continuous
 62
   252
370
     0
100
AcDbPolyline
 90
        6
 70
   128
 43
0.0
 10
562.4055979043
 20
135.2248237528
 10
562.364440527
 20
135.245186647
 10
562.3270180157
 20
135.2567304763
 10
562.2947684964
 20
135.259011618
 10
562.2689313001
 20
135.2519424089
 10
562.2584196721
 20
135.2446909333
  0
LWPOLYLINE
  5
2E7
330
1F
100
AcDbEntity
  8
0
  6
Continuous
 62
   252
370
     0
100
AcDbPolyline
 90
        3
 70
   128
 43
0.0
 10
562.2397579086
 20
135.291153633
 10
562.258298141
 20
135.2776320783
 10
562.2711233944
 20
135.2629459633
  0
LINE
  5
2E8
330
1F
100
AcDbEntity
  8
0
  6
Continuous
 62
   252
370
     0
100
AcDbLine
 10
563.9546250262
 20
132.444251352
 30
0.0
 11
564.2394750951
 21
132.6840434449
 31
0.0
  0
ARC
  5
2E9
330
1F
100
AcDbEntity
  8
0
  6
Continuous
 62
   252
370
     0
100
AcDbCircle
 10
562.9579278068
 20
131.9347155335
 30
0.0
 40
0.0855870554460714
100
AcDbArc
 50
196.1121297376
 51
242.2977075731
  0
ARC
  5
2EA
330
1F
100
AcDbEntity
  8
0
  6
Continuous
 62
   252
370
     0
100
AcDbCircle
 10
562.738737538
 20
132.0992816665
 30
0.0
 40
0.0855870554460193
100
AcDbArc
 50
196.1121297376
 51
242.2977075732
  0
ENDSEC
  0
SECTION
  2
OBJECTS
  0
DICTIONARY
  5
C
330
0
100
AcDbDictionary
281
     1
  3
ACAD_GROUP
350
D
  3
ACAD_LAYOUT
350
1A
  3
ACAD_MLINESTYLE
350
17
  3
ACAD_PLOTSETTINGS
350
19
  3
ACAD_PLOTSTYLENAME
350
E
  3
ACAD_SCALELIST
350
47
  0
DICTIONARY
  5
D
102
{ACAD_REACTORS
330
C
102
}
330
C
100
AcDbDictionary
281
     1
  0
DICTIONARY
  5
1A
102
{ACAD_REACTORS
330
C
102
}
330
C
100
AcDbDictionary
281
     1
  3
Layout1
350
1E
  3
Layout2
350
26
  3
Model
350
22
  0
DICTIONARY
  5
17
102
{ACAD_REACTORS
330
C
102
}
330
C
100
AcDbDictionary
281
     1
  3
Standard
350
18
  0
DICTIONARY
  5
19
102
{ACAD_REACTORS
330
C
102
}
330
C
100
AcDbDictionary
281
     1
  0
ACDBDICTIONARYWDFLT
  5
E
102
{ACAD_REACTORS
330
C
102
}
330
C
100
AcDbDictionary
281
     1
  3
Normal
350
F
100
AcDbDictionaryWithDefault
340
F
  0
DICTIONARY
  5
47
102
{ACAD_REACTORS
330
C
102
}
330
C
100
AcDbDictionary
281
     1
  3
A0
350
48
  3
A1
350
49
  3
A2
350
4A
  3
A3
350
4B
  3
A4
350
4C
  3
A5
350
4D
  3
A6
350
4E
  3
A7
350
4F
  3
A8
350
50
  3
A9
350
51
  3
B0
350
52
  3
B1
350
53
  3
B2
350
54
  3
B3
350
55
  3
B4
350
56
  3
B5
350
57
  3
B6
350
58
  3
B7
350
59
  3
B8
350
5A
  3
B9
350
5B
  3
C0
350
5C
  3
C1
350
5D
  3
C2
350
5E
  3
C3
350
5F
  3
C4
350
60
  3
C5
350
61
  3
C6
350
62
  3
C7
350
63
  3
C8
350
64
  3
C9
350
65
  3
D0
350
66
  3
D1
350
67
  3
D2
350
68
  0
LAYOUT
  5
1E
102
{ACAD_REACTORS
330
1A
102
}
330
1A
100
AcDbPlotSettings
  1

  2
none_device
  4

  6

 40
0.0
 41
0.0
 42
0.0
 43
0.0
 44
0.0
 45
0.0
 46
0.0
 47
0.0
 48
0.0
 49
0.0
140
0.0
141
0.0
142
1.0
143
1.0
 70
   688
 72
     1
 73
     0
 74
     5
  7

 75
    16
147
1.0
148
0.0
149
0.0
100
AcDbLayout
  1
Layout1
 70
     1
 71
     1
 10
0.0
 20
0.0
 11
420.0
 21
297.0
 12
0.0
 22
0.0
 32
0.0
 14
1.0000000000E+20
 24
1.0000000000E+20
 34
1.0000000000E+20
 15
-1.0000000000E+20
 25
-1.0000000000E+20
 35
-1.0000000000E+20
146
0.0
 13
0.0
 23
0.0
 33
0.0
 16
1.0
 26
0.0
 36
0.0
 17
0.0
 27
1.0
 37
0.0
 76
     0
330
1B
  0
LAYOUT
  5
26
102
{ACAD_REACTORS
330
1A
102
}
330
1A
100
AcDbPlotSettings
  1

  2
none_device
  4

  6

 40
0.0
 41
0.0
 42
0.0
 43
0.0
 44
0.0
 45
0.0
 46
0.0
 47
0.0
 48
0.0
 49
0.0
140
0.0
141
0.0
142
1.0
143
1.0
 70
   688
 72
     1
 73
     0
 74
     5
  7

 75
    16
147
1.0
148
0.0
149
0.0
100
AcDbLayout
  1
Layout2
 70
     1
 71
     2
 10
0.0
 20
0.0
 11
0.0
 21
0.0
 12
0.0
 22
0.0
 32
0.0
 14
0.0
 24
0.0
 34
0.0
 15
0.0
 25
0.0
 35
0.0
146
0.0
 13
0.0
 23
0.0
 33
0.0
 16
1.0
 26
0.0
 36
0.0
 17
0.0
 27
1.0
 37
0.0
 76
     0
330
23
  0
LAYOUT
  5
22
102
{ACAD_REACTORS
330
1A
102
}
330
1A
100
AcDbPlotSettings
  1

  2
none_device
  4
Letter_(8.50_x_11.00_Inches)
  6

 40
6.35
 41
6.35
 42
6.35000508
 43
6.35000508
 44
215.9
 45
279.4
 46
0.0
 47
0.0
 48
0.0
 49
0.0
140
0.0
141
0.0
142
1.0
143
1.0
 70
  1712
 72
     1
 73
     0
 74
     0
  7

 75
     0
147
1.0
148
0.0
149
0.0
100
AcDbLayout
  1
Model
 70
     1
 71
     0
 10
0.0
 20
0.0
 11
800.0
 21
600.0
 12
0.0
 22
0.0
 32
0.0
 14
0.0
 24
0.0
 34
0.0
 15
800.0
 25
600.0
 35
0.0
146
0.0
 13
0.0
 23
0.0
 33
0.0
 16
1.0
 26
0.0
 36
0.0
 17
0.0
 27
1.0
 37
0.0
 76
     0
330
1F
331
29
  0
MLINESTYLE
  5
18
102
{ACAD_REACTORS
330
17
102
}
330
17
100
AcDbMlineStyle
  2
Standard
 70
     0
  3

 62
   256
 51
90.0
 52
90.0
 71
     2
 49
0.5
 62
   256
  6
BYLAYER
 49
-0.5
 62
   256
  6
BYLAYER
  0
ACDBPLACEHOLDER
  5
F
102
{ACAD_REACTORS
330
E
102
}
330
E
  0
SCALE
  5
48
102
{ACAD_REACTORS
330
47
102
}
330
47
100
AcDbScale
 70
     0
300
1:1
140
1.0
141
1.0
290
     1
  0
SCALE
  5
49
102
{ACAD_REACTORS
330
47
102
}
330
47
100
AcDbScale
 70
     0
300
1:2
140
1.0
141
2.0
290
     0
  0
SCALE
  5
4A
102
{ACAD_REACTORS
330
47
102
}
330
47
100
AcDbScale
 70
     0
300
1:4
140
1.0
141
4.0
290
     0
  0
SCALE
  5
4B
102
{ACAD_REACTORS
330
47
102
}
330
47
100
AcDbScale
 70
     0
300
1:5
140
1.0
141
5.0
290
     0
  0
SCALE
  5
4C
102
{ACAD_REACTORS
330
47
102
}
330
47
100
AcDbScale
 70
     0
300
1:8
140
1.0
141
8.0
290
     0
  0
SCALE
  5
4D
102
{ACAD_REACTORS
330
47
102
}
330
47
100
AcDbScale
 70
     0
300
1:10
140
1.0
141
10.0
290
     0
  0
SCALE
  5
4E
102
{ACAD_REACTORS
330
47
102
}
330
47
100
AcDbScale
 70
     0
300
1:16
140
1.0
141
16.0
290
     0
  0
SCALE
  5
4F
102
{ACAD_REACTORS
330
47
102
}
330
47
100
AcDbScale
 70
     0
300
1:20
140
1.0
141
20.0
290
     0
  0
SCALE
  5
50
102
{ACAD_REACTORS
330
47
102
}
330
47
100
AcDbScale
 70
     0
300
1:30
140
1.0
141
30.0
290
     0
  0
SCALE
  5
51
102
{ACAD_REACTORS
330
47
102
}
330
47
100
AcDbScale
 70
     0
300
1:40
140
1.0
141
40.0
290
     0
  0
SCALE
  5
52
102
{ACAD_REACTORS
330
47
102
}
330
47
100
AcDbScale
 70
     0
300
1:50
140
1.0
141
50.0
290
     0
  0
SCALE
  5
53
102
{ACAD_REACTORS
330
47
102
}
330
47
100
AcDbScale
 70
     0
300
1:100
140
1.0
141
100.0
290
     0
  0
SCALE
  5
54
102
{ACAD_REACTORS
330
47
102
}
330
47
100
AcDbScale
 70
     0
300
2:1
140
2.0
141
1.0
290
     0
  0
SCALE
  5
55
102
{ACAD_REACTORS
330
47
102
}
330
47
100
AcDbScale
 70
     0
300
4:1
140
4.0
141
1.0
290
     0
  0
SCALE
  5
56
102
{ACAD_REACTORS
330
47
102
}
330
47
100
AcDbScale
 70
     0
300
8:1
140
8.0
141
1.0
290
     0
  0
SCALE
  5
57
102
{ACAD_REACTORS
330
47
102
}
330
47
100
AcDbScale
 70
     0
300
10:1
140
10.0
141
1.0
290
     0
  0
SCALE
  5
58
102
{ACAD_REACTORS
330
47
102
}
330
47
100
AcDbScale
 70
     0
300
100:1
140
100.0
141
1.0
290
     0
  0
SCALE
  5
59
102
{ACAD_REACTORS
330
47
102
}
330
47
100
AcDbScale
 70
     0
300
1/128" = 1'-0"
140
0.0078125
141
12.0
290
     0
  0
SCALE
  5
5A
102
{ACAD_REACTORS
330
47
102
}
330
47
100
AcDbScale
 70
     0
300
1/64" = 1'-0"
140
0.015625
141
12.0
290
     0
  0
SCALE
  5
5B
102
{ACAD_REACTORS
330
47
102
}
330
47
100
AcDbScale
 70
     0
300
1/32" = 1'-0"
140
0.03125
141
12.0
290
     0
  0
SCALE
  5
5C
102
{ACAD_REACTORS
330
47
102
}
330
47
100
AcDbScale
 70
     0
300
1/16" = 1'-0"
140
0.0625
141
12.0
290
     0
  0
SCALE
  5
5D
102
{ACAD_REACTORS
330
47
102
}
330
47
100
AcDbScale
 70
     0
300
3/32" = 1'-0"
140
0.09375
141
12.0
290
     0
  0
SCALE
  5
5E
102
{ACAD_REACTORS
330
47
102
}
330
47
100
AcDbScale
 70
     0
300
1/8" = 1'-0"
140
0.125
141
12.0
290
     0
  0
SCALE
  5
5F
102
{ACAD_REACTORS
330
47
102
}
330
47
100
AcDbScale
 70
     0
300
3/16" = 1'-0"
140
0.1875
141
12.0
290
     0
  0
SCALE
  5
60
102
{ACAD_REACTORS
330
47
102
}
330
47
100
AcDbScale
 70
     0
300
1/4" = 1'-0"
140
0.25
141
12.0
290
     0
  0
SCALE
  5
61
102
{ACAD_REACTORS
330
47
102
}
330
47
100
AcDbScale
 70
     0
300
3/8" = 1'-0"
140
0.375
141
12.0
290
     0
  0
SCALE
  5
62
102
{ACAD_REACTORS
330
47
102
}
330
47
100
AcDbScale
 70
     0
300
1/2" = 1'-0"
140
0.5
141
12.0
290
     0
  0
SCALE
  5
63
102
{ACAD_REACTORS
330
47
102
}
330
47
100
AcDbScale
 70
     0
300
3/4" = 1'-0"
140
0.75
141
12.0
290
     0
  0
SCALE
  5
64
102
{ACAD_REACTORS
330
47
102
}
330
47
100
AcDbScale
 70
     0
300
1" = 1'-0"
140
1.0
141
12.0
290
     0
  0
SCALE
  5
65
102
{ACAD_REACTORS
330
47
102
}
330
47
100
AcDbScale
 70
     0
300
1-1/2" = 1'-0"
140
1.5
141
12.0
290
     0
  0
SCALE
  5
66
102
{ACAD_REACTORS
330
47
102
}
330
47
100
AcDbScale
 70
     0
300
3" = 1'-0"
140
3.0
141
12.0
290
     0
  0
SCALE
  5
67
102
{ACAD_REACTORS
330
47
102
}
330
47
100
AcDbScale
 70
     0
300
6" = 1'-0"
140
6.0
141
12.0
290
     0
  0
SCALE
  5
68
102
{ACAD_REACTORS
330
47
102
}
330
47
100
AcDbScale
 70
     0
300
1'-0" = 1'-0"
140
12.0
141
12.0
290
     0
  0
ENDSEC
  0
EOF
