  0
SECTION
  2
HEADER
  9
$ACADVER
  1
AC1015
  9
$ACADMAINTVER
 70
     6
  9
$DWGCODEPAGE
  3
ANSI_1252
  9
$INSBASE
 10
0.0
 20
0.0
 30
0.0
  9
$EXTMIN
 10
0.0
 20
0.0
 30
0.0
  9
$EXTMAX
 10
417.0
 20
284.0
 30
0.0
  9
$LIMMIN
 10
0.0
 20
0.0
  9
$LIMMAX
 10
417.0
 20
284.0
  9
$ORTHOMODE
 70
     0
  9
$REGENMODE
 70
     1
  9
$FILLMODE
 70
     1
  9
$QTEXTMODE
 70
     0
  9
$MIRRTEXT
 70
     1
  9
$LTSCALE
 40
1.0
  9
$ATTMODE
 70
     1
  9
$TEXTSIZE
 40
3.5
  9
$TRACEWID
 40
1.0
  9
$TEXTSTYLE
  7
Standard
  9
$CLAYER
  8
0
  9
$CELTYPE
  6
ByLayer
  9
$CECOLOR
 62
   256
  9
$CELTSCALE
 40
1.0
  9
$DISPSILH
 70
     0
  9
$DIMSCALE
 40
1.0
  9
$DIMASZ
 40
3.302
  9
$DIMEXO
 40
1.0
  9
$DIMDLI
 40
3.75
  9
$DIMRND
 40
0.0
  9
$DIMDLE
 40
0.0
  9
$DIMEXE
 40
1.0
  9
$DIMTP
 40
0.0
  9
$DIMTM
 40
0.0
  9
$DIMTXT
 40
2.8
  9
$DIMCEN
 40
2.5
  9
$DIMTSZ
 40
0.0
  9
$DIMTOL
 70
     0
  9
$DIMLIM
 70
     0
  9
$DIMTIH
 70
     1
  9
$DIMTOH
 70
     1
  9
$DIMSE1
 70
     0
  9
$DIMSE2
 70
     0
  9
$DIMTAD
 70
     1
  9
$DIMZIN
 70
     0
  9
$DIMBLK
  1

  9
$DIMASO
 70
     1
  9
$DIMSHO
 70
     1
  9
$DIMPOST
  1

  9
$DIMAPOST
  1

  9
$DIMALT
 70
     0
  9
$DIMALTD
 70
     3
  9
$DIMALTF
 40
0.0393700787
  9
$DIMLFAC
 40
1.0
  9
$DIMTOFL
 70
     1
  9
$DIMTVP
 40
0.0
  9
$DIMTIX
 70
     0
  9
$DIMSOXD
 70
     0
  9
$DIMSAH
 70
     0
  9
$DIMBLK1
  1

  9
$DIMBLK2
  1

  9
$DIMSTYLE
  2
ISO-25
  9
$DIMCLRD
 70
     0
  9
$DIMCLRE
 70
     0
  9
$DIMCLRT
 70
     0
  9
$DIMTFAC
 40
1.0
  9
$DIMGAP
 40
1.524
  9
$DIMJUST
 70
     0
  9
$DIMSD1
 70
     0
  9
$DIMSD2
 70
     0
  9
$DIMTOLJ
 70
     0
  9
$DIMTZIN
 70
     0
  9
$DIMALTZ
 70
     0
  9
$DIMALTTZ
 70
     0
  9
$DIMUPT
 70
     0
  9
$DIMDEC
 70
     2
  9
$DIMTDEC
 70
     2
  9
$DIMALTU
 70
     2
  9
$DIMALTTD
 70
     3
  9
$DIMTXSTY
  7
Standard
  9
$DIMAUNIT
 70
     0
  9
$DIMADEC
 70
     2
  9
$DIMALTRND
 40
0.0
  9
$DIMAZIN
 70
     0
  9
$DIMDSEP
 70
    44
  9
$DIMATFIT
 70
     3
  9
$DIMFRAC
 70
     0
  9
$DIMLDRBLK
  1

  9
$DIMLUNIT
 70
     2
  9
$DIMLWD
 70
    -2
  9
$DIMLWE
 70
    -2
  9
$DIMTMOVE
 70
     0
  9
$LUNITS
 70
     2
  9
$LUPREC
 70
     2
  9
$SKETCHINC
 40
1.0
  9
$FILLETRAD
 40
10.0
  9
$AUNITS
 70
     0
  9
$AUPREC
 70
     2
  9
$MENU
  1
.
  9
$ELEVATION
 40
0.0
  9
$PELEVATION
 40
0.0
  9
$THICKNESS
 40
0.0
  9
$LIMCHECK
 70
     0
  9
$CHAMFERA
 40
0.0
  9
$CHAMFERB
 40
0.0
  9
$CHAMFERC
 40
0.0
  9
$CHAMFERD
 40
0.0
  9
$SKPOLY
 70
     0
  9
$TDCREATE
 40
2457827.512270231
  9
$TDUCREATE
 40
2457827.428936898
  9
$TDUPDATE
 40
2457827.512270926
  9
$TDUUPDATE
 40
2457827.428937593
  9
$TDINDWG
 40
0.0000000116
  9
$TDUSRTIMER
 40
0.0000000116
  9
$USRTIMER
 70
     1
  9
$ANGBASE
 50
0.0
  9
$ANGDIR
 70
     0
  9
$PDMODE
 70
     0
  9
$PDSIZE
 40
-1.0
  9
$PLINEWID
 40
0.0
  9
$SPLFRAME
 70
     0
  9
$SPLINETYPE
 70
     6
  9
$SPLINESEGS
 70
     8
  9
$HANDSEED
  5
161
  9
$SURFTAB1
 70
     6
  9
$SURFTAB2
 70
     6
  9
$SURFTYPE
 70
     6
  9
$SURFU
 70
     6
  9
$SURFV
 70
     6
  9
$UCSBASE
  2

  9
$UCSNAME
  2

  9
$UCSORG
 10
0.0
 20
0.0
 30
0.0
  9
$UCSXDIR
 10
1.0
 20
0.0
 30
0.0
  9
$UCSYDIR
 10
0.0
 20
1.0
 30
0.0
  9
$UCSORTHOREF
  2

  9
$UCSORTHOVIEW
 70
     0
  9
$UCSORGTOP
 10
0.0
 20
0.0
 30
0.0
  9
$UCSORGBOTTOM
 10
0.0
 20
0.0
 30
0.0
  9
$UCSORGLEFT
 10
0.0
 20
0.0
 30
0.0
  9
$UCSORGRIGHT
 10
0.0
 20
0.0
 30
0.0
  9
$UCSORGFRONT
 10
0.0
 20
0.0
 30
0.0
  9
$UCSORGBACK
 10
0.0
 20
0.0
 30
0.0
  9
$PUCSBASE
  2

  9
$PUCSNAME
  2

  9
$PUCSORG
 10
0.0
 20
0.0
 30
0.0
  9
$PUCSXDIR
 10
1.0
 20
0.0
 30
0.0
  9
$PUCSYDIR
 10
0.0
 20
1.0
 30
0.0
  9
$PUCSORTHOREF
  2

  9
$PUCSORTHOVIEW
 70
     0
  9
$PUCSORGTOP
 10
0.0
 20
0.0
 30
0.0
  9
$PUCSORGBOTTOM
 10
0.0
 20
0.0
 30
0.0
  9
$PUCSORGLEFT
 10
0.0
 20
0.0
 30
0.0
  9
$PUCSORGRIGHT
 10
0.0
 20
0.0
 30
0.0
  9
$PUCSORGFRONT
 10
0.0
 20
0.0
 30
0.0
  9
$PUCSORGBACK
 10
0.0
 20
0.0
 30
0.0
  9
$USERI1
 70
     0
  9
$USERI2
 70
     0
  9
$USERI3
 70
     0
  9
$USERI4
 70
     0
  9
$USERI5
 70
     0
  9
$USERR1
 40
0.0
  9
$USERR2
 40
0.0
  9
$USERR3
 40
0.0
  9
$USERR4
 40
0.0
  9
$USERR5
 40
0.0
  9
$WORLDVIEW
 70
     1
  9
$SHADEDGE
 70
     3
  9
$SHADEDIF
 70
    70
  9
$TILEMODE
 70
     1
  9
$MAXACTVP
 70
    64
  9
$PINSBASE
 10
0.0
 20
0.0
 30
0.0
  9
$PLIMCHECK
 70
     0
  9
$PEXTMIN
 10
1.0000000000E+20
 20
1.0000000000E+20
 30
1.0000000000E+20
  9
$PEXTMAX
 10
-1.0000000000E+20
 20
-1.0000000000E+20
 30
-1.0000000000E+20
  9
$PLIMMIN
 10
0.0
 20
0.0
  9
$PLIMMAX
 10
420.0
 20
297.0
  9
$UNITMODE
 70
     0
  9
$VISRETAIN
 70
     1
  9
$PLINEGEN
 70
     0
  9
$PSLTSCALE
 70
     1
  9
$TREEDEPTH
 70
  3020
  9
$CMLSTYLE
  2
Standard
  9
$CMLJUST
 70
     0
  9
$CMLSCALE
 40
20.0
  9
$PROXYGRAPHICS
 70
     1
  9
$MEASUREMENT
 70
     1
  9
$CELWEIGHT
370
    -1
  9
$ENDCAPS
280
     0
  9
$JOINSTYLE
280
     0
  9
$LWDISPLAY
290
     1
  9
$INSUNITS
 70
     4
  9
$HYPERLINKBASE
  1

  9
$STYLESHEET
  1

  9
$XEDIT
290
     1
  9
$CEPSNTYPE
380
     0
  9
$PSTYLEMODE
290
     1
  9
$FINGERPRINTGUID
  2
{2B539B30-67CC-4356-AACF-122A4D01E3FB}
  9
$VERSIONGUID
  2
{FAEB1C32-E019-11D5-929B-00C0DF256EC4}
  9
$EXTNAMES
290
     1
  9
$PSVPSCALE
 40
0.0
  9
$OLESTARTUP
290
     0
  0
ENDSEC
  0
SECTION
  2
CLASSES
  0
CLASS
  1
ACDBDICTIONARYWDFLT
  2
AcDbDictionaryWithDefault
  3
ObjectDBX Classes
 90
        0
280
     0
281
     0
  0
CLASS
  1
VISUALSTYLE
  2
AcDbVisualStyle
  3
ObjectDBX Classes
 90
     4095
280
     0
281
     0
  0
CLASS
  1
MATERIAL
  2
AcDbMaterial
  3
ObjectDBX Classes
 90
     1153
280
     0
281
     0
  0
CLASS
  1
SCALE
  2
AcDbScale
  3
ObjectDBX Classes
 90
     1153
280
     0
281
     0
  0
CLASS
  1
TABLESTYLE
  2
AcDbTableStyle
  3
ObjectDBX Classes
 90
     4095
280
     0
281
     0
  0
CLASS
  1
MLEADERSTYLE
  2
AcDbMLeaderStyle
  3
ACDB_MLEADERSTYLE_CLASS
 90
     4095
280
     0
281
     0
  0
CLASS
  1
SUN
  2
AcDbSun
  3
SCENEOE
 90
     1153
280
     0
281
     0
  0
CLASS
  1
ACDBPLACEHOLDER
  2
AcDbPlaceHolder
  3
ObjectDBX Classes
 90
        0
280
     0
281
     0
  0
CLASS
  1
LAYOUT
  2
AcDbLayout
  3
ObjectDBX Classes
 90
        0
280
     0
281
     0
  0
ENDSEC
  0
SECTION
  2
TABLES
  0
TABLE
  2
VPORT
  5
8
330
0
100
AcDbSymbolTable
 70
     1
  0
VPORT
  5
29
330
8
100
AcDbSymbolTableRecord
100
AcDbViewportTableRecord
  2
*Active
 70
     0
 10
0.0
 20
0.0
 11
1.0
 21
1.0
 12
208.5
 22
142.0
 13
0.0
 23
0.0
 14
10.0
 24
10.0
 15
10.0
 25
10.0
 16
0.0
 26
0.0
 36
1.0
 17
0.0
 27
0.0
 37
0.0
 40
284.0
 41
1.4683098592
 42
50.0
 43
0.0
 44
0.0
 50
0.0
 51
0.0
 71
     0
 72
  2000
 73
     1
 74
     3
 75
     0
 76
     0
 77
     0
 78
     0
281
     0
 65
     1
110
0.0
120
0.0
130
0.0
111
1.0
121
0.0
131
0.0
112
0.0
122
1.0
132
0.0
 79
     0
146
0.0
  0
ENDTAB
  0
TABLE
  2
LTYPE
  5
5
330
0
100
AcDbSymbolTable
 70
     6
  0
LTYPE
  5
14
330
5
100
AcDbSymbolTableRecord
100
AcDbLinetypeTableRecord
  2
ByBlock
 70
     0
  3

 72
    65
 73
     0
 40
0.0
  0
LTYPE
  5
15
330
5
100
AcDbSymbolTableRecord
100
AcDbLinetypeTableRecord
  2
ByLayer
 70
     0
  3

 72
    65
 73
     0
 40
0.0
  0
LTYPE
  5
16
330
5
100
AcDbSymbolTableRecord
100
AcDbLinetypeTableRecord
  2
Continuous
 70
     0
  3
Solid line
 72
    65
 73
     0
 40
0.0
  0
LTYPE
  5
6E
330
5
100
AcDbSymbolTableRecord
100
AcDbLinetypeTableRecord
  2
HIDDEN
 70
     0
  3
Hidden __ __ __ __ __ __ __ __ __ __ __ __ __ __
 72
    65
 73
     2
 40
1.905
 49
1.27
 74
     0
 49
-0.635
 74
     0
  0
LTYPE
  5
6F
330
5
100
AcDbSymbolTableRecord
100
AcDbLinetypeTableRecord
  2
PHANTOM
 70
     0
  3
Phantom ______  __  __  ______  __  __  ______
 72
    65
 73
     6
 40
12.7
 49
6.35
 74
     0
 49
-1.27
 74
     0
 49
1.27
 74
     0
 49
-1.27
 74
     0
 49
1.27
 74
     0
 49
-1.27
 74
     0
  0
LTYPE
  5
70
330
5
100
AcDbSymbolTableRecord
100
AcDbLinetypeTableRecord
  2
CENTER
 70
     0
  3
Center ____ _ ____ _ ____ _ ____ _ ____ _ ____
 72
    65
 73
     4
 40
10.16
 49
6.35
 74
     0
 49
-1.27
 74
     0
 49
1.27
 74
     0
 49
-1.27
 74
     0
  0
LTYPE
  5
71
330
5
100
AcDbSymbolTableRecord
100
AcDbLinetypeTableRecord
  2
CENTERX2
 70
     0
  3
Center (2x) ________  __  ________  __  _____
 72
    65
 73
     4
 40
20.32
 49
12.7
 74
     0
 49
-2.54
 74
     0
 49
2.54
 74
     0
 49
-2.54
 74
     0
  0
LTYPE
  5
72
330
5
100
AcDbSymbolTableRecord
100
AcDbLinetypeTableRecord
  2
DOT2
 70
     0
  3
Dot (.5x) ........................................
 72
    65
 73
     2
 40
0.635
 49
0.0
 74
     0
 49
-0.635
 74
     0
  0
ENDTAB
  0
TABLE
  2
LAYER
  5
2
330
0
100
AcDbSymbolTable
 70
     2
  0
LAYER
  5
10
330
2
100
AcDbSymbolTableRecord
100
AcDbLayerTableRecord
  2
0
 70
     0
 62
     7
  6
Continuous
370
    -3
390
F
  0
LAYER
  5
73
330
2
100
AcDbSymbolTableRecord
100
AcDbLayerTableRecord
  2
FORMAT
 70
     0
 62
     7
  6
Continuous
370
    -3
390
F
  0
ENDTAB
  0
TABLE
  2
STYLE
  5
3
330
0
100
AcDbSymbolTable
 70
     2
  0
STYLE
  5
11
330
3
100
AcDbSymbolTableRecord
100
AcDbTextStyleTableRecord
  2
Standard
 70
     0
 40
0.0
 41
1.0
 50
0.0
 71
     0
 42
3.5
  3
txt
  4

  0
STYLE
  5
74
330
3
100
AcDbSymbolTableRecord
100
AcDbTextStyleTableRecord
  2
SLDTEXTSTYLE0
 70
     0
 40
0.0
 41
0.605
 50
0.0
 71
     0
 42
3.5
  3
TXT
  4

  0
ENDTAB
  0
TABLE
  2
VIEW
  5
6
330
0
100
AcDbSymbolTable
 70
     0
  0
ENDTAB
  0
TABLE
  2
UCS
  5
7
330
0
100
AcDbSymbolTable
 70
     0
  0
ENDTAB
  0
TABLE
  2
APPID
  5
9
330
0
100
AcDbSymbolTable
 70
     1
  0
APPID
  5
12
330
9
100
AcDbSymbolTableRecord
100
AcDbRegAppTableRecord
  2
ACAD
 70
     0
  0
ENDTAB
  0
TABLE
  2
DIMSTYLE
  5
A
330
0
100
AcDbSymbolTable
 70
     1
100
AcDbDimStyleTable
  0
DIMSTYLE
105
27
330
A
100
AcDbSymbolTableRecord
100
AcDbDimStyleTableRecord
  2
ISO-25
 70
     0
 41
2.5
 42
0.625
 43
3.75
 44
1.25
 73
     0
 74
     0
 77
     1
 78
     8
140
2.5
141
2.5
143
0.0393700787
147
0.625
171
     3
172
     1
178
     0
271
     2
272
     2
274
     3
278
    44
283
     0
284
     8
340
11
  0
ENDTAB
  0
TABLE
  2
BLOCK_RECORD
  5
1
330
0
100
AcDbSymbolTable
 70
     1
  0
BLOCK_RECORD
  5
1F
330
1
100
AcDbSymbolTableRecord
100
AcDbBlockTableRecord
  2
*Model_Space
340
22
  0
BLOCK_RECORD
  5
1B
330
1
100
AcDbSymbolTableRecord
100
AcDbBlockTableRecord
  2
*Paper_Space
340
1E
  0
BLOCK_RECORD
  5
23
330
1
100
AcDbSymbolTableRecord
100
AcDbBlockTableRecord
  2
*Paper_Space0
340
26
  0
ENDTAB
  0
ENDSEC
  0
SECTION
  2
BLOCKS
  0
BLOCK
  5
20
330
1F
100
AcDbEntity
  8
0
100
AcDbBlockBegin
  2
*Model_Space
 70
     0
 10
0.0
 20
0.0
 30
0.0
  3
*Model_Space
  1

  0
ENDBLK
  5
21
330
1F
100
AcDbEntity
  8
0
100
AcDbBlockEnd
  0
BLOCK
  5
1C
330
1B
100
AcDbEntity
 67
     1
  8
0
100
AcDbBlockBegin
  2
*Paper_Space
 70
     0
 10
0.0
 20
0.0
 30
0.0
  3
*Paper_Space
  1

  0
ENDBLK
  5
1D
330
1B
100
AcDbEntity
 67
     1
  8
0
100
AcDbBlockEnd
  0
BLOCK
  5
24
330
23
100
AcDbEntity
  8
0
100
AcDbBlockBegin
  2
*Paper_Space0
 70
     0
 10
0.0
 20
0.0
 30
0.0
  3
*Paper_Space0
  1

  0
ENDBLK
  5
25
330
23
100
AcDbEntity
  8
0
100
AcDbBlockEnd
  0
ENDSEC
  0
SECTION
  2
ENTITIES
  0
MTEXT
  5
75
330
1F
100
AcDbEntity
  8
0
  6
Continuous
 62
     7
370
     0
100
AcDbMText
 10
7.2782978723
 20
22.1884790273
 30
0.0
 40
10.0
 41
0.0
 71
     1
 72
     1
  1
1:1
  7
SLDTEXTSTYLE0
 73
     1
 44
1.0
  0
LINE
  5
76
330
1F
100
AcDbEntity
  8
0
  6
Continuous
 62
     7
370
    30
100
AcDbLine
 10
198.0
 20
208.7878573572
 30
0.0
 11
198.0
 21
202.2249319686
 31
0.0
  0
LINE
  5
77
330
1F
100
AcDbEntity
  8
0
  6
Continuous
 62
     7
370
    30
100
AcDbLine
 10
219.0
 20
202.2249319686
 30
0.0
 11
219.0
 21
208.7878573572
 31
0.0
  0
LINE
  5
78
330
1F
100
AcDbEntity
  8
0
  6
Continuous
 62
     7
370
    30
100
AcDbLine
 10
198.0225
 20
194.9088033625
 30
0.0
 11
199.1845
 21
194.2249319686
 31
0.0
  0
LINE
  5
79
330
1F
100
AcDbEntity
  8
0
  6
Continuous
 62
     7
370
    30
100
AcDbLine
 10
217.8155
 20
194.2249319686
 30
0.0
 11
218.9775
 21
194.9088033625
 31
0.0
  0
LINE
  5
7A
330
1F
100
AcDbEntity
  8
0
  6
Continuous
 62
     7
370
    30
100
AcDbLine
 10
198.0225
 20
202.2249319686
 30
0.0
 11
198.0225
 21
194.9088033625
 31
0.0
  0
LINE
  5
7B
330
1F
100
AcDbEntity
  8
0
  6
Continuous
 62
     7
370
    30
100
AcDbLine
 10
218.9775
 20
194.9088033625
 30
0.0
 11
218.9775
 21
202.2249319686
 31
0.0
  0
ELLIPSE
  5
7C
330
1F
100
AcDbEntity
  8
0
  6
Continuous
 62
     7
370
    30
100
AcDbEllipse
 10
173.0003046561
 20
184.0003046561
 30
0.0
 11
1.414644378339147
 21
1.414644378339176
 31
0.0
210
0.0
220
0.0
230
1.0
 40
0.9996954599
 41
2.356346783439909
 42
3.926838523739657
  0
ELLIPSE
  5
7D
330
1F
100
AcDbEntity
  8
0
  6
Continuous
 62
     7
370
    30
100
AcDbEllipse
 10
243.9996953439
 20
254.9996953439
 30
0.0
 11
-1.414644378339147
 21
-1.414644378339176
 31
0.0
210
0.0
220
0.0
230
1.0
 40
0.9996954599
 41
2.35634678343989
 42
3.926838523739662
  0
ELLIPSE
  5
7E
330
1F
100
AcDbEntity
  8
0
  6
Continuous
 62
     7
370
    30
100
AcDbEllipse
 10
243.9996953439
 20
184.0003046561
 30
0.0
 11
-1.414644378339147
 21
1.414644378339176
 31
0.0
210
0.0
220
0.0
230
1.0
 40
0.9996954599
 41
2.356346783439933
 42
3.926838523739701
  0
ELLIPSE
  5
7F
330
1F
100
AcDbEntity
  8
0
  6
Continuous
 62
     7
370
    30
100
AcDbEllipse
 10
173.0003046561
 20
254.9996953439
 30
0.0
 11
1.414644378339147
 21
-1.414644378339176
 31
0.0
210
0.0
220
0.0
230
1.0
 40
0.9996954599
 41
2.356346783439954
 42
3.926838523739695
  0
LINE
  5
80
330
1F
100
AcDbEntity
  8
0
  6
Continuous
 62
     7
370
    30
100
AcDbLine
 10
171.0
 20
183.9996953903
 30
0.0
 11
171.0
 21
255.0003046097
 31
0.0
  0
LINE
  5
81
330
1F
100
AcDbEntity
  8
0
  6
Continuous
 62
     7
370
    30
100
AcDbLine
 10
244.0003046097
 20
182.0
 30
0.0
 11
172.9996953903
 21
182.0
 31
0.0
  0
LINE
  5
82
330
1F
100
AcDbEntity
  8
0
  6
Continuous
 62
     7
370
    30
100
AcDbLine
 10
172.9996953903
 20
257.0
 30
0.0
 11
244.0003046097
 21
257.0
 31
0.0
  0
LINE
  5
83
330
1F
100
AcDbEntity
  8
0
  6
Continuous
 62
     7
370
    30
100
AcDbLine
 10
246.0
 20
255.0003046097
 30
0.0
 11
246.0
 21
183.9996953903
 31
0.0
  0
CIRCLE
  5
84
330
1F
100
AcDbEntity
  8
0
  6
Continuous
 62
     7
370
    30
100
AcDbCircle
 10
208.5
 20
219.5
 30
0.0
 40
15.0
  0
LINE
  5
85
330
1F
100
AcDbEntity
  8
0
  6
Continuous
 62
     7
370
    30
100
AcDbLine
 10
198.0
 20
202.2249319686
 30
0.0
 11
219.0
 21
202.2249319686
 31
0.0
  0
LINE
  5
86
330
1F
100
AcDbEntity
  8
0
  6
Continuous
 62
     7
370
    30
100
AcDbLine
 10
218.9775
 20
194.9088033625
 30
0.0
 11
198.0225
 21
194.9088033625
 31
0.0
  0
LINE
  5
87
330
1F
100
AcDbEntity
  8
0
  6
Continuous
 62
     7
370
    30
100
AcDbLine
 10
199.1845
 20
194.2249319686
 30
0.0
 11
217.8155
 21
194.2249319686
 31
0.0
  0
SPLINE
  5
88
330
1F
100
AcDbEntity
  8
0
  6
Continuous
 62
     8
370
     0
100
AcDbSpline
210
0.0
220
0.0
230
1.0
 70
     8
 71
     3
 72
    19
 73
    15
 74
     0
 42
0.000000001
 43
0.00000001
 40
0.0
 40
0.0
 40
0.0
 40
0.0
 40
0.0833349513557333
 40
0.1666690201605217
 40
0.2500023829178289
 40
0.3333352161355971
 40
0.4166676963251391
 40
0.5000000000000004
 40
0.5833323036748663
 40
0.6666647838644071
 40
0.7499976170821742
 40
0.8333309798394779
 40
0.9166650486442663
 40
0.9999999999999999
 40
0.9999999999999999
 40
0.9999999999999999
 40
0.9999999999999999
 10
243.8079942625893
 20
256.8076896529021
 30
0.0
 10
243.8952428230181
 20
256.8043752616809
 30
0.0
 10
244.069739019878
 20
256.7977465143391
 30
0.0
 10
244.3270011916825
 20
256.7445991528101
 30
0.0
 10
244.5753812435555
 20
256.6607792234973
 30
0.0
 10
244.8106307514106
 20
256.5446066716656
 30
0.0
 10
245.0287275974398
 20
256.3989031666285
 30
0.0
 10
245.2259373691495
 20
256.2259373691496
 30
0.0
 10
245.3989031666285
 20
256.0287275974398
 30
0.0
 10
245.5446066716655
 20
255.8106307514106
 30
0.0
 10
245.6607792234973
 20
255.5753812435555
 30
0.0
 10
245.7445991528101
 20
255.3270011916825
 30
0.0
 10
245.7977465143391
 20
255.0697390198781
 30
0.0
 10
245.8043752616808
 20
254.8952428230181
 30
0.0
 10
245.8076896529021
 20
254.8079942625893
 30
0.0
  0
LINE
  5
89
330
1F
100
AcDbEntity
  8
0
  6
Continuous
 62
     8
370
     0
100
AcDbLine
 10
244.8078419577
 20
254.8079942626
 30
0.0
 11
245.8076896529
 21
254.8079942626
 31
0.0
  0
SPLINE
  5
8A
330
1F
100
AcDbEntity
  8
0
  6
Continuous
 62
     8
370
     0
100
AcDbSpline
210
0.0
220
0.0
230
1.0
 70
     8
 71
     3
 72
    35
 73
    31
 74
     0
 42
0.000000001
 43
0.00000001
 40
0.0
 40
0.0
 40
0.0
 40
0.0
 40
0.0403124923459682
 40
0.0802865445942529
 40
0.120080661285514
 40
0.1598554981728062
 40
0.1997719438020006
 40
0.2399891872432261
 40
0.2663166637269236
 40
0.2924560158887043
 40
0.3184499430504882
 40
0.3443418640213867
 40
0.3701757119393762
 40
0.4132177745789991
 40
0.456426213338418
 40
0.5000034979220594
 40
0.5437683803383941
 40
0.587090468649092
 40
0.6301706058325126
 40
0.6732130219513077
 40
0.7164224819386764
 40
0.7600013961164945
 40
0.7902707291038394
 40
0.8203295376632361
 40
0.8502438273214122
 40
0.8800805627448371
 40
0.9099072309619475
 40
0.9397913872051951
 40
0.969800198461902
 40
1.0
 40
1.0
 40
1.0
 40
1.0
 10
243.8079942625893
 20
255.8078419577457
 30
0.0
 10
243.8291015175566
 20
255.8074705940755
 30
0.0
 10
243.8711388233289
 20
255.8067309844871
 30
0.0
 10
243.9337708133038
 20
255.800666129359
 30
0.0
 10
243.9956282726319
 20
255.7909593197774
 30
0.0
 10
244.0567083521447
 20
255.7772631994543
 30
0.0
 10
244.1170081533159
 20
255.7596740227017
 30
0.0
 10
244.1694569623212
 20
255.7407127178554
 30
0.0
 10
244.2142097711726
 20
255.7219373044586
 30
0.0
 10
244.2514297812627
 20
255.7045382149929
 30
0.0
 10
244.287707801822
 20
255.6857431628995
 30
0.0
 10
244.3230450862932
 20
255.665553133682
 30
0.0
 10
244.3650780170171
 20
255.6391760787526
 30
0.0
 10
244.4130193601217
 20
255.6052580863846
 30
0.0
 10
244.4657073270937
 20
255.5622415769025
 30
0.0
 10
244.515614257947
 20
255.5154746267596
 30
0.0
 10
244.5623750860044
 20
255.4654817022898
 30
0.0
 10
244.6054950003495
 20
255.4126484949288
 30
0.0
 10
244.6446653025479
 20
255.3572857428426
 30
0.0
 10
244.6798851759848
 20
255.299398353701
 30
0.0
 10
244.7111526017962
 20
255.2389912706623
 30
0.0
 10
244.735569449463
 20
255.1827328426372
 30
0.0
 10
244.7544086995134
 20
255.131685024157
 30
0.0
 10
244.7686900676123
 20
255.0866346171118
 30
0.0
 10
244.780773290017
 20
255.0411798708395
 30
0.0
 10
244.7906553599444
 20
254.9953210686178
 30
0.0
 10
244.7983497545128
 20
254.9490589842489
 30
0.0
 10
244.8038041934984
 20
254.9023943282194
 30
0.0
 10
244.8072148098998
 20
254.8553277505013
 30
0.0
 10
244.8076324668413
 20
254.8238054229951
 30
0.0
 10
244.8078419577457
 20
254.8079942625893
 30
0.0
  0
LINE
  5
8B
330
1F
100
AcDbEntity
  8
0
  6
Continuous
 62
     8
370
     0
100
AcDbLine
 10
243.8079942626
 20
256.8076896529
 30
0.0
 11
243.8079942626
 21
255.8078419577
 31
0.0
  0
SPLINE
  5
8C
330
1F
100
AcDbEntity
  8
0
  6
Continuous
 62
     8
370
     0
100
AcDbSpline
210
0.0
220
0.0
230
1.0
 70
     8
 71
     3
 72
    19
 73
    15
 74
     0
 42
0.000000001
 43
0.00000001
 40
0.0
 40
0.0
 40
0.0
 40
0.0
 40
0.0833349513557294
 40
0.1666690201605179
 40
0.2500023829178218
 40
0.3333352161355891
 40
0.41666769632513
 40
0.499999999999996
 40
0.583332303674862
 40
0.6666647838644018
 40
0.7499976170821719
 40
0.833330979839478
 40
0.9166650486442666
 40
1.0
 40
1.0
 40
1.0
 40
1.0
 10
173.1920057374107
 20
182.1923103470979
 30
0.0
 10
173.1047571769819
 20
182.1956247383192
 30
0.0
 10
172.9302609801219
 20
182.2022534856609
 30
0.0
 10
172.6729988083175
 20
182.2554008471899
 30
0.0
 10
172.4246187564445
 20
182.3392207765026
 30
0.0
 10
172.1893692485894
 20
182.4553933283345
 30
0.0
 10
171.9712724025602
 20
182.6010968333715
 30
0.0
 10
171.7740626308505
 20
182.7740626308505
 30
0.0
 10
171.6010968333715
 20
182.9712724025602
 30
0.0
 10
171.4553933283344
 20
183.1893692485895
 30
0.0
 10
171.3392207765027
 20
183.4246187564445
 30
0.0
 10
171.2554008471899
 20
183.6729988083175
 30
0.0
 10
171.2022534856609
 20
183.930260980122
 30
0.0
 10
171.1956247383191
 20
184.1047571769819
 30
0.0
 10
171.1923103470979
 20
184.1920057374107
 30
0.0
  0
LINE
  5
8D
330
1F
100
AcDbEntity
  8
0
  6
Continuous
 62
     8
370
     0
100
AcDbLine
 10
172.1921580423
 20
184.1920057374
 30
0.0
 11
171.1923103471
 21
184.1920057374
 31
0.0
  0
SPLINE
  5
8E
330
1F
100
AcDbEntity
  8
0
  6
Continuous
 62
     8
370
     0
100
AcDbSpline
210
0.0
220
0.0
230
1.0
 70
     8
 71
     3
 72
    35
 73
    31
 74
     0
 42
0.000000001
 43
0.00000001
 40
0.0
 40
0.0
 40
0.0
 40
0.0
 40
0.0403124923441334
 40
0.0802865445913163
 40
0.120080661282213
 40
0.1598554981698697
 40
0.1997719438001194
 40
0.2399891872430673
 40
0.2663166637264653
 40
0.2924560158880031
 40
0.3184499430496041
 40
0.3443418640203762
 40
0.3701757119383263
 40
0.413217774578068
 40
0.4564262133378675
 40
0.5000034979221962
 40
0.5437683803414212
 40
0.5870904686538689
 40
0.6301706058378771
 40
0.6732130219560719
 40
0.7164224819417118
 40
0.7600013961166565
 40
0.790270729105274
 40
0.8203295376655833
 40
0.8502438273243224
 40
0.8800805627479358
 40
0.9099072309648484
 40
0.9397913872075196
 40
0.9698001984632509
 40
1.0
 40
1.0
 40
1.0
 40
1.0
 10
173.1920057374107
 20
183.1921580422543
 30
0.0
 10
173.1708984824443
 20
183.1925294059246
 30
0.0
 10
173.1288611766735
 20
183.193269015513
 30
0.0
 10
173.0662291867004
 20
183.1993338706411
 30
0.0
 10
173.0043717273729
 20
183.2090406802228
 30
0.0
 10
172.9432916478595
 20
183.2227368005459
 30
0.0
 10
172.8829918466867
 20
183.2403259772986
 30
0.0
 10
172.8305430376797
 20
183.2592872821444
 30
0.0
 10
172.7857902288275
 20
183.2780626955406
 30
0.0
 10
172.7485702187375
 20
183.2954617850056
 30
0.0
 10
172.7122921981782
 20
183.3142568370985
 30
0.0
 10
172.676954913707
 20
183.3344468663157
 30
0.0
 10
172.6349219829832
 20
183.360823921245
 30
0.0
 10
172.5869806398784
 20
183.3947419136134
 30
0.0
 10
172.5342926729063
 20
183.4377584230963
 30
0.0
 10
172.4843857420521
 20
183.4845253732412
 30
0.0
 10
172.4376249139934
 20
183.5345182977136
 30
0.0
 10
172.3945049996465
 20
183.5873515050768
 30
0.0
 10
172.3553346974476
 20
183.6427142571637
 30
0.0
 10
172.3201148240112
 20
183.7006016463045
 30
0.0
 10
172.2888473982013
 20
183.7610087293409
 30
0.0
 10
172.264430550536
 20
183.8172671573648
 30
0.0
 10
172.2455913004866
 20
183.868314975845
 30
0.0
 10
172.2313099323877
 20
183.9133653828917
 30
0.0
 10
172.2192267099831
 20
183.958820129165
 30
0.0
 10
172.2093446400556
 20
184.0046789313869
 30
0.0
 10
172.2016502454872
 20
184.0509410157555
 30
0.0
 10
172.1961958065016
 20
184.0976056717841
 30
0.0
 10
172.1927851901002
 20
184.1446722495006
 30
0.0
 10
172.1923675331586
 20
184.1761945770056
 30
0.0
 10
172.1921580422543
 20
184.1920057374107
 30
0.0
  0
LINE
  5
8F
330
1F
100
AcDbEntity
  8
0
  6
Continuous
 62
     8
370
     0
100
AcDbLine
 10
173.1920057374
 20
182.1923103471
 30
0.0
 11
173.1920057374
 21
183.1921580423
 31
0.0
  0
SPLINE
  5
90
330
1F
100
AcDbEntity
  8
0
  6
Continuous
 62
     8
370
     0
100
AcDbSpline
210
0.0
220
0.0
230
1.0
 70
     8
 71
     3
 72
    35
 73
    31
 74
     0
 42
0.000000001
 43
0.00000001
 40
0.0
 40
0.0
 40
0.0
 40
0.0
 40
0.040312492343679
 40
0.0802865445905984
 40
0.1200806612814039
 40
0.1598554981691429
 40
0.199771943799656
 40
0.2399891872430283
 40
0.2663166637256099
 40
0.292456015886507
 40
0.3184499430476478
 40
0.3443418640181467
 40
0.3701757119360063
 40
0.4132177745759992
 40
0.4564262133365597
 40
0.5000034979221205
 40
0.5437683803394208
 40
0.5870904686506981
 40
0.6301706058343168
 40
0.6732130219529049
 40
0.7164224819397035
 40
0.7600013961165569
 40
0.7902707291043275
 40
0.8203295376640305
 40
0.8502438273223846
 40
0.8800805627458731
 40
0.9099072309629211
 40
0.9397913872059744
 40
0.9698001984623494
 40
1.0
 40
1.0
 40
1.0
 40
1.0
 10
244.8078419577457
 20
184.1920057374107
 30
0.0
 10
244.8074705940754
 20
184.1708984824446
 30
0.0
 10
244.806730984487
 20
184.1288611766742
 30
0.0
 10
244.8006661293588
 20
184.0662291867015
 30
0.0
 10
244.7909593197772
 20
184.0043717273741
 30
0.0
 10
244.7772631994541
 20
183.9432916478606
 30
0.0
 10
244.7596740227014
 20
183.8829918466874
 30
0.0
 10
244.7407127178558
 20
183.8305430376804
 30
0.0
 10
244.72193730446
 20
183.7857902288285
 30
0.0
 10
244.7045382149956
 20
183.7485702187394
 30
0.0
 10
244.6857431629029
 20
183.7122921981808
 30
0.0
 10
244.665553133686
 20
183.67695491371
 30
0.0
 10
244.6391760787567
 20
183.6349219829862
 30
0.0
 10
244.6052580863881
 20
183.5869806398811
 30
0.0
 10
244.5622415769045
 20
183.534292672908
 30
0.0
 10
244.5154746267599
 20
183.4843857420534
 30
0.0
 10
244.4654817022887
 20
183.4376249139949
 30
0.0
 10
244.4126484949269
 20
183.3945049996492
 30
0.0
 10
244.3572857428405
 20
183.3553346974506
 30
0.0
 10
244.2993983536991
 20
183.3201148240139
 30
0.0
 10
244.2389912706612
 20
183.288847398203
 30
0.0
 10
244.1827328426365
 20
183.2644305505366
 30
0.0
 10
244.1316850241563
 20
183.2455913004866
 30
0.0
 10
244.0866346171107
 20
183.2313099323877
 30
0.0
 10
244.0411798708379
 20
183.219226709983
 30
0.0
 10
243.9953210686162
 20
183.2093446400556
 30
0.0
 10
243.9490589842474
 20
183.2016502454872
 30
0.0
 10
243.9023943282182
 20
183.1961958065016
 30
0.0
 10
243.8553277505007
 20
183.1927851901002
 30
0.0
 10
243.8238054229948
 20
183.1923675331587
 30
0.0
 10
243.8079942625893
 20
183.1921580422543
 30
0.0
  0
LINE
  5
91
330
1F
100
AcDbEntity
  8
0
  6
Continuous
 62
     8
370
     0
100
AcDbLine
 10
245.8076896529
 20
184.1920057374
 30
0.0
 11
244.8078419577
 21
184.1920057374
 31
0.0
  0
SPLINE
  5
92
330
1F
100
AcDbEntity
  8
0
  6
Continuous
 62
     8
370
     0
100
AcDbSpline
210
0.0
220
0.0
230
1.0
 70
     8
 71
     3
 72
    19
 73
    15
 74
     0
 42
0.000000001
 43
0.00000001
 40
0.0
 40
0.0
 40
0.0
 40
0.0
 40
0.0833349513557334
 40
0.1666690201605215
 40
0.2500023829178278
 40
0.3333352161355957
 40
0.4166676963251374
 40
0.5000000000000014
 40
0.583332303674867
 40
0.6666647838644075
 40
0.7499976170821754
 40
0.8333309798394809
 40
0.916665048644269
 40
1.0
 40
1.0
 40
1.0
 40
1.0
 10
245.8076896529021
 20
184.1920057374107
 30
0.0
 10
245.8043752616808
 20
184.1047571769819
 30
0.0
 10
245.7977465143391
 20
183.9302609801219
 30
0.0
 10
245.7445991528101
 20
183.6729988083175
 30
0.0
 10
245.6607792234973
 20
183.4246187564445
 30
0.0
 10
245.5446066716655
 20
183.1893692485894
 30
0.0
 10
245.3989031666285
 20
182.9712724025602
 30
0.0
 10
245.2259373691495
 20
182.7740626308505
 30
0.0
 10
245.0287275974398
 20
182.6010968333715
 30
0.0
 10
244.8106307514106
 20
182.4553933283344
 30
0.0
 10
244.5753812435555
 20
182.3392207765027
 30
0.0
 10
244.3270011916825
 20
182.2554008471899
 30
0.0
 10
244.069739019878
 20
182.2022534856609
 30
0.0
 10
243.8952428230181
 20
182.1956247383192
 30
0.0
 10
243.8079942625893
 20
182.1923103470979
 30
0.0
  0
LINE
  5
93
330
1F
100
AcDbEntity
  8
0
  6
Continuous
 62
     8
370
     0
100
AcDbLine
 10
243.8079942626
 20
183.1921580423
 30
0.0
 11
243.8079942626
 21
182.1923103471
 31
0.0
  0
SPLINE
  5
94
330
1F
100
AcDbEntity
  8
0
  6
Continuous
 62
     8
370
     0
100
AcDbSpline
210
0.0
220
0.0
230
1.0
 70
     8
 71
     3
 72
    19
 73
    15
 74
     0
 42
0.000000001
 43
0.00000001
 40
0.0
 40
0.0
 40
0.0
 40
0.0
 40
0.0833349513557338
 40
0.1666690201605223
 40
0.2500023829178262
 40
0.3333352161355945
 40
0.4166676963251342
 40
0.5000000000000002
 40
0.5833323036748662
 40
0.6666647838644059
 40
0.7499976170821742
 40
0.8333309798394822
 40
0.9166650486442709
 40
0.9999999999999999
 40
0.9999999999999999
 40
0.9999999999999999
 40
0.9999999999999999
 10
171.1923103470979
 20
254.8079942625893
 30
0.0
 10
171.1956247383192
 20
254.8952428230181
 30
0.0
 10
171.2022534856609
 20
255.0697390198781
 30
0.0
 10
171.2554008471899
 20
255.3270011916825
 30
0.0
 10
171.3392207765027
 20
255.5753812435555
 30
0.0
 10
171.4553933283345
 20
255.8106307514106
 30
0.0
 10
171.6010968333715
 20
256.0287275974398
 30
0.0
 10
171.7740626308505
 20
256.2259373691496
 30
0.0
 10
171.9712724025602
 20
256.3989031666285
 30
0.0
 10
172.1893692485894
 20
256.5446066716656
 30
0.0
 10
172.4246187564445
 20
256.6607792234974
 30
0.0
 10
172.6729988083175
 20
256.7445991528101
 30
0.0
 10
172.930260980122
 20
256.7977465143391
 30
0.0
 10
173.1047571769819
 20
256.8043752616809
 30
0.0
 10
173.1920057374107
 20
256.8076896529021
 30
0.0
  0
LINE
  5
95
330
1F
100
AcDbEntity
  8
0
  6
Continuous
 62
     8
370
     0
100
AcDbLine
 10
173.1920057374
 20
255.8078419577
 30
0.0
 11
173.1920057374
 21
256.8076896529
 31
0.0
  0
SPLINE
  5
96
330
1F
100
AcDbEntity
  8
0
  6
Continuous
 62
     8
370
     0
100
AcDbSpline
210
0.0
220
0.0
230
1.0
 70
     8
 71
     3
 72
    35
 73
    31
 74
     0
 42
0.000000001
 43
0.00000001
 40
0.0
 40
0.0
 40
0.0
 40
0.0
 40
0.0403124923457408
 40
0.0802865445938826
 40
0.1200806612851023
 40
0.1598554981724484
 40
0.1997719438017721
 40
0.2399891872432044
 40
0.2663166637270227
 40
0.2924560158888984
 40
0.3184499430507474
 40
0.344341864021686
 40
0.3701757119396816
 40
0.4132177745792712
 40
0.4564262133385907
 40
0.5000034979220932
 40
0.5437683803409913
 40
0.5870904686532413
 40
0.6301706058371686
 40
0.6732130219554472
 40
0.7164224819413183
 40
0.7600013961166733
 40
0.7902707291056263
 40
0.8203295376661799
 40
0.8502438273250557
 40
0.880080562748719
 40
0.9099072309655938
 40
0.9397913872081203
 40
0.9698001984635997
 40
1.0
 40
1.0
 40
1.0
 40
1.0
 10
172.1921580422543
 20
254.8079942625893
 30
0.0
 10
172.1925294059245
 20
254.8291015175565
 30
0.0
 10
172.1932690155129
 20
254.8711388233286
 30
0.0
 10
172.1993338706411
 20
254.9337708133033
 30
0.0
 10
172.2090406802227
 20
254.9956282726313
 30
0.0
 10
172.2227368005458
 20
255.0567083521442
 30
0.0
 10
172.2403259772983
 20
255.1170081533156
 30
0.0
 10
172.2592872821446
 20
255.1694569623212
 30
0.0
 10
172.2780626955414
 20
255.2142097711728
 30
0.0
 10
172.2954617850069
 20
255.2514297812631
 30
0.0
 10
172.3142568371004
 20
255.2877078018225
 30
0.0
 10
172.3344468663179
 20
255.3230450862939
 30
0.0
 10
172.3608239212473
 20
255.3650780170177
 30
0.0
 10
172.3947419136153
 20
255.4130193601223
 30
0.0
 10
172.4377584230974
 20
255.4657073270941
 30
0.0
 10
172.4845253732414
 20
255.515614257948
 30
0.0
 10
172.5345182977129
 20
255.5623750860067
 30
0.0
 10
172.5873515050756
 20
255.6054950003536
 30
0.0
 10
172.6427142571624
 20
255.6446653025525
 30
0.0
 10
172.7006016463034
 20
255.6798851759889
 30
0.0
 10
172.7610087293403
 20
255.7111526017988
 30
0.0
 10
172.8172671573647
 20
255.735569449464
 30
0.0
 10
172.8683149758455
 20
255.7544086995134
 30
0.0
 10
172.9133653828925
 20
255.7686900676122
 30
0.0
 10
172.9588201291661
 20
255.7807732900169
 30
0.0
 10
173.0046789313881
 20
255.7906553599444
 30
0.0
 10
173.0509410157566
 20
255.7983497545128
 30
0.0
 10
173.0976056717849
 20
255.8038041934984
 30
0.0
 10
173.144672249501
 20
255.8072148098998
 30
0.0
 10
173.1761945770058
 20
255.8076324668413
 30
0.0
 10
173.1920057374107
 20
255.8078419577457
 30
0.0
  0
LINE
  5
97
330
1F
100
AcDbEntity
  8
0
  6
Continuous
 62
     8
370
     0
100
AcDbLine
 10
171.1923103471
 20
254.8079942626
 30
0.0
 11
172.1921580423
 21
254.8079942626
 31
0.0
  0
LINE
  5
98
330
1F
100
AcDbEntity
  8
0
  6
Continuous
 62
     8
370
     0
100
AcDbLine
 10
243.8079942626
 20
256.8076896529
 30
0.0
 11
173.1920057374
 21
256.8076896529
 31
0.0
  0
LINE
  5
99
330
1F
100
AcDbEntity
  8
0
  6
Continuous
 62
     8
370
     0
100
AcDbLine
 10
243.8079942626
 20
255.8078419577
 30
0.0
 11
173.1920057374
 21
255.8078419577
 31
0.0
  0
LINE
  5
9A
330
1F
100
AcDbEntity
  8
0
  6
Continuous
 62
     8
370
     0
100
AcDbLine
 10
171.1923103471
 20
254.8079942626
 30
0.0
 11
171.1923103471
 21
184.1920057374
 31
0.0
  0
LINE
  5
9B
330
1F
100
AcDbEntity
  8
0
  6
Continuous
 62
     8
370
     0
100
AcDbLine
 10
172.1921580423
 20
254.8079942626
 30
0.0
 11
172.1921580423
 21
184.1920057374
 31
0.0
  0
LINE
  5
9C
330
1F
100
AcDbEntity
  8
0
  6
Continuous
 62
     8
370
     0
100
AcDbLine
 10
244.8078419577
 20
184.1920057374
 30
0.0
 11
244.8078419577
 21
254.8079942626
 31
0.0
  0
LINE
  5
9D
330
1F
100
AcDbEntity
  8
0
  6
Continuous
 62
     8
370
     0
100
AcDbLine
 10
173.1920057374
 20
183.1921580423
 30
0.0
 11
243.8079942626
 21
183.1921580423
 31
0.0
  0
LINE
  5
9E
330
1F
100
AcDbEntity
  8
0
  6
Continuous
 62
     8
370
     0
100
AcDbLine
 10
173.1920057374
 20
182.1923103471
 30
0.0
 11
243.8079942626
 21
182.1923103471
 31
0.0
  0
LINE
  5
9F
330
1F
100
AcDbEntity
  8
0
  6
Continuous
 62
     8
370
     0
100
AcDbLine
 10
245.8076896529
 20
184.1920057374
 30
0.0
 11
245.8076896529
 21
254.8079942626
 31
0.0
  0
LINE
  5
A0
330
1F
100
AcDbEntity
  8
0
  6
Continuous
 62
     8
370
     0
100
AcDbLine
 10
172.9996953903
 20
182.0
 30
0.0
 11
173.1920057374
 21
182.1923103471
 31
0.0
  0
LINE
  5
A1
330
1F
100
AcDbEntity
  8
0
  6
Continuous
 62
     8
370
     0
100
AcDbLine
 10
171.1923103471
 20
184.1920057374
 30
0.0
 11
171.0
 21
183.9996953903
 31
0.0
  0
LINE
  5
A2
330
1F
100
AcDbEntity
  8
0
  6
Continuous
 62
     8
370
     0
100
AcDbLine
 10
244.0003046097
 20
257.0
 30
0.0
 11
243.8079942626
 21
256.8076896529
 31
0.0
  0
LINE
  5
A3
330
1F
100
AcDbEntity
  8
0
  6
Continuous
 62
     8
370
     0
100
AcDbLine
 10
245.8076896529
 20
254.8079942626
 30
0.0
 11
246.0
 21
255.0003046097
 31
0.0
  0
LINE
  5
A4
330
1F
100
AcDbEntity
  8
0
  6
Continuous
 62
     8
370
     0
100
AcDbLine
 10
246.0
 20
183.9996953903
 30
0.0
 11
245.8076896529
 21
184.1920057374
 31
0.0
  0
LINE
  5
A5
330
1F
100
AcDbEntity
  8
0
  6
Continuous
 62
     8
370
     0
100
AcDbLine
 10
243.8079942626
 20
182.1923103471
 30
0.0
 11
244.0003046097
 21
182.0
 31
0.0
  0
LINE
  5
A6
330
1F
100
AcDbEntity
  8
0
  6
Continuous
 62
     8
370
     0
100
AcDbLine
 10
171.0
 20
255.0003046097
 30
0.0
 11
171.1923103471
 21
254.8079942626
 31
0.0
  0
LINE
  5
A7
330
1F
100
AcDbEntity
  8
0
  6
Continuous
 62
     8
370
     0
100
AcDbLine
 10
173.1920057374
 20
256.8076896529
 30
0.0
 11
172.9996953903
 21
257.0
 31
0.0
  0
SPLINE
  5
A8
330
1F
100
AcDbEntity
  8
0
  6
Continuous
 62
     8
370
     0
100
AcDbSpline
210
0.0
220
0.0
230
1.0
 70
     8
 71
     3
 72
   215
 73
   211
 74
     0
 42
0.000000001
 43
0.00000001
 40
0.0
 40
0.0
 40
0.0
 40
0.0
 40
0.0060994497048024
 40
0.0121907243759784
 40
0.0182760476087599
 40
0.0243576495263941
 40
0.0304377643469494
 40
0.0365186279276527
 40
0.0406154820706558
 40
0.0447143715362653
 40
0.0488159772662593
 40
0.052920978850686
 40
0.0570300541946975
 40
0.0613146423683313
 40
0.0656674286206496
 40
0.0717544942378187
 40
0.0778356497083373
 40
0.083913124087446
 40
0.0899891504817302
 40
0.0960659635940911
 40
0.1005241183603238
 40
0.1049847774620696
 40
0.109448819332929
 40
0.1112036790321731
 40
0.112959249137384
 40
0.1147155826243498
 40
0.1164727323998139
 40
0.1182307512968219
 40
0.1199896920701026
 40
0.1260059800163998
 40
0.132013362093036
 40
0.1380139689997369
 40
0.1440099386590106
 40
0.1500034139558015
 40
0.1559965404506856
 40
0.1595289426804364
 40
0.1630624078782299
 40
0.1665973745297184
 40
0.1701342805621292
 40
0.1736735631827912
 40
0.1772156587189939
 40
0.1807610024594655
 40
0.1843100284977562
 40
0.1904551070964264
 40
0.1965906794904598
 40
0.2027190151556603
 40
0.2088423916141724
 40
0.2149630919241293
 40
0.2210834021385139
 40
0.2268556873780281
 40
0.2326315732947195
 40
0.2384129711234516
 40
0.2442017866396534
 40
0.2499999183044471
 40
0.2561449971170829
 40
0.2622805696462496
 40
0.268408905385678
 40
0.2745322818755707
 40
0.2806529821922107
 40
0.2867732924067825
 40
0.2908960974901856
 40
0.2950204607131003
 40
0.299147079266575
 40
0.3032766491993627
 40
0.3074098650691477
 40
0.3115474195975201
 40
0.3156900033295428
 40
0.3217062918658637
 40
0.3277136743151342
 40
0.3337142814265296
 40
0.3397102511723539
 40
0.3457037264875895
 40
0.3516968529829858
 40
0.3569722376805901
 40
0.3622504753841233
 40
0.3675330249929393
 40
0.3693130864857825
 40
0.3710938574019262
 40
0.3728753931301372
 40
0.3746577489878797
 40
0.3764409802162946
 40
0.3782251419752133
 40
0.3800102893382089
 40
0.3855536572352667
 40
0.3910897388068302
 40
0.3966202017414392
 40
0.402146718814096
 40
0.4076709663842953
 40
0.4131946228778279
 40
0.4187193672591946
 40
0.4230621151688391
 40
0.4274073834826146
 40
0.4317559836706249
 40
0.4361087253395166
 40
0.4404664157876246
 40
0.4446497266245
 40
0.4487549448175426
 40
0.4544965829386996
 40
0.4602333422161833
 40
0.4659670935016247
 40
0.471699710591649
 40
0.477433068394927
 40
0.4830665819414574
 40
0.4887043910018543
 40
0.4943482646974163
 40
0.4999999664543064
 40
0.5060982952598286
 40
0.5121887080140376
 40
0.5182734301818649
 40
0.5243546934757305
 40
0.5304347334168523
 40
0.5365157868756378
 40
0.5406129184719103
 40
0.5447122059497325
 40
0.5488143303359292
 40
0.5529199712456017
 40
0.557029806549342
 40
0.5613146423285756
 40
0.5656674285809142
 40
0.5717544941981055
 40
0.5778356496686397
 40
0.5839131240477573
 40
0.5899891504420438
 40
0.5960659635544006
 40
0.600524118320626
 40
0.604984777422361
 40
0.609448819293206
 40
0.6112036789924437
 40
0.6129592490976475
 40
0.6147155825846057
 40
0.6164727323600616
 40
0.618230751257061
 40
0.6199896920303323
 40
0.6260059799766892
 40
0.6320133620533729
 40
0.638013968960109
 40
0.6440099386194056
 40
0.6500034139162071
 40
0.6559965404110893
 40
0.6595289426408333
 40
0.6630624078386157
 40
0.6665973744900889
 40
0.6701342805224799
 40
0.6736735631431181
 40
0.6772156586792926
 40
0.6807610024197318
 40
0.684310028457986
 40
0.690455107056661
 40
0.6965906794506984
 40
0.7027190151159018
 40
0.708842391574416
 40
0.7149630918843736
 40
0.7210834020987579
 40
0.726855687338271
 40
0.7326315732549601
 40
0.738412971083689
 40
0.7442017865998863
 40
0.7499999182646748
 40
0.7561449970772169
 40
0.7622805696063092
 40
0.7684089053456824
 40
0.7745322818355392
 40
0.7806529821521627
 40
0.7867732923667373
 40
0.7908960974501531
 40
0.7950204606730891
 40
0.7991470792265938
 40
0.8032766491594202
 40
0.8074098650292526
 40
0.811547419557681
 40
0.8156900032897685
 40
0.8217062918259446
 40
0.8277136742751
 40
0.83371428138641
 40
0.8397102511321788
 40
0.8457037264473888
 40
0.8516968529427894
 40
0.8569722376404223
 40
0.8622504753440071
 40
0.8675330249528979
 40
0.8693130864457714
 40
0.8710938573619482
 40
0.8728753930901947
 40
0.8746577489479753
 40
0.8764409801764309
 40
0.878225141935393
 40
0.8800102892984345
 40
0.8855536571955132
 40
0.8910897387670931
 40
0.8966202017017143
 40
0.9021467187743792
 40
0.9076709663445828
 40
0.9131946228381158
 40
0.9187193672194786
 40
0.9230621151291178
 40
0.9274073834428858
 40
0.9317559836308864
 40
0.9361087252997663
 40
0.9404664157478605
 40
0.9446502999021055
 40
0.9487562290081439
 40
0.9544986596163231
 40
0.9602359748058252
 40
0.9659700456639062
 40
0.9717027464545592
 40
0.9774359527854596
 40
0.983069089553204
 40
0.9887062969766418
 40
0.9943493454806889
 40
1.0
 40
1.0
 40
1.0
 40
1.0
 10
201.78804245954
 20
207.2138441335
 30
0.0
 10
201.7098012494737
 20
207.2571466979954
 30
0.0
 10
201.5534236952804
 20
207.3436937889765
 30
0.0
 10
201.3221773132946
 20
207.4790816520364
 30
0.0
 10
201.09360646969
 20
207.6184140492853
 30
0.0
 10
200.8679332330388
 20
207.7620975105257
 30
0.0
 10
200.6450985938624
 20
207.9100229188299
 30
0.0
 10
200.4490749090739
 20
208.045644997592
 30
0.0
 10
200.2788771693451
 20
208.1674787029236
 30
0.0
 10
200.133640321365
 20
208.2743043250749
 30
0.0
 10
199.9896964548046
 20
208.3830638750921
 30
0.0
 10
199.8470453701514
 20
208.4937574597435
 30
0.0
 10
199.7037293936838
 20
208.6079453583213
 30
0.0
 10
199.5591063227645
 20
208.7262979025383
 30
0.0
 10
199.3939001871278
 20
208.8652569879619
 30
0.0
 10
199.2111055557157
 20
209.0241877254271
 30
0.0
 10
199.0126239923903
 20
209.2035391793215
 30
0.0
 10
198.8177332126828
 20
209.3865503870923
 30
0.0
 10
198.6264337944275
 20
209.5732207915069
 30
0.0
 10
198.4554204094411
 20
209.7466226369803
 30
0.0
 10
198.3036641148865
 20
209.9056992186682
 30
0.0
 10
198.1702358652104
 20
210.0495552700479
 30
0.0
 10
198.0653797541495
 20
210.1658352538422
 30
0.0
 10
197.987935830158
 20
210.2534181962394
 30
0.0
 10
197.9371063287465
 20
210.3115429214159
 30
0.0
 10
197.8865748175155
 20
210.3699712456292
 30
0.0
 10
197.8363412671486
 20
210.4287031791349
 30
0.0
 10
197.7864056747229
 20
210.4877388002092
 30
0.0
 10
197.69672997372
 20
210.5949411173997
 30
0.0
 10
197.5689586474232
 20
210.7514951578695
 30
0.0
 10
197.4057474038133
 20
210.9593345503683
 30
0.0
 10
197.2466636760381
 20
211.169977636953
 30
0.0
 10
197.0917081372356
 20
211.3834239059694
 30
0.0
 10
196.9408809396577
 20
211.5996729967026
 30
0.0
 10
196.8142713364005
 20
211.7887276338068
 30
0.0
 10
196.7101399924881
 20
211.9493904705854
 30
0.0
 10
196.6270681655334
 20
212.0807452626652
 30
0.0
 10
196.5454296621152
 20
212.213073070712
 30
0.0
 10
196.4652243785336
 20
212.3463740260807
 30
0.0
 10
196.3864523510562
 20
212.4806481019879
 30
0.0
 10
196.3091135541826
 20
212.6158952341093
 30
0.0
 10
196.2332080677139
 20
212.7521156663734
 30
0.0
 10
196.1406066816782
 20
212.922705462981
 30
0.0
 10
196.0329701049474
 20
213.1283259205086
 30
0.0
 10
195.912412576399
 20
213.3698097072111
 30
0.0
 10
195.7966644492573
 20
213.6132835541034
 30
0.0
 10
195.6857263199247
 20
213.8587470630471
 30
0.0
 10
195.5795981234031
 20
214.1062001515911
 30
0.0
 10
195.4802105359544
 20
214.3508896903348
 30
0.0
 10
195.38724938577
 20
214.5926812697883
 30
0.0
 10
195.3004040158248
 20
214.8314556800608
 30
0.0
 10
195.217834458974
 20
215.0719983160552
 30
0.0
 10
195.1395411376733
 20
215.3143093698188
 30
0.0
 10
195.0640938928485
 20
215.5630985675577
 30
0.0
 10
194.9918923851521
 20
215.8181391945593
 30
0.0
 10
194.9233752391748
 20
216.0792026090479
 30
0.0
 10
194.8599732142422
 20
216.3412279434961
 30
0.0
 10
194.8016868434402
 20
216.6042152936025
 30
0.0
 10
194.7485160831086
 20
216.8681641026227
 30
0.0
 10
194.7056930831374
 20
217.10423205993
 30
0.0
 10
194.6714523009552
 20
217.3120729429878
 30
0.0
 10
194.6442937028318
 20
217.4914419605076
 30
0.0
 10
194.6194549135606
 20
217.6712468616688
 30
0.0
 10
194.5969359128065
 20
217.8514878376553
 30
0.0
 10
194.5767366231441
 20
218.032164764528
 30
0.0
 10
194.5588573695152
 20
218.2132778542136
 30
0.0
 10
194.5409581897892
 20
218.4221129194439
 30
0.0
 10
194.524450128639
 20
218.6585604261742
 30
0.0
 10
194.5110081395744
 20
218.9224820166435
 30
0.0
 10
194.502554849808
 20
219.1863127469906
 30
0.0
 10
194.4990908098657
 20
219.450052222619
 30
0.0
 10
194.5006158780833
 20
219.7137002963696
 30
0.0
 10
194.5068694653536
 20
219.9667109919791
 30
0.0
 10
194.5171763445424
 20
220.2090896484751
 30
0.0
 10
194.5308985062102
 20
220.4408633597744
 30
0.0
 10
194.5445914662587
 20
220.6212790818482
 30
0.0
 10
194.5558350156048
 20
220.7504411040685
 30
0.0
 10
194.5630625991048
 20
220.8284301397413
 30
0.0
 10
194.5707281298663
 20
220.9064110955838
 30
0.0
 10
194.5788316175202
 20
220.9843840387039
 30
0.0
 10
194.5873730339092
 20
221.0623489369322
 30
0.0
 10
194.5963524816214
 20
221.1403058505574
 30
0.0
 10
194.6123761958616
 20
221.2729399435943
 30
0.0
 10
194.6371333078845
 20
221.4599224915812
 30
0.0
 10
194.6732792544801
 20
221.7007495471989
 30
0.0
 10
194.7135635661164
 20
221.9406690678334
 30
0.0
 10
194.7579864500935
 20
222.1796802960516
 30
0.0
 10
194.8065478592029
 20
222.4177833991189
 30
0.0
 10
194.8592477402822
 20
222.6549780633214
 30
0.0
 10
194.9120237580113
 20
222.8743763838461
 30
0.0
 10
194.9639033575128
 20
223.0761897735879
 30
0.0
 10
195.0140168350513
 20
223.2606348631283
 30
0.0
 10
195.0666848823355
 20
223.4445191014612
 30
0.0
 10
195.1219074354799
 20
223.6278426237034
 30
0.0
 10
195.1788887151741
 20
223.8080871607646
 30
0.0
 10
195.2371198876874
 20
223.9841130153859
 30
0.0
 10
195.3042486485355
 20
224.1785481793154
 30
0.0
 10
195.3821368029521
 20
224.3933418524506
 30
0.0
 10
195.4724317485035
 20
224.6289900789396
 30
0.0
 10
195.5669210705172
 20
224.8628456601984
 30
0.0
 10
195.6656046639423
 20
225.0949082041276
 30
0.0
 10
195.76786977388
 20
225.323806238932
 30
0.0
 10
195.8736290938321
 20
225.5495762439298
 30
0.0
 10
195.982797352808
 20
225.7722575424251
 30
0.0
 10
196.0960116410407
 20
225.9932089576324
 30
0.0
 10
196.2162922556576
 20
226.218081254503
 30
0.0
 10
196.3438631883782
 20
226.4464320424112
 30
0.0
 10
196.4789742299917
 20
226.6777866400629
 30
0.0
 10
196.6183575167146
 20
226.9062998409373
 30
0.0
 10
196.7620135194263
 20
227.1319712967793
 30
0.0
 10
196.9099418106844
 20
227.3548006691953
 30
0.0
 10
197.0455665061482
 20
227.550829368009
 30
0.0
 10
197.167408559762
 20
227.7210367720478
 30
0.0
 10
197.2742452207621
 20
227.8662872241457
 30
0.0
 10
197.3830192161993
 20
228.0102487705558
 30
0.0
 10
197.4937305771646
 20
228.1529216511112
 30
0.0
 10
197.607933804943
 20
228.2962562835544
 30
0.0
 10
197.7262955430256
 20
228.4408909173788
 30
0.0
 10
197.8652569969127
 20
228.6060998057161
 30
0.0
 10
198.0241877227333
 20
228.78889444645
 30
0.0
 10
198.2035391800718
 20
228.9873760070195
 30
0.0
 10
198.3865503869202
 20
229.1822667874659
 30
0.0
 10
198.5732207915821
 20
229.3735662055235
 30
0.0
 10
198.7466226369923
 20
229.5445795905603
 30
0.0
 10
198.905699218692
 20
229.6963358851052
 30
0.0
 10
199.0495552700681
 20
229.8297641347836
 30
0.0
 10
199.1658352538626
 20
229.9346202458439
 30
0.0
 10
199.2534181962593
 20
230.0120641698353
 30
0.0
 10
199.3115429214356
 20
230.0628936712467
 30
0.0
 10
199.3699712456486
 20
230.1134251824776
 30
0.0
 10
199.4287031791539
 20
230.1636587328443
 30
0.0
 10
199.4877388002278
 20
230.2135943252698
 30
0.0
 10
199.5949411174186
 20
230.3032700262732
 30
0.0
 10
199.7514951578895
 20
230.431041352571
 30
0.0
 10
199.9593345503896
 20
230.5942525961826
 30
0.0
 10
200.1699776369752
 20
230.7533363239592
 30
0.0
 10
200.3834239059921
 20
230.9082918627627
 30
0.0
 10
200.5996729967254
 20
231.0591190603413
 30
0.0
 10
200.7887276338293
 20
231.185728663599
 30
0.0
 10
200.9493904706075
 20
231.2898600075116
 30
0.0
 10
201.0807452626867
 20
231.3729318344662
 30
0.0
 10
201.2130730707327
 20
231.4545703378844
 30
0.0
 10
201.3463740261005
 20
231.5347756214658
 30
0.0
 10
201.4806481020066
 20
231.613547648943
 30
0.0
 10
201.6158952341268
 20
231.6908864458162
 30
0.0
 10
201.7521156663896
 20
231.7667919322844
 30
0.0
 10
201.9227054629962
 20
231.8593933183199
 30
0.0
 10
202.1283259205234
 20
231.9670298950507
 30
0.0
 10
202.3698097072259
 20
232.0875874235994
 30
0.0
 10
202.6132835541181
 20
232.2033355507416
 30
0.0
 10
202.8587470630617
 20
232.3142736800747
 30
0.0
 10
203.1062001516054
 20
232.4204018765969
 30
0.0
 10
203.350889690349
 20
232.5197894640461
 30
0.0
 10
203.5926812698021
 20
232.6127506142311
 30
0.0
 10
203.8314556800744
 20
232.6995959841769
 30
0.0
 10
204.0719983160684
 20
232.7821655410283
 30
0.0
 10
204.3143093698316
 20
232.8604588623296
 30
0.0
 10
204.5630985675688
 20
232.9359061071547
 30
0.0
 10
204.8181391945677
 20
233.0081076148512
 30
0.0
 10
205.0792026090531
 20
233.0766247608283
 30
0.0
 10
205.3412279434987
 20
233.140026785761
 30
0.0
 10
205.6042152936035
 20
233.1983131565632
 30
0.0
 10
205.8681641026228
 20
233.2514839168952
 30
0.0
 10
206.10423205993
 20
233.2943069168669
 30
0.0
 10
206.3120729429883
 20
233.3285476990497
 30
0.0
 10
206.4914419605089
 20
233.3557062971737
 30
0.0
 10
206.6712468616713
 20
233.3805450864456
 30
0.0
 10
206.8514878376594
 20
233.4030640872005
 30
0.0
 10
207.0321647645341
 20
233.4232633768638
 30
0.0
 10
207.2132778542222
 20
233.4411426304937
 30
0.0
 10
207.422112919452
 20
233.4590418102207
 30
0.0
 10
207.6585604261793
 20
233.4755498713717
 30
0.0
 10
207.9224820166435
 20
233.4889918604369
 30
0.0
 10
208.1863127469869
 20
233.497445150204
 30
0.0
 10
208.4500522226128
 20
233.5009091901469
 30
0.0
 10
208.7137002963623
 20
233.4993841219299
 30
0.0
 10
208.9667109919719
 20
233.4931305346601
 30
0.0
 10
209.2090896484692
 20
233.4828236554719
 30
0.0
 10
209.4408633597708
 20
233.4691014938045
 30
0.0
 10
209.621279081847
 20
233.4554085337564
 30
0.0
 10
209.7504411040693
 20
233.4441649844105
 30
0.0
 10
209.8284301397436
 20
233.4369374009106
 30
0.0
 10
209.9064110955876
 20
233.4292718701493
 30
0.0
 10
209.9843840387094
 20
233.4211683824956
 30
0.0
 10
210.0623489369395
 20
233.4126269661067
 30
0.0
 10
210.1403058505667
 20
233.4036475183946
 30
0.0
 10
210.2729399436053
 20
233.3876238041549
 30
0.0
 10
210.4599224915935
 20
233.3628666921327
 30
0.0
 10
210.700749547212
 20
233.326720745538
 30
0.0
 10
210.9406690678473
 20
233.2864364339027
 30
0.0
 10
211.1796802960658
 20
233.2420135499257
 30
0.0
 10
211.4177833991342
 20
233.1934521408196
 30
0.0
 10
211.6549780633339
 20
233.140752259731
 30
0.0
 10
211.8743763838685
 20
233.0879762420362
 30
0.0
 10
212.0761897735808
 20
233.0360966424338
 30
0.0
 10
212.2606348632247
 20
232.9859831652528
 30
0.0
 10
212.4445191011686
 20
232.9333151166313
 30
0.0
 10
212.6278426248628
 20
232.8780925684865
 30
0.0
 10
212.8080951711002
 20
232.8211087366982
 30
0.0
 10
212.9841388694298
 20
232.7628715591997
 30
0.0
 10
213.1786030188372
 20
232.6957334628437
 30
0.0
 10
213.3934254193774
 20
232.6178359771434
 30
0.0
 10
213.629096990879
 20
232.5275335743562
 30
0.0
 10
213.8629658340219
 20
232.4330396364133
 30
0.0
 10
214.0950325655401
 20
232.3343561184414
 30
0.0
 10
214.3239220912963
 20
232.2320888687107
 30
0.0
 10
214.5496848041952
 20
232.1263504265118
 30
0.0
 10
214.7723090492305
 20
232.0171324502574
 30
0.0
 10
214.9933442458567
 20
231.9041469258672
 30
0.0
 10
215.1390537317425
 20
231.8255038743057
 30
0.0
 10
215.21195754046
 20
231.7861558665
 30
0.0
  0
SPLINE
  5
A9
330
1F
100
AcDbEntity
  8
0
  6
Continuous
 62
     8
370
     0
100
AcDbSpline
210
0.0
220
0.0
230
1.0
 70
     8
 71
     3
 72
   215
 73
   211
 74
     0
 42
0.000000001
 43
0.00000001
 40
0.0
 40
0.0
 40
0.0
 40
0.0
 40
0.0060994497047642
 40
0.012190724375911
 40
0.0182760476086721
 40
0.0243576495262948
 40
0.0304377643468476
 40
0.0365186279275572
 40
0.0406154820705696
 40
0.0447143715361924
 40
0.0488159772662036
 40
0.0529209788506515
 40
0.0570300541946882
 40
0.0613146423683828
 40
0.0656674286207665
 40
0.0717544942380083
 40
0.0778356497085778
 40
0.0839131240877159
 40
0.0899891504820076
 40
0.0960659635943547
 40
0.1005241183605638
 40
0.1049847774622745
 40
0.1094488193330874
 40
0.1112036790323102
 40
0.1129592491374981
 40
0.1147155826244391
 40
0.1164727323998768
 40
0.1182307512968566
 40
0.1199896920701075
 40
0.1260059800164997
 40
0.1320133620932117
 40
0.138013968999969
 40
0.1440099386592795
 40
0.1500034139560874
 40
0.1559965404509687
 40
0.1595289426807084
 40
0.1630624078784839
 40
0.1665973745299474
 40
0.1701342805623261
 40
0.173673563182949
 40
0.1772156587191056
 40
0.1807610024595241
 40
0.1843100284977546
 40
0.1904551070963098
 40
0.1965906794902519
 40
0.2027190151553847
 40
0.2088423916138529
 40
0.2149630919237894
 40
0.2210834021381774
 40
0.2268556873777165
 40
0.2326315732944536
 40
0.2384129711232523
 40
0.2442017866395415
 40
0.2499999183044432
 40
0.2561449971169524
 40
0.2622805696460183
 40
0.2684089053853716
 40
0.2745322818752156
 40
0.280652982191833
 40
0.2867732924064085
 40
0.2908960974898291
 40
0.295020460712773
 40
0.2991470792662888
 40
0.3032766491991297
 40
0.3074098650689798
 40
0.311547419597429
 40
0.3156900033295405
 40
0.321706291865818
 40
0.327713674315054
 40
0.3337142814264237
 40
0.3397102511722312
 40
0.3457037264874591
 40
0.3516968529828567
 40
0.3569722376804697
 40
0.3622504753840185
 40
0.3675330249928572
 40
0.3693130864857098
 40
0.3710938574018636
 40
0.3728753931300854
 40
0.3746577489878396
 40
0.3764409802162669
 40
0.3782251419751989
 40
0.3800102893382085
 40
0.3855536572353072
 40
0.3910897388069036
 40
0.3966202017415372
 40
0.4021467188142107
 40
0.4076709663844187
 40
0.4131946228779519
 40
0.4187193672593112
 40
0.4230621151689445
 40
0.4274073834827037
 40
0.4317559836706928
 40
0.4361087253395586
 40
0.4404664157876358
 40
0.4446497266245243
 40
0.4487549448175958
 40
0.4544965829387851
 40
0.4602333422162915
 40
0.4659670935017459
 40
0.4716997105917736
 40
0.4774330683950453
 40
0.4830665819415602
 40
0.4887043910019321
 40
0.4943482646974598
 40
0.4999999664543062
 40
0.5060982952597973
 40
0.5121887080139824
 40
0.5182734301817932
 40
0.5243546934756496
 40
0.5304347334167693
 40
0.53651578687556
 40
0.5406129184718401
 40
0.5447122059496731
 40
0.5488143303358839
 40
0.5529199712455737
 40
0.5570298065493344
 40
0.5613146423285951
 40
0.5656674285809588
 40
0.5717544941981781
 40
0.5778356496687319
 40
0.5839131240478608
 40
0.5899891504421502
 40
0.5960659635545018
 40
0.6005241183207182
 40
0.60498477742244
 40
0.6094488192932673
 40
0.6112036789924967
 40
0.6129592490976918
 40
0.6147155825846407
 40
0.6164727323600865
 40
0.6182307512570752
 40
0.6199896920303352
 40
0.6260059799765676
 40
0.6320133620531526
 40
0.6380139689598159
 40
0.6440099386190653
 40
0.650003413915845
 40
0.655996540410731
 40
0.6595289426404887
 40
0.6630624078382936
 40
0.666597374489798
 40
0.6701342805222287
 40
0.6736735631429152
 40
0.6772156586791462
 40
0.6807610024196507
 40
0.6843100284579783
 40
0.6904551070565114
 40
0.6965906794504354
 40
0.7027190151155546
 40
0.7088423915740136
 40
0.7149630918839459
 40
0.7210834020983344
 40
0.7268556873378789
 40
0.7326315732546262
 40
0.7384129710834401
 40
0.7442017865997493
 40
0.7499999182646766
 40
0.7561449970773476
 40
0.7622805696065423
 40
0.7684089053459914
 40
0.7745322818358976
 40
0.7806529821525438
 40
0.7867732923671146
 40
0.7908960974505128
 40
0.7950204606734195
 40
0.7991470792268827
 40
0.8032766491596557
 40
0.8074098650294228
 40
0.8115474195577739
 40
0.8156900032897724
 40
0.8217062918261249
 40
0.8277136742754206
 40
0.8337142813868347
 40
0.8397102511326712
 40
0.8457037264479124
 40
0.8516968529433078
 40
0.8569722376409058
 40
0.8622504753444274
 40
0.8675330249532271
 40
0.8693130864460636
 40
0.8710938573622001
 40
0.8728753930904032
 40
0.8746577489481373
 40
0.8764409801765433
 40
0.8782251419354523
 40
0.8800102892984378
 40
0.8855536571955268
 40
0.8910897387671153
 40
0.8966202017017432
 40
0.9021467187744125
 40
0.9076709663446186
 40
0.9131946228381518
 40
0.9187193672195126
 40
0.9230621151291485
 40
0.9274073834429116
 40
0.9317559836309056
 40
0.9361087252997773
 40
0.9404664157478615
 40
0.9446502999020602
 40
0.9487562290080451
 40
0.9544986596161643
 40
0.9602359748056245
 40
0.9659700456636812
 40
0.9717027464543276
 40
0.9774359527852396
 40
0.983069089553013
 40
0.988706296976497
 40
0.9943493454806078
 40
1.0
 40
1.0
 40
1.0
 40
1.0
 10
215.21195754046
 20
231.7861558665
 30
0.0
 10
215.2901987505258
 20
231.7428533020049
 30
0.0
 10
215.4465763047182
 20
231.6563062110243
 30
0.0
 10
215.6778226867029
 20
231.520918347965
 30
0.0
 10
215.9063935303067
 20
231.3815859507165
 30
0.0
 10
216.1320667669575
 20
231.2379024894763
 30
0.0
 10
216.3549014061337
 20
231.0899770811722
 30
0.0
 10
216.5509250909224
 20
230.95435500241
 30
0.0
 10
216.7211228306516
 20
230.8325212970782
 30
0.0
 10
216.8663596786322
 20
230.7256956749266
 30
0.0
 10
217.0103035451932
 20
230.616936124909
 30
0.0
 10
217.1529546298474
 20
230.5062425402572
 30
0.0
 10
217.2962706063162
 20
230.3920546416786
 30
0.0
 10
217.4408936772374
 20
230.2737020974603
 30
0.0
 10
217.6060998128766
 20
230.1347430120351
 30
0.0
 10
217.7888944442909
 20
229.9758122745683
 30
0.0
 10
217.9873760076181
 20
229.7964608206726
 30
0.0
 10
218.1822667873268
 20
229.6134496129011
 30
0.0
 10
218.3735662055823
 20
229.4267792084863
 30
0.0
 10
218.5445795905683
 20
229.2533773630132
 30
0.0
 10
218.696335885122
 20
229.0943007813258
 30
0.0
 10
218.8297641347969
 20
228.950444729947
 30
0.0
 10
218.9346202458565
 20
228.8341647461536
 30
0.0
 10
219.0120641698469
 20
228.7465818037572
 30
0.0
 10
219.0628936712575
 20
228.6884570785812
 30
0.0
 10
219.1134251824876
 20
228.6300287543685
 30
0.0
 10
219.1636587328536
 20
228.5712968208636
 30
0.0
 10
219.2135943252782
 20
228.51226119979
 30
0.0
 10
219.3032700262809
 20
228.4050588825988
 30
0.0
 10
219.4310413525783
 20
228.2485048421267
 30
0.0
 10
219.5942525961897
 20
228.0406654496249
 30
0.0
 10
219.753336323966
 20
227.8300223630379
 30
0.0
 10
219.9082918627691
 20
227.6165760940199
 30
0.0
 10
220.0591190603473
 20
227.4003270032861
 30
0.0
 10
220.1857286636046
 20
227.2112723661819
 30
0.0
 10
220.2898600075169
 20
227.0506095294037
 30
0.0
 10
220.3729318344712
 20
226.9192547373246
 30
0.0
 10
220.454570337889
 20
226.7869269292789
 30
0.0
 10
220.5347756214699
 20
226.6536259739114
 30
0.0
 10
220.6135476489467
 20
226.5193518980058
 30
0.0
 10
220.6908864458194
 20
226.3841047658863
 30
0.0
 10
220.7667919322871
 20
226.2478843336243
 30
0.0
 10
220.8593933183215
 20
226.0772945370198
 30
0.0
 10
220.9670298950506
 20
225.8716740794956
 30
0.0
 10
221.0875874235972
 20
225.6301902927968
 30
0.0
 10
221.2033355507376
 20
225.3867164459072
 30
0.0
 10
221.3142736800694
 20
225.1412529369652
 30
0.0
 10
221.4204018765907
 20
224.8937998484221
 30
0.0
 10
221.5197894640394
 20
224.6491103096783
 30
0.0
 10
221.6127506142243
 20
224.4073187302238
 30
0.0
 10
221.6995959841703
 20
224.1685443199494
 30
0.0
 10
221.7821655410225
 20
223.9280016839524
 30
0.0
 10
221.8604588623247
 20
223.6856906301853
 30
0.0
 10
221.9359061071505
 20
223.4369014324457
 30
0.0
 10
222.0081076148471
 20
223.1818608054459
 30
0.0
 10
222.0766247608237
 20
222.9207973909617
 30
0.0
 10
222.1400267857559
 20
222.6587720565168
 30
0.0
 10
222.1983131565576
 20
222.3957847064125
 30
0.0
 10
222.251483916889
 20
222.1318358973933
 30
0.0
 10
222.2943069168601
 20
221.895767940086
 30
0.0
 10
222.3285476990425
 20
221.6879270570274
 30
0.0
 10
222.3557062971661
 20
221.5085580395064
 30
0.0
 10
222.3805450864375
 20
221.3287531383434
 30
0.0
 10
222.403064087192
 20
221.1485121623546
 30
0.0
 10
222.4232633768547
 20
220.9678352354791
 30
0.0
 10
222.4411426304842
 20
220.7867221457901
 30
0.0
 10
222.4590418102107
 20
220.5778870805581
 30
0.0
 10
222.4755498713613
 20
220.3414395738276
 30
0.0
 10
222.488991860426
 20
220.0775179833599
 30
0.0
 10
222.4974451501926
 20
219.8136872530139
 30
0.0
 10
222.500909190135
 20
219.5499477773863
 30
0.0
 10
222.4993841219174
 20
219.286299703636
 30
0.0
 10
222.4931305346471
 20
219.0332890080265
 30
0.0
 10
222.4828236554582
 20
218.7909103515301
 30
0.0
 10
222.4691014937903
 20
218.55913664023
 30
0.0
 10
222.4554085337417
 20
218.3787209181555
 30
0.0
 10
222.4441649843955
 20
218.2495588959347
 30
0.0
 10
222.4369374008955
 20
218.1715698602614
 30
0.0
 10
222.4292718701339
 20
218.0935889044185
 30
0.0
 10
222.42116838248
 20
218.0156159612978
 30
0.0
 10
222.4126269660909
 20
217.937651063069
 30
0.0
 10
222.4036475183786
 20
217.8596941494432
 30
0.0
 10
222.3876238041383
 20
217.7270600564053
 30
0.0
 10
222.3628666921152
 20
217.5400775084171
 30
0.0
 10
222.3267207455195
 20
217.299250452798
 30
0.0
 10
222.286436433883
 20
217.0593309321625
 30
0.0
 10
222.2420135499059
 20
216.8203197039435
 30
0.0
 10
222.1934521407965
 20
216.5822166008759
 30
0.0
 10
222.1407522597171
 20
216.3450219366734
 30
0.0
 10
222.087976241988
 20
216.1256236161489
 30
0.0
 10
222.0360966424866
 20
215.9238102264075
 30
0.0
 10
221.9859831649482
 20
215.7393651368679
 30
0.0
 10
221.9333151176641
 20
215.5554808985359
 30
0.0
 10
221.8780925645199
 20
215.3721573762949
 30
0.0
 10
221.8211112848256
 20
215.1919128392343
 30
0.0
 10
221.7628801123119
 20
215.0158869846129
 30
0.0
 10
221.6957513514633
 20
214.8214518206825
 30
0.0
 10
221.617863197046
 20
214.6066581475462
 30
0.0
 10
221.5275682514942
 20
214.3710099210563
 30
0.0
 10
221.4330789294802
 20
214.137154339797
 30
0.0
 10
221.3343953360551
 20
213.9050917958678
 30
0.0
 10
221.2321302261175
 20
213.6761937610636
 30
0.0
 10
221.1263709061657
 20
213.4504237560664
 30
0.0
 10
221.0172026471903
 20
213.2277424575721
 30
0.0
 10
220.9039883589584
 20
213.006791042366
 30
0.0
 10
220.7837077443423
 20
212.7819187454969
 30
0.0
 10
220.6561368116224
 20
212.5535679575899
 30
0.0
 10
220.5210257700094
 20
212.3222133599391
 30
0.0
 10
220.3816424832868
 20
212.0937001590654
 30
0.0
 10
220.2379864805753
 20
211.8680287032237
 30
0.0
 10
220.0900581893172
 20
211.6451993308079
 30
0.0
 10
219.9544334938533
 20
211.449170631994
 30
0.0
 10
219.8325914402394
 20
211.2789632279549
 30
0.0
 10
219.7257547792391
 20
211.1337127758565
 30
0.0
 10
219.6169807838016
 20
210.9897512294459
 30
0.0
 10
219.5062694228359
 20
210.8470783488898
 30
0.0
 10
219.392066195057
 20
210.7037437164457
 30
0.0
 10
219.2737044569739
 20
210.5591090826204
 30
0.0
 10
219.1347430030862
 20
210.3939001942821
 30
0.0
 10
218.9758122772651
 20
210.2111055535472
 30
0.0
 10
218.7964608199261
 20
210.012623992977
 30
0.0
 10
218.6134496130774
 20
209.8177332125301
 30
0.0
 10
218.4267792084154
 20
209.6264337944725
 30
0.0
 10
218.2533773630054
 20
209.4554204094357
 30
0.0
 10
218.0943007813059
 20
209.3036641148913
 30
0.0
 10
217.9504447299301
 20
209.1702358652134
 30
0.0
 10
217.8341647461359
 20
209.0653797541536
 30
0.0
 10
217.7465818037395
 20
208.9879358301627
 30
0.0
 10
217.6884570785634
 20
208.9371063287517
 30
0.0
 10
217.6300287543506
 20
208.8865748175212
 30
0.0
 10
217.5712968208455
 20
208.8363412671548
 30
0.0
 10
217.5122611997719
 20
208.7864056747298
 30
0.0
 10
217.4050588825825
 20
208.696729973728
 30
0.0
 10
217.248504842114
 20
208.5689586474327
 30
0.0
 10
217.0406654496169
 20
208.4057474038242
 30
0.0
 10
216.8300223630336
 20
208.24666367605
 30
0.0
 10
216.6165760940181
 20
208.091708137248
 30
0.0
 10
216.4003270032856
 20
207.9408809396701
 30
0.0
 10
216.2112723661817
 20
207.8142713364124
 30
0.0
 10
216.0506095294031
 20
207.7101399924994
 30
0.0
 10
215.9192547373232
 20
207.627068165544
 30
0.0
 10
215.7869269292763
 20
207.5454296621248
 30
0.0
 10
215.6536259739071
 20
207.4652243785421
 30
0.0
 10
215.5193518979995
 20
207.3864523510634
 30
0.0
 10
215.3841047658774
 20
207.3091135541883
 30
0.0
 10
215.2478843336126
 20
207.233208067718
 30
0.0
 10
215.0772945370066
 20
207.1406066816814
 30
0.0
 10
214.8716740794825
 20
207.0329701049506
 30
0.0
 10
214.630190292785
 20
206.9124125764029
 30
0.0
 10
214.3867164458965
 20
206.7966644492616
 30
0.0
 10
214.1412529369553
 20
206.6857263199291
 30
0.0
 10
213.8937998484126
 20
206.5795981234072
 30
0.0
 10
213.649110309669
 20
206.480210535958
 30
0.0
 10
213.4073187302144
 20
206.3872493857727
 30
0.0
 10
213.1685443199397
 20
206.3004040158263
 30
0.0
 10
212.928001683942
 20
206.217834458974
 30
0.0
 10
212.685690630174
 20
206.1395411376716
 30
0.0
 10
212.4369014324313
 20
206.0640938928453
 30
0.0
 10
212.181860805427
 20
205.9918923851477
 30
0.0
 10
211.9207973909374
 20
205.9233752391696
 30
0.0
 10
211.6587720564885
 20
205.8599732142362
 30
0.0
 10
211.3957847063816
 20
205.8016868434335
 30
0.0
 10
211.1318358973612
 20
205.7485160831013
 30
0.0
 10
210.895767940054
 20
205.7056930831296
 30
0.0
 10
210.6879270569965
 20
205.6714523009469
 30
0.0
 10
210.5085580394771
 20
205.6442937028232
 30
0.0
 10
210.3287531383165
 20
205.6194549135517
 30
0.0
 10
210.1485121623307
 20
205.5969359127973
 30
0.0
 10
209.9678352354588
 20
205.5767366231347
 30
0.0
 10
209.7867221457741
 20
205.5588573695055
 30
0.0
 10
209.5778870805441
 20
205.5409581897791
 30
0.0
 10
209.3414395738133
 20
205.5244501286286
 30
0.0
 10
209.077517983343
 20
205.5110081395634
 30
0.0
 10
208.813687252995
 20
205.5025548497964
 30
0.0
 10
208.5499477773662
 20
205.4990908098535
 30
0.0
 10
208.2862997036153
 20
205.5006158780705
 30
0.0
 10
208.0332890080058
 20
205.5068694653403
 30
0.0
 10
207.79091035151
 20
205.5171763445286
 30
0.0
 10
207.5591366402112
 20
205.5308985061959
 30
0.0
 10
207.3787209181378
 20
205.544591466244
 30
0.0
 10
207.249558895918
 20
205.5558350155897
 30
0.0
 10
207.1715698602455
 20
205.5630625990896
 30
0.0
 10
207.0935889044033
 20
205.5707281298509
 30
0.0
 10
207.0156159612836
 20
205.5788316175045
 30
0.0
 10
206.9376510630557
 20
205.5873730338934
 30
0.0
 10
206.8596941494309
 20
205.5963524816054
 30
0.0
 10
206.7270600563938
 20
205.6123761958454
 30
0.0
 10
206.5400775084061
 20
205.6371333078681
 30
0.0
 10
206.2992504527873
 20
205.6732792544634
 30
0.0
 10
206.0593309321519
 20
205.7135635660992
 30
0.0
 10
205.8203197039333
 20
205.7579864500766
 30
0.0
 10
205.5822166008648
 20
205.8065478591828
 30
0.0
 10
205.345021936665
 20
205.8592477402715
 30
0.0
 10
205.1256236161305
 20
205.9120237579661
 30
0.0
 10
204.9238102264183
 20
205.9639033575682
 30
0.0
 10
204.7393651367746
 20
206.014016834749
 30
0.0
 10
204.5554808988308
 20
206.06668488337
 30
0.0
 10
204.3721573751368
 20
206.1219074315144
 30
0.0
 10
204.1919048289002
 20
206.1788912633018
 30
0.0
 10
204.0158611305719
 20
206.2371284407993
 30
0.0
 10
203.8213969811665
 20
206.3042665371542
 30
0.0
 10
203.6065745806284
 20
206.3821640228533
 30
0.0
 10
203.3709030091285
 20
206.4724664256397
 30
0.0
 10
203.1370341659865
 20
206.566960363582
 30
0.0
 10
202.9049674344686
 20
206.6656438815538
 30
0.0
 10
202.676077908712
 20
206.7679111312848
 30
0.0
 10
202.4503151958119
 20
206.8736495734842
 30
0.0
 10
202.2276909507748
 20
206.9828675497397
 30
0.0
 10
202.0066557541461
 20
207.0958530741313
 30
0.0
 10
201.8609462682585
 20
207.1744961256937
 30
0.0
 10
201.78804245954
 20
207.2138441335
 30
0.0
  0
SPLINE
  5
AA
330
1F
100
AcDbEntity
  8
0
  6
Continuous
 62
     7
370
    30
100
AcDbSpline
210
0.0
220
0.0
230
1.0
 70
     8
 71
     3
 72
    41
 73
    37
 74
     0
 42
0.000000001
 43
0.00000001
 40
0.0
 40
0.0
 40
0.0
 40
0.0
 40
0.0395645369203773
 40
0.0783305856628231
 40
0.1163932381639637
 40
0.1542709338093714
 40
0.193820155327336
 40
0.2351592058461406
 40
0.2782655871803035
 40
0.3229834267376562
 40
0.3686444546706177
 40
0.4033961743136893
 40
0.4385270452324107
 40
0.473986827576072
 40
0.5097223032143396
 40
0.5456776987878654
 40
0.5817494852310333
 40
0.6171960838972383
 40
0.6517428841940476
 40
0.6853537771693134
 40
0.7180000411127
 40
0.749659952008823
 40
0.7803183128448259
 40
0.8195809709160384
 40
0.8569041541761793
 40
0.8922977120866158
 40
0.9180287442712285
 40
0.943680909359496
 40
0.9500098005362589
 40
0.9561367985870162
 40
0.962278923580855
 40
0.9686636519597974
 40
0.9754877972085315
 40
0.9829092637608914
 40
0.991049333124311
 40
1.0
 40
1.0
 40
1.0
 40
1.0
 10
341.0177008514256
 20
182.1949700889177
 30
0.0
 10
341.0383433120191
 20
182.1957163909889
 30
0.0
 10
341.0792116287914
 20
182.1971939333253
 30
0.0
 10
341.139620860807
 20
182.204107356916
 30
0.0
 10
341.198652856691
 20
182.2142198980375
 30
0.0
 10
341.2573719046358
 20
182.2279806212686
 30
0.0
 10
341.3167921016281
 20
182.2457411824712
 30
0.0
 10
341.377531918798
 20
182.2681745344282
 30
0.0
 10
341.4391234464488
 20
182.2956672717567
 30
0.0
 10
341.5006735270539
 20
182.3283827211439
 30
0.0
 10
341.5560599811053
 20
182.3630514198738
 30
0.0
 10
341.6050638068898
 20
182.3981993465297
 30
0.0
 10
341.6479217735927
 20
182.4326377934774
 30
0.0
 10
341.6891911426271
 20
182.4697314514444
 30
0.0
 10
341.7286310007737
 20
182.5093693124784
 30
0.0
 10
341.7659944549539
 20
182.5513935317106
 30
0.0
 10
341.8008332274635
 20
182.5953364401571
 30
0.0
 10
341.8327305203109
 20
182.640556469061
 30
0.0
 10
341.8614175522769
 20
182.6863643513581
 30
0.0
 10
341.886908306909
 20
182.7323564458966
 30
0.0
 10
341.9093154714721
 20
182.7782523614663
 30
0.0
 10
341.9287758429989
 20
182.8237994936462
 30
0.0
 10
341.947187009177
 20
182.8734734376825
 30
0.0
 10
341.9637268790862
 20
182.9269160146796
 30
0.0
 10
341.9776156999438
 20
182.9836480979386
 30
0.0
 10
341.9869636745708
 20
183.0341293231446
 30
0.0
 10
341.993061829237
 20
183.078977420753
 30
0.0
 10
341.9959100890223
 20
183.108891310592
 30
0.0
 10
341.9972993969403
 20
183.1287621868488
 30
0.0
 10
341.9978710545262
 20
183.1381710953601
 30
0.0
 10
341.9983239591631
 20
183.146907022626
 30
0.0
 10
341.9986736550595
 20
183.154969315055
 30
0.0
 10
341.9989358093621
 20
183.1623984019693
 30
0.0
 10
341.9991244631363
 20
183.1692416233488
 30
0.0
 10
341.9992556287575
 20
183.1756291289372
 30
0.0
 10
341.999301333575
 20
183.1792737405055
 30
0.0
 10
341.9993252698521
 20
183.1811824765356
 30
0.0
  0
SPLINE
  5
AB
330
1F
100
AcDbEntity
  8
0
  6
Continuous
 62
     7
370
    30
100
AcDbSpline
210
0.0
220
0.0
230
1.0
 70
     8
 71
     3
 72
    46
 73
    42
 74
     0
 42
0.000000001
 43
0.00000001
 40
0.0
 40
0.0
 40
0.0
 40
0.0
 40
0.0105428129214349
 40
0.0200416974403209
 40
0.0286932581900787
 40
0.0347842120695458
 40
0.040679658203644
 40
0.0465321562445465
 40
0.0525026843146416
 40
0.0683064177316974
 40
0.0845442860383991
 40
0.1011659701105214
 40
0.1212517185354588
 40
0.1418775907256389
 40
0.1800730249286896
 40
0.2200278119776646
 40
0.2514633453598396
 40
0.2838902534803485
 40
0.3172707224289738
 40
0.3512602046710611
 40
0.385708459097004
 40
0.420571264431647
 40
0.4558008405640645
 40
0.4913461539609598
 40
0.5271532921650695
 40
0.5631659021674604
 40
0.5991758140426819
 40
0.6344115997057431
 40
0.668737397699127
 40
0.7021189551624621
 40
0.7345293214892369
 40
0.7659484363196755
 40
0.7999435617121088
 40
0.8326151109317945
 40
0.8639142244091577
 40
0.8938501450129944
 40
0.9122464562238677
 40
0.9318766687363124
 40
0.9529214658578138
 40
0.9754741132497762
 40
1.0
 40
1.0
 40
1.0
 40
1.0
 10
341.9993252698521
 20
255.8188175234646
 30
0.0
 10
341.9992961921533
 20
255.8210948117519
 30
0.0
 10
341.9992409159719
 20
255.8254238957617
 30
0.0
 10
341.9990610674957
 20
255.8334473334962
 30
0.0
 10
341.9988023644154
 20
255.8416901755706
 30
0.0
 10
341.998469342594
 20
255.8499361492455
 30
0.0
 10
341.9980848250999
 20
255.8579037949404
 30
0.0
 10
341.9975990896247
 20
255.866494494313
 30
0.0
 10
341.9966775547027
 20
255.8806222953824
 30
0.0
 10
341.9950558829574
 20
255.9004892960006
 30
0.0
 10
341.9923538764865
 20
255.9256626443847
 30
0.0
 10
341.9887062783556
 20
255.9530254022677
 30
0.0
 10
341.9839064248341
 20
255.9825150014956
 30
0.0
 10
341.9760089021885
 20
256.022876113066
 30
0.0
 10
341.9637991516561
 20
256.0729141650593
 30
0.0
 10
341.9468789867297
 20
256.1274999392392
 30
0.0
 10
341.9279879797888
 20
256.1782227216607
 30
0.0
 10
341.9079373946463
 20
256.224793494485
 30
0.0
 10
341.8849230177492
 20
256.2714667019662
 30
0.0
 10
341.8589614936003
 20
256.3177838135976
 30
0.0
 10
341.830140083658
 20
256.3632998346363
 30
0.0
 10
341.7985142106222
 20
256.4077153705813
 30
0.0
 10
341.7641398492363
 20
256.4507796803935
 30
0.0
 10
341.7271021945386
 20
256.4922447958189
 30
0.0
 10
341.6875156767426
 20
256.5318696998115
 30
0.0
 10
341.6455815460862
 20
256.5693724480892
 30
0.0
 10
341.6018312447501
 20
256.6042700443468
 30
0.0
 10
341.5569200707419
 20
256.6361675795953
 30
0.0
 10
341.5114982641339
 20
256.6648440158216
 30
0.0
 10
341.4659071791373
 20
256.6903566117931
 30
0.0
 10
341.4204227480747
 20
256.7128195280235
 30
0.0
 10
341.3735797929147
 20
256.7331125613593
 30
0.0
 10
341.3256265278967
 20
256.7510340971181
 30
0.0
 10
341.2768645638068
 20
256.766413885211
 30
0.0
 10
341.2294447912581
 20
256.7788010239772
 30
0.0
 10
341.1887760206372
 20
256.7873695965264
 30
0.0
 10
341.1538239487592
 20
256.7933631944227
 30
0.0
 10
341.1233015404106
 20
256.7976731216327
 30
0.0
 10
341.0905001946988
 20
256.801223079612
 30
0.0
 10
341.0550490765175
 20
256.8039353597924
 30
0.0
 10
341.0304933344527
 20
256.8046550062839
 30
0.0
 10
341.0177008514256
 20
256.8050299110823
 30
0.0
  0
SPLINE
  5
AC
330
1F
100
AcDbEntity
  8
0
  6
Continuous
 62
     7
370
    30
100
AcDbSpline
210
0.0
220
0.0
230
1.0
 70
     8
 71
     3
 72
    10
 73
     6
 74
     0
 42
0.000000001
 43
0.00000001
 40
0.0
 40
0.0
 40
0.0
 40
0.0
 40
0.4897379719419461
 40
0.9252425158855185
 40
1.0
 40
1.0
 40
1.0
 40
1.0
 10
341.022318765395
 20
182.192421044097
 30
0.0
 10
341.0246076232284
 20
182.1925088145054
 30
0.0
 10
341.0289318715032
 20
182.1926746356549
 30
0.0
 10
341.0343838807146
 20
182.1930849815198
 30
0.0
 10
341.0380119882296
 20
182.1934419384361
 30
0.0
 10
341.0385435351114
 20
182.1934942354904
 30
0.0
  0
SPLINE
  5
AD
330
1F
100
AcDbEntity
  8
0
  6
Continuous
 62
     7
370
    30
100
AcDbSpline
210
0.0
220
0.0
230
1.0
 70
     8
 71
     3
 72
    10
 73
     6
 74
     0
 42
0.000000001
 43
0.00000001
 40
0.0
 40
0.0
 40
0.0
 40
0.0
 40
0.138423706031546
 40
0.5465430503389153
 40
1.0
 40
1.0
 40
1.0
 40
1.0
 10
341.0389699019399
 20
256.8064825092139
 30
0.0
 10
341.0379762321664
 20
256.8065763562057
 30
0.0
 10
341.0340528918323
 20
256.8069468954911
 30
0.0
 10
341.0284710292945
 20
256.807352419338
 30
0.0
 10
341.0244402232093
 20
256.8075008403139
 30
0.0
 10
341.0223187662415
 20
256.8075789558836
 30
0.0
  0
ARC
  5
AE
330
1F
100
AcDbEntity
  8
0
  6
Continuous
 62
     7
370
    30
100
AcDbCircle
 10
388.9993855032
 20
205.5
 30
0.0
 40
1.0
100
AcDbArc
 50
270.0
 51
0.0
  0
ARC
  5
AF
330
1F
100
AcDbEntity
  8
0
  6
Continuous
 62
     7
370
    30
100
AcDbCircle
 10
388.9993855032
 20
233.5
 30
0.0
 40
1.0
100
AcDbArc
 50
0.0
 51
90.0
  0
LINE
  5
B0
330
1F
100
AcDbEntity
  8
0
  6
Continuous
 62
     7
370
    30
100
AcDbLine
 10
385.7493457085
 20
204.5
 30
0.0
 11
388.9993855032
 21
204.5
 31
0.0
  0
LINE
  5
B1
330
1F
100
AcDbEntity
  8
0
  6
Continuous
 62
     7
370
    30
100
AcDbLine
 10
350.7993352875
 20
204.5
 30
0.0
 11
364.2494124816
 21
204.5
 31
0.0
  0
LINE
  5
B2
330
1F
100
AcDbEntity
  8
0
  6
Continuous
 62
     7
370
    30
100
AcDbLine
 10
341.9993855032
 20
204.5
 30
0.0
 11
345.5994357189
 21
204.5
 31
0.0
  0
LINE
  5
B3
330
1F
100
AcDbEntity
  8
0
  6
Continuous
 62
     7
370
    30
100
AcDbLine
 10
388.9993855032
 20
234.5
 30
0.0
 11
341.9993855032
 21
234.5
 31
0.0
  0
LINE
  5
B4
330
1F
100
AcDbEntity
  8
0
  6
Continuous
 62
     7
370
    30
100
AcDbLine
 10
364.4993855032
 20
204.6781357642
 30
0.0
 11
364.4993855032
 21
202.2249319686
 31
0.0
  0
LINE
  5
B5
330
1F
100
AcDbEntity
  8
0
  6
Continuous
 62
     7
370
    30
100
AcDbLine
 10
385.4993855032
 20
202.2249319686
 30
0.0
 11
385.4993855032
 21
204.6781348638
 31
0.0
  0
LINE
  5
B6
330
1F
100
AcDbEntity
  8
0
  6
Continuous
 62
     7
370
    30
100
AcDbLine
 10
364.5218855032
 20
202.2249319686
 30
0.0
 11
364.5218855032
 21
194.9088033625
 31
0.0
  0
LINE
  5
B7
330
1F
100
AcDbEntity
  8
0
  6
Continuous
 62
     7
370
    30
100
AcDbLine
 10
385.4768855032
 20
194.9088033625
 30
0.0
 11
385.4768855032
 21
202.2249319686
 31
0.0
  0
LINE
  5
B8
330
1F
100
AcDbEntity
  8
0
  6
Continuous
 62
     7
370
    30
100
AcDbLine
 10
364.5218855032
 20
194.9088033625
 30
0.0
 11
365.6838855032
 21
194.2249319686
 31
0.0
  0
LINE
  5
B9
330
1F
100
AcDbEntity
  8
0
  6
Continuous
 62
     7
370
    30
100
AcDbLine
 10
384.3148855032
 20
194.2249319686
 30
0.0
 11
385.4768855032
 21
194.9088033625
 31
0.0
  0
LINE
  5
BA
330
1F
100
AcDbEntity
  8
0
  6
Continuous
 62
     7
370
    30
100
AcDbLine
 10
329.9993855032
 20
255.0003046097
 30
0.0
 11
329.9993855032
 21
257.0
 31
0.0
  0
LINE
  5
BB
330
1F
100
AcDbEntity
  8
0
  6
Continuous
 62
     7
370
    30
100
AcDbLine
 10
341.0168379096
 20
256.8076896529
 30
0.0
 11
329.9993855032
 21
257.0
 31
0.0
  0
LINE
  5
BC
330
1F
100
AcDbEntity
  8
0
  6
Continuous
 62
     7
370
    30
100
AcDbLine
 10
329.9993855032
 20
183.9996953903
 30
0.0
 11
329.9993855032
 21
255.0003046097
 31
0.0
  0
LINE
  5
BD
330
1F
100
AcDbEntity
  8
0
  6
Continuous
 62
     7
370
    30
100
AcDbLine
 10
341.0168379096
 20
182.1923103471
 30
0.0
 11
341.017649384
 21
182.202257174
 31
0.0
  0
LINE
  5
BE
330
1F
100
AcDbEntity
  8
0
  6
Continuous
 62
     7
370
    30
100
AcDbLine
 10
329.9993855032
 20
182.0
 30
0.0
 11
341.0168379096
 21
182.1923103471
 31
0.0
  0
LINE
  5
BF
330
1F
100
AcDbEntity
  8
0
  6
Continuous
 62
     7
370
    30
100
AcDbLine
 10
329.9993855032
 20
183.9996953903
 30
0.0
 11
329.9993855032
 21
182.0
 31
0.0
  0
LINE
  5
C0
330
1F
100
AcDbEntity
  8
0
  6
Continuous
 62
     7
370
    30
100
AcDbLine
 10
341.9993855032
 20
254.8079942626
 30
0.0
 11
341.9993855032
 21
184.1920057374
 31
0.0
  0
SPLINE
  5
C1
330
1F
100
AcDbEntity
  8
0
  6
Continuous
 62
     7
370
    30
100
AcDbSpline
210
0.0
220
0.0
230
1.0
 70
    24
 71
     3
 72
    35
 73
    31
 74
     0
 42
0.000000001
 43
0.00000001
 40
0.0
 40
0.0
 40
0.0
 40
0.0
 40
0.0403124923441334
 40
0.0802865445913163
 40
0.120080661282213
 40
0.1598554981698697
 40
0.1997719438001194
 40
0.2399891872430673
 40
0.2663166637264653
 40
0.2924560158880031
 40
0.3184499430496041
 40
0.3443418640203762
 40
0.3701757119383263
 40
0.413217774578068
 40
0.4564262133378675
 40
0.5000034979221962
 40
0.5437683803414212
 40
0.5870904686538689
 40
0.6301706058378771
 40
0.6732130219560719
 40
0.7164224819417118
 40
0.7600013961166565
 40
0.790270729105274
 40
0.8203295376655833
 40
0.8502438273243224
 40
0.8800805627479358
 40
0.9099072309648484
 40
0.9397913872075196
 40
0.9698001984632509
 40
1.0
 40
1.0
 40
1.0
 40
1.0
 10
341.9993855031875
 20
183.1921580422543
 30
0.0
 10
341.9993855031875
 20
183.1925294059246
 30
0.0
 10
341.9993855031875
 20
183.193269015513
 30
0.0
 10
341.9993855031875
 20
183.1993338706412
 30
0.0
 10
341.9993855031875
 20
183.2090406802228
 30
0.0
 10
341.9993855031875
 20
183.2227368005459
 30
0.0
 10
341.9993855031875
 20
183.2403259772986
 30
0.0
 10
341.9993855031875
 20
183.2592872821444
 30
0.0
 10
341.9993855031875
 20
183.2780626955406
 30
0.0
 10
341.9993855031875
 20
183.2954617850056
 30
0.0
 10
341.9993855031875
 20
183.3142568370985
 30
0.0
 10
341.9993855031875
 20
183.3344468663157
 30
0.0
 10
341.9993855031875
 20
183.360823921245
 30
0.0
 10
341.9993855031875
 20
183.3947419136134
 30
0.0
 10
341.9993855031875
 20
183.4377584230963
 30
0.0
 10
341.9993855031875
 20
183.4845253732412
 30
0.0
 10
341.9993855031875
 20
183.5345182977136
 30
0.0
 10
341.9993855031875
 20
183.5873515050768
 30
0.0
 10
341.9993855031875
 20
183.6427142571637
 30
0.0
 10
341.9993855031875
 20
183.7006016463045
 30
0.0
 10
341.9993855031875
 20
183.7610087293409
 30
0.0
 10
341.9993855031875
 20
183.8172671573648
 30
0.0
 10
341.9993855031875
 20
183.868314975845
 30
0.0
 10
341.9993855031875
 20
183.9133653828917
 30
0.0
 10
341.9993855031875
 20
183.958820129165
 30
0.0
 10
341.9993855031875
 20
184.0046789313869
 30
0.0
 10
341.9993855031875
 20
184.0509410157555
 30
0.0
 10
341.9993855031875
 20
184.0976056717841
 30
0.0
 10
341.9993855031875
 20
184.1446722495006
 30
0.0
 10
341.9993855031875
 20
184.1761945770056
 30
0.0
 10
341.9993855031875
 20
184.1920057374107
 30
0.0
  0
ARC
  5
C2
330
1F
100
AcDbEntity
  8
0
  6
Continuous
 62
     7
370
    30
100
AcDbCircle
 10
340.9993855032
 20
183.1921580423
 30
0.0
 40
1.000000000000041
100
AcDbArc
 50
271.0
 51
340.8802376144
  0
LWPOLYLINE
  5
C3
330
1F
100
AcDbEntity
  8
0
  6
Continuous
 62
     7
370
    30
100
AcDbPolyline
 90
        3
 70
   128
 43
0.0
 10
341.9970212984
 20
183.123435265
 10
341.9986678988
 20
183.1542806897
 10
341.9993855032
 20
183.1921580423
  0
LWPOLYLINE
  5
C4
330
1F
100
AcDbEntity
  8
0
  6
Continuous
 62
     7
370
    30
100
AcDbPolyline
 90
        3
 70
   128
 43
0.0
 10
341.9993855032
 20
255.8078419577
 10
341.9986678988
 20
255.8457193103
 10
341.9969072479
 20
255.8782008151
  0
ARC
  5
C5
330
1F
100
AcDbEntity
  8
0
  6
Continuous
 62
     7
370
    30
100
AcDbCircle
 10
340.9993855032
 20
255.8078419577
 30
0.0
 40
1.000000000000051
100
AcDbArc
 50
19.1691715623
 51
89.0
  0
SPLINE
  5
C6
330
1F
100
AcDbEntity
  8
0
  6
Continuous
 62
     7
370
    30
100
AcDbSpline
210
0.0
220
0.0
230
1.0
 70
    24
 71
     3
 72
    35
 73
    31
 74
     0
 42
0.000000001
 43
0.00000001
 40
0.0
 40
0.0
 40
0.0
 40
0.0
 40
0.0403124923457408
 40
0.0802865445938826
 40
0.1200806612851023
 40
0.1598554981724484
 40
0.1997719438017721
 40
0.2399891872432044
 40
0.2663166637270227
 40
0.2924560158888984
 40
0.3184499430507474
 40
0.344341864021686
 40
0.3701757119396816
 40
0.4132177745792712
 40
0.4564262133385907
 40
0.5000034979220932
 40
0.5437683803409913
 40
0.5870904686532413
 40
0.6301706058371686
 40
0.6732130219554472
 40
0.7164224819413183
 40
0.7600013961166733
 40
0.7902707291056263
 40
0.8203295376661799
 40
0.8502438273250557
 40
0.880080562748719
 40
0.9099072309655938
 40
0.9397913872081203
 40
0.9698001984635997
 40
1.0
 40
1.0
 40
1.0
 40
1.0
 10
341.9993855031875
 20
254.8079942625893
 30
0.0
 10
341.9993855031875
 20
254.8291015175565
 30
0.0
 10
341.9993855031875
 20
254.8711388233286
 30
0.0
 10
341.9993855031875
 20
254.9337708133033
 30
0.0
 10
341.9993855031875
 20
254.9956282726313
 30
0.0
 10
341.9993855031875
 20
255.0567083521442
 30
0.0
 10
341.9993855031875
 20
255.1170081533156
 30
0.0
 10
341.9993855031875
 20
255.1694569623212
 30
0.0
 10
341.9993855031875
 20
255.2142097711728
 30
0.0
 10
341.9993855031875
 20
255.2514297812631
 30
0.0
 10
341.9993855031875
 20
255.2877078018225
 30
0.0
 10
341.9993855031875
 20
255.3230450862939
 30
0.0
 10
341.9993855031875
 20
255.3650780170177
 30
0.0
 10
341.9993855031875
 20
255.4130193601223
 30
0.0
 10
341.9993855031875
 20
255.4657073270941
 30
0.0
 10
341.9993855031875
 20
255.515614257948
 30
0.0
 10
341.9993855031875
 20
255.5623750860067
 30
0.0
 10
341.9993855031875
 20
255.6054950003536
 30
0.0
 10
341.9993855031875
 20
255.6446653025525
 30
0.0
 10
341.9993855031875
 20
255.6798851759889
 30
0.0
 10
341.9993855031875
 20
255.7111526017988
 30
0.0
 10
341.9993855031875
 20
255.735569449464
 30
0.0
 10
341.9993855031875
 20
255.7544086995134
 30
0.0
 10
341.9993855031875
 20
255.7686900676122
 30
0.0
 10
341.9993855031875
 20
255.7807732900169
 30
0.0
 10
341.9993855031875
 20
255.7906553599444
 30
0.0
 10
341.9993855031875
 20
255.7983497545128
 30
0.0
 10
341.9993855031875
 20
255.8038041934984
 30
0.0
 10
341.9993855031875
 20
255.8072148098998
 30
0.0
 10
341.9993855031875
 20
255.8076324668413
 30
0.0
 10
341.9993855031875
 20
255.8078419577457
 30
0.0
  0
LINE
  5
C7
330
1F
100
AcDbEntity
  8
0
  6
Continuous
 62
     7
370
    30
100
AcDbLine
 10
341.9993855032
 20
183.1921580423
 30
0.0
 11
341.9993034318
 21
183.1793464848
 31
0.0
  0
SPLINE
  5
C8
330
1F
100
AcDbEntity
  8
0
  6
Continuous
 62
     7
370
    30
100
AcDbSpline
210
0.0
220
0.0
230
1.0
 70
    24
 71
     3
 72
    42
 73
    38
 74
     0
 42
0.000000001
 43
0.00000001
 40
0.0
 40
0.0
 40
0.0
 40
0.0
 40
0.030528380080826
 40
0.0681842865918154
 40
0.1013304905197456
 40
0.1344946204040896
 40
0.1676858427754935
 40
0.1788702936976568
 40
0.1900592020557645
 40
0.2012529158675365
 40
0.2124517827026877
 40
0.2236561496513787
 40
0.2348663632928868
 40
0.246082769664514
 40
0.2809127608968331
 40
0.3156969708175011
 40
0.3504458778176863
 40
0.3851699922477293
 40
0.4198798469799906
 40
0.4545859878697439
 40
0.4892989641570749
 40
0.5165852410964463
 40
0.5438873541945
 40
0.571210402065855
 40
0.5985594716166904
 40
0.6259396352496398
 40
0.6522277422476083
 40
0.6780260434639284
 40
0.7141067820052093
 40
0.7501553794383484
 40
0.7861835921457334
 40
0.8222031964697739
 40
0.858225977195478
 40
0.8936200026100698
 40
0.9290396046967044
 40
0.9644959073579344
 40
1.0
 40
1.0
 40
1.0
 40
1.0
 10
389.9993855031875
 20
205.5002108276402
 30
0.0
 10
389.9993855031875
 20
205.5003656607911
 30
0.0
 10
389.9993855031875
 20
205.5007114763211
 30
0.0
 10
389.9993855031875
 20
205.5069492842549
 30
0.0
 10
389.9993855031876
 20
205.5171560609633
 30
0.0
 10
389.9993855031876
 20
205.5309041266168
 30
0.0
 10
389.9993855031876
 20
205.5445910136541
 30
0.0
 10
389.9993855031875
 20
205.5558350818293
 30
0.0
 10
389.9993855031875
 20
205.5630625813295
 30
0.0
 10
389.9993855031875
 20
205.5707281346128
 30
0.0
 10
389.9993855031876
 20
205.5788316162279
 30
0.0
 10
389.9993855031876
 20
205.5873730342349
 30
0.0
 10
389.9993855031875
 20
205.596352481517
 30
0.0
 10
389.9993855031876
 20
205.6123761959279
 30
0.0
 10
389.9993855031875
 20
205.6371333078371
 30
0.0
 10
389.9993855031876
 20
205.6732792544717
 30
0.0
 10
389.9993855031875
 20
205.713563566097
 30
0.0
 10
389.9993855031876
 20
205.7579864500771
 30
0.0
 10
389.9993855031875
 20
205.8065478591826
 30
0.0
 10
389.9993855031876
 20
205.8592477402715
 30
0.0
 10
389.9993855031875
 20
205.9120237579661
 30
0.0
 10
389.9993855031876
 20
205.9639033575682
 30
0.0
 10
389.9993855031876
 20
206.014016834749
 30
0.0
 10
389.9993855031875
 20
206.06668488337
 30
0.0
 10
389.9993855031876
 20
206.1219074315144
 30
0.0
 10
389.9993855031875
 20
206.1788912633018
 30
0.0
 10
389.9993855031876
 20
206.2371284407993
 30
0.0
 10
389.9993855031875
 20
206.3042665371542
 30
0.0
 10
389.9993855031875
 20
206.3821640228533
 30
0.0
 10
389.9993855031876
 20
206.4724664256397
 30
0.0
 10
389.9993855031875
 20
206.566960363582
 30
0.0
 10
389.9993855031875
 20
206.6656438815538
 30
0.0
 10
389.9993855031875
 20
206.7679111312848
 30
0.0
 10
389.9993855031876
 20
206.8736495734842
 30
0.0
 10
389.9993855031875
 20
206.9828675497397
 30
0.0
 10
389.9993855031875
 20
207.0958530741313
 30
0.0
 10
389.9993855031875
 20
207.1744961256937
 30
0.0
 10
389.9993855031875
 20
207.2138441335
 30
0.0
  0
SPLINE
  5
C9
330
1F
100
AcDbEntity
  8
0
  6
Continuous
 62
     7
370
    30
100
AcDbSpline
210
0.0
220
0.0
230
1.0
 70
    24
 71
     3
 72
   181
 73
   177
 74
     0
 42
0.000000001
 43
0.00000001
 40
0.0
 40
0.0
 40
0.0
 40
0.0
 40
0.0072539526769097
 40
0.0144981829509917
 40
0.0217353352992667
 40
0.0289680619623929
 40
0.0361990200509168
 40
0.0434308686248029
 40
0.048303174736967
 40
0.0531779014173108
 40
0.0580558584961751
 40
0.0629378541963159
 40
0.0678246947366761
 40
0.072920269150072
 40
0.0780969501647806
 40
0.0853361746957121
 40
0.0925683704082763
 40
0.0997961882729723
 40
0.1070222840784823
 40
0.1142493155119546
 40
0.1195513091778962
 40
0.1248562811996204
 40
0.1301652762805146
 40
0.1322522955738961
 40
0.1343401597387847
 40
0.1364289317782182
 40
0.1385186746131206
 40
0.1406094510767692
 40
0.1427013239093002
 40
0.1498563739818897
 40
0.1570008324830761
 40
0.164137233411126
 40
0.1712681193542157
 40
0.1783960388022467
 40
0.1855235434271958
 40
0.1897245582482948
 40
0.1939268372358763
 40
0.1981309018720946
 40
0.2023372729749801
 40
0.2065464705064028
 40
0.2107590133816194
 40
0.2149754192807467
 40
0.2191962044625003
 40
0.2265044226638156
 40
0.2338013353274334
 40
0.2410896414952144
 40
0.2483720497783711
 40
0.2556512753719547
 40
0.2629300370327317
 40
0.2697948996009226
 40
0.2766640443819541
 40
0.2835397443689532
 40
0.2904242660622506
 40
0.2973198672634196
 40
0.3046280857191999
 40
0.311924998543529
 40
0.3192133047995878
 40
0.3264957131200646
 40
0.3337749387215965
 40
0.341053700382596
 40
0.3459568694254659
 40
0.3508618915322724
 40
0.3557695958582862
 40
0.3606808102002696
 40
0.3655963605816862
 40
0.3705170708423701
 40
0.3754437622336556
 40
0.3825988130079483
 40
0.3897432719523012
 40
0.3968796731237902
 40
0.4040105591698128
 40
0.4111384786397798
 40
0.4182659832653379
 40
0.4245398920277605
 40
0.4308171938126681
 40
0.4370996236596768
 40
0.4392166149385633
 40
0.4413344499202918
 40
0.4434531944776067
 40
0.4455729143984542
 40
0.4476936753800104
 40
0.4498155430227517
 40
0.4519385828245693
 40
0.4585311986083011
 40
0.4651151489118859
 40
0.471692417083713
 40
0.478264992521399
 40
0.4848348688855255
 40
0.4914040422940779
 40
0.4979745095057186
 40
0.5031392521216806
 40
0.508306992203509
 40
0.5134786948162529
 40
0.5186553228087902
 40
0.5238378362847695
 40
0.5288129636015183
 40
0.533695216909923
 40
0.5405236314775554
 40
0.5473462437346784
 40
0.5541652786474534
 40
0.560982964684464
 40
0.5678015316368276
 40
0.5745013558257354
 40
0.5812062885827628
 40
0.5879184338882364
 40
0.5946398889493725
 40
0.6018925085633458
 40
0.6091357137769398
 40
0.6163721512907716
 40
0.6236044752354706
 40
0.6308353442713923
 40
0.6380674186634571
 40
0.6429400547452059
 40
0.6478152547734572
 40
0.6526938286796967
 40
0.6575765847164748
 40
0.6624643290616331
 40
0.6675601979473816
 40
0.6727368789621142
 40
0.6799761034930722
 40
0.6872082992056548
 40
0.6944361170703616
 40
0.7016622128758742
 40
0.7088892443093416
 40
0.7141912379752746
 40
0.7194962099969859
 40
0.7248052050778631
 40
0.7268922243712368
 40
0.7289800885361171
 40
0.7310688605755414
 40
0.7331586034104343
 40
0.7352493798740725
 40
0.7373412527065923
 40
0.7444963027792527
 40
0.7516407612804956
 40
0.7587771622085875
 40
0.7659080481517044
 40
0.7730359675997481
 40
0.780163472224695
 40
0.7843644870457858
 40
0.7885667660333542
 40
0.7927708306695541
 40
0.7969772017724162
 40
0.8011863993038105
 40
0.8053989421789935
 40
0.8096153480780823
 40
0.8138361332597926
 40
0.8211443514611136
 40
0.828441264124736
 40
0.8357295702925207
 40
0.8430119785756796
 40
0.8502912041692642
 40
0.8575699658300407
 40
0.8644348283982303
 40
0.8713039731792592
 40
0.8781796731662543
 40
0.8850641948595466
 40
0.8919597960607093
 40
0.8992680145163782
 40
0.9065649273406188
 40
0.913853233596612
 40
0.9211356419170462
 40
0.9284148675185583
 40
0.9356936291795612
 40
0.9405967982224461
 40
0.9455018203292779
 40
0.9504095246553275
 40
0.9553207389973568
 40
0.9602362893788298
 40
0.9651569996395802
 40
0.9700836910309428
 40
0.9772387418050634
 40
0.9843832007492795
 40
0.9915196019206669
 40
0.9986504879666235
 40
0.9999999999999999
 40
0.9999999999999999
 40
0.9999999999999999
 40
0.9999999999999999
 10
389.9993855031875
 20
207.2138441335
 30
0.0
 10
389.9993855031876
 20
207.2571466979954
 30
0.0
 10
389.9993855031876
 20
207.3436937889765
 30
0.0
 10
389.9993855031875
 20
207.4790816520364
 30
0.0
 10
389.9993855031875
 20
207.6184140492853
 30
0.0
 10
389.9993855031875
 20
207.7620975105257
 30
0.0
 10
389.9993855031876
 20
207.9100229188299
 30
0.0
 10
389.9993855031876
 20
208.045644997592
 30
0.0
 10
389.9993855031875
 20
208.1674787029236
 30
0.0
 10
389.9993855031876
 20
208.2743043250749
 30
0.0
 10
389.9993855031875
 20
208.3830638750921
 30
0.0
 10
389.9993855031876
 20
208.4937574597435
 30
0.0
 10
389.9993855031875
 20
208.6079453583213
 30
0.0
 10
389.9993855031875
 20
208.7262979025383
 30
0.0
 10
389.9993855031876
 20
208.8652569879619
 30
0.0
 10
389.9993855031876
 20
209.0241877254271
 30
0.0
 10
389.9993855031875
 20
209.2035391793215
 30
0.0
 10
389.9993855031876
 20
209.3865503870923
 30
0.0
 10
389.9993855031875
 20
209.5732207915069
 30
0.0
 10
389.9993855031875
 20
209.7466226369803
 30
0.0
 10
389.9993855031875
 20
209.9056992186682
 30
0.0
 10
389.9993855031875
 20
210.0495552700479
 30
0.0
 10
389.9993855031875
 20
210.1658352538422
 30
0.0
 10
389.9993855031876
 20
210.2534181962394
 30
0.0
 10
389.9993855031875
 20
210.3115429214159
 30
0.0
 10
389.9993855031875
 20
210.3699712456292
 30
0.0
 10
389.9993855031876
 20
210.4287031791349
 30
0.0
 10
389.9993855031875
 20
210.4877388002092
 30
0.0
 10
389.9993855031876
 20
210.5949411173997
 30
0.0
 10
389.9993855031875
 20
210.7514951578695
 30
0.0
 10
389.9993855031876
 20
210.9593345503683
 30
0.0
 10
389.9993855031876
 20
211.169977636953
 30
0.0
 10
389.9993855031875
 20
211.3834239059694
 30
0.0
 10
389.9993855031876
 20
211.5996729967026
 30
0.0
 10
389.9993855031876
 20
211.7887276338068
 30
0.0
 10
389.9993855031875
 20
211.9493904705854
 30
0.0
 10
389.9993855031876
 20
212.0807452626652
 30
0.0
 10
389.9993855031875
 20
212.213073070712
 30
0.0
 10
389.9993855031875
 20
212.3463740260807
 30
0.0
 10
389.9993855031875
 20
212.4806481019879
 30
0.0
 10
389.9993855031876
 20
212.6158952341093
 30
0.0
 10
389.9993855031875
 20
212.7521156663734
 30
0.0
 10
389.9993855031876
 20
212.922705462981
 30
0.0
 10
389.9993855031875
 20
213.1283259205086
 30
0.0
 10
389.9993855031875
 20
213.3698097072111
 30
0.0
 10
389.9993855031876
 20
213.6132835541034
 30
0.0
 10
389.9993855031875
 20
213.8587470630471
 30
0.0
 10
389.9993855031876
 20
214.1062001515911
 30
0.0
 10
389.9993855031875
 20
214.3508896903348
 30
0.0
 10
389.9993855031876
 20
214.5926812697882
 30
0.0
 10
389.9993855031875
 20
214.8314556800608
 30
0.0
 10
389.9993855031876
 20
215.0719983160552
 30
0.0
 10
389.9993855031875
 20
215.3143093698188
 30
0.0
 10
389.9993855031876
 20
215.5630985675577
 30
0.0
 10
389.9993855031876
 20
215.8181391945593
 30
0.0
 10
389.9993855031875
 20
216.0792026090479
 30
0.0
 10
389.9993855031876
 20
216.3412279434961
 30
0.0
 10
389.9993855031875
 20
216.6042152936025
 30
0.0
 10
389.9993855031876
 20
216.8681641026227
 30
0.0
 10
389.9993855031875
 20
217.10423205993
 30
0.0
 10
389.9993855031876
 20
217.3120729429878
 30
0.0
 10
389.9993855031875
 20
217.4914419605076
 30
0.0
 10
389.9993855031876
 20
217.6712468616688
 30
0.0
 10
389.9993855031875
 20
217.8514878376553
 30
0.0
 10
389.9993855031876
 20
218.032164764528
 30
0.0
 10
389.9993855031876
 20
218.2132778542136
 30
0.0
 10
389.9993855031875
 20
218.4221129194439
 30
0.0
 10
389.9993855031875
 20
218.6585604261742
 30
0.0
 10
389.9993855031875
 20
218.9224820166435
 30
0.0
 10
389.9993855031875
 20
219.1863127469906
 30
0.0
 10
389.9993855031875
 20
219.450052222619
 30
0.0
 10
389.9993855031876
 20
219.7137002963696
 30
0.0
 10
389.9993855031875
 20
219.9667109919791
 30
0.0
 10
389.9993855031875
 20
220.2090896484751
 30
0.0
 10
389.9993855031875
 20
220.4408633597744
 30
0.0
 10
389.9993855031876
 20
220.6212790818482
 30
0.0
 10
389.9993855031875
 20
220.7504411040685
 30
0.0
 10
389.9993855031876
 20
220.8284301397413
 30
0.0
 10
389.9993855031876
 20
220.9064110955838
 30
0.0
 10
389.9993855031875
 20
220.9843840387039
 30
0.0
 10
389.9993855031875
 20
221.0623489369322
 30
0.0
 10
389.9993855031875
 20
221.1403058505574
 30
0.0
 10
389.9993855031875
 20
221.2729399435943
 30
0.0
 10
389.9993855031875
 20
221.4599224915812
 30
0.0
 10
389.9993855031875
 20
221.7007495471989
 30
0.0
 10
389.9993855031876
 20
221.9406690678334
 30
0.0
 10
389.9993855031875
 20
222.1796802960516
 30
0.0
 10
389.9993855031876
 20
222.4177833991189
 30
0.0
 10
389.9993855031875
 20
222.6549780633214
 30
0.0
 10
389.9993855031875
 20
222.8743763838461
 30
0.0
 10
389.9993855031875
 20
223.0761897735879
 30
0.0
 10
389.9993855031875
 20
223.2606348631283
 30
0.0
 10
389.9993855031875
 20
223.4445191014612
 30
0.0
 10
389.9993855031875
 20
223.6278426237034
 30
0.0
 10
389.9993855031875
 20
223.8080871607646
 30
0.0
 10
389.9993855031875
 20
223.9841130153859
 30
0.0
 10
389.9993855031875
 20
224.1785481793154
 30
0.0
 10
389.9993855031876
 20
224.3933418524506
 30
0.0
 10
389.9993855031876
 20
224.6289900789396
 30
0.0
 10
389.9993855031875
 20
224.8628456601984
 30
0.0
 10
389.9993855031875
 20
225.0949082041276
 30
0.0
 10
389.9993855031875
 20
225.323806238932
 30
0.0
 10
389.9993855031876
 20
225.5495762439298
 30
0.0
 10
389.9993855031876
 20
225.7722575424251
 30
0.0
 10
389.9993855031875
 20
225.9932089576324
 30
0.0
 10
389.9993855031876
 20
226.218081254503
 30
0.0
 10
389.9993855031876
 20
226.4464320424112
 30
0.0
 10
389.9993855031875
 20
226.6777866400629
 30
0.0
 10
389.9993855031876
 20
226.9062998409373
 30
0.0
 10
389.9993855031875
 20
227.1319712967793
 30
0.0
 10
389.9993855031876
 20
227.3548006691953
 30
0.0
 10
389.9993855031875
 20
227.550829368009
 30
0.0
 10
389.9993855031876
 20
227.7210367720478
 30
0.0
 10
389.9993855031875
 20
227.8662872241457
 30
0.0
 10
389.9993855031875
 20
228.0102487705558
 30
0.0
 10
389.9993855031875
 20
228.1529216511112
 30
0.0
 10
389.9993855031875
 20
228.2962562835544
 30
0.0
 10
389.9993855031876
 20
228.4408909173788
 30
0.0
 10
389.9993855031875
 20
228.6060998057161
 30
0.0
 10
389.9993855031876
 20
228.78889444645
 30
0.0
 10
389.9993855031875
 20
228.9873760070195
 30
0.0
 10
389.9993855031875
 20
229.1822667874659
 30
0.0
 10
389.9993855031876
 20
229.3735662055235
 30
0.0
 10
389.9993855031875
 20
229.5445795905603
 30
0.0
 10
389.9993855031875
 20
229.6963358851052
 30
0.0
 10
389.9993855031876
 20
229.8297641347836
 30
0.0
 10
389.9993855031875
 20
229.9346202458439
 30
0.0
 10
389.9993855031875
 20
230.0120641698353
 30
0.0
 10
389.9993855031876
 20
230.0628936712467
 30
0.0
 10
389.9993855031875
 20
230.1134251824776
 30
0.0
 10
389.9993855031875
 20
230.1636587328443
 30
0.0
 10
389.9993855031875
 20
230.2135943252698
 30
0.0
 10
389.9993855031876
 20
230.3032700262732
 30
0.0
 10
389.9993855031875
 20
230.4310413525711
 30
0.0
 10
389.9993855031875
 20
230.5942525961826
 30
0.0
 10
389.9993855031875
 20
230.7533363239592
 30
0.0
 10
389.9993855031875
 20
230.9082918627627
 30
0.0
 10
389.9993855031876
 20
231.0591190603413
 30
0.0
 10
389.9993855031875
 20
231.185728663599
 30
0.0
 10
389.9993855031876
 20
231.2898600075116
 30
0.0
 10
389.9993855031875
 20
231.3729318344662
 30
0.0
 10
389.9993855031876
 20
231.4545703378845
 30
0.0
 10
389.9993855031875
 20
231.5347756214658
 30
0.0
 10
389.9993855031876
 20
231.613547648943
 30
0.0
 10
389.9993855031876
 20
231.6908864458162
 30
0.0
 10
389.9993855031876
 20
231.7667919322844
 30
0.0
 10
389.9993855031875
 20
231.8593933183199
 30
0.0
 10
389.9993855031876
 20
231.9670298950507
 30
0.0
 10
389.9993855031875
 20
232.0875874235994
 30
0.0
 10
389.9993855031876
 20
232.2033355507416
 30
0.0
 10
389.9993855031876
 20
232.3142736800747
 30
0.0
 10
389.9993855031875
 20
232.4204018765969
 30
0.0
 10
389.9993855031875
 20
232.5197894640461
 30
0.0
 10
389.9993855031876
 20
232.6127506142311
 30
0.0
 10
389.9993855031875
 20
232.6995959841769
 30
0.0
 10
389.9993855031876
 20
232.7821655410283
 30
0.0
 10
389.9993855031875
 20
232.8604588623297
 30
0.0
 10
389.9993855031876
 20
232.9359061071546
 30
0.0
 10
389.9993855031875
 20
233.008107614852
 30
0.0
 10
389.9993855031876
 20
233.0766247608256
 30
0.0
 10
389.9993855031876
 20
233.1400267857711
 30
0.0
 10
389.9993855031875
 20
233.1983131565254
 30
0.0
 10
389.9993855031875
 20
233.2514839170358
 30
0.0
 10
389.9993855031876
 20
233.2943069164144
 30
0.0
 10
389.9993855031875
 20
233.3285477001385
 30
0.0
 10
389.9993855031875
 20
233.3557062930539
 30
0.0
 10
389.9993855031876
 20
233.3805451018492
 30
0.0
 10
389.9993855031875
 20
233.4030640296432
 30
0.0
 10
389.9993855031875
 20
233.4232635919727
 30
0.0
 10
389.9993855031876
 20
233.4411418263699
 30
0.0
 10
389.9993855031875
 20
233.4590453897235
 30
0.0
 10
389.9993855031875
 20
233.4755296501498
 30
0.0
 10
389.9993855031875
 20
233.4890662538973
 30
0.0
 10
389.9993855031876
 20
233.4971681797925
 30
0.0
 10
389.9993855031875
 20
233.5006525166135
 30
0.0
 10
389.9993855031875
 20
233.4999076977022
 30
0.0
 10
389.9993855031875
 20
233.4997891723602
 30
0.0
  0
SPLINE
  5
CA
330
1F
100
AcDbEntity
  8
0
  6
Continuous
 62
     7
370
    30
100
AcDbSpline
210
0.0
220
0.0
230
1.0
 70
     8
 71
     3
 72
    34
 73
    30
 74
     0
 42
0.000000001
 43
0.00000001
 40
0.0
 40
0.0
 40
0.0
 40
0.0
 40
0.043706510431155
 40
0.0875640949163382
 40
0.1314974363871081
 40
0.1759823014726255
 40
0.2205461239907751
 40
0.2656733265282219
 40
0.3108830673169485
 40
0.356259143205354
 40
0.3858257635710717
 40
0.415392376800627
 40
0.4450527514385142
 40
0.4747131175115281
 40
0.5070359911546466
 40
0.5393588513817611
 40
0.5718055134485199
 40
0.6042521612576691
 40
0.6480679977901753
 40
0.6919613576495434
 40
0.7364074162209243
 40
0.7809349585912829
 40
0.8256267761909956
 40
0.857950586508957
 40
0.890274389538904
 40
0.922725091194732
 40
0.9551757886765319
 40
0.9990086099192979
 40
1.0
 40
1.0
 40
1.0
 40
1.0
 10
349.7101799961586
 20
204.6500000000003
 30
0.0
 10
349.7392020267159
 20
204.6469978979216
 30
0.0
 10
349.7973464041398
 20
204.6409833168266
 30
0.0
 10
349.8811835149472
 20
204.6316984468236
 30
0.0
 10
349.9627657072792
 20
204.6222535416365
 30
0.0
 10
350.0416159969757
 20
204.6126949121057
 30
0.0
 10
350.1178835774106
 20
204.603060767201
 30
0.0
 10
350.1910793237659
 20
204.5934523732182
 30
0.0
 10
350.2610573489407
 20
204.5839358100953
 30
0.0
 10
350.3196522710531
 20
204.5757043717038
 30
0.0
 10
350.3681181571612
 20
204.5687284000595
 30
0.0
 10
350.407591834111
 20
204.562942425248
 30
0.0
 10
350.4453644648572
 20
204.5573102557532
 30
0.0
 10
350.4824795847636
 20
204.5516864030205
 30
0.0
 10
350.5186722035311
 20
204.5461153795836
 30
0.0
 10
350.5537518046336
 20
204.5406328390506
 30
0.0
 10
350.5866496383131
 20
204.5354184793822
 30
0.0
 10
350.6209082134511
 20
204.5299173063426
 30
0.0
 10
350.6554444479726
 20
204.5242925676833
 30
0.0
 10
350.6891454775399
 20
204.5187256368922
 30
0.0
 10
350.7186262564778
 20
204.5137952611114
 30
0.0
 10
350.7437669640357
 20
204.5095460930181
 30
0.0
 10
350.7624612341783
 20
204.5063587018295
 30
0.0
 10
350.7760212763308
 20
204.5040334749351
 30
0.0
 10
350.7855960687786
 20
204.5023847327426
 30
0.0
 10
350.7928111805159
 20
204.5011385894477
 30
0.0
 10
350.7977285843424
 20
204.5002872528628
 30
0.0
 10
350.8001070608757
 20
204.4998749800768
 30
0.0
 10
350.799351987645
 20
204.5000058070688
 30
0.0
 10
350.7993352874714
 20
204.5000087006073
 30
0.0
  0
SPLINE
  5
CB
330
1F
100
AcDbEntity
  8
0
  6
Continuous
 62
     7
370
    30
100
AcDbSpline
210
0.0
220
0.0
230
1.0
 70
     8
 71
     3
 72
    35
 73
    31
 74
     0
 42
0.000000001
 43
0.00000001
 40
0.0
 40
0.0
 40
0.0
 40
0.0
 40
0.0373147307684388
 40
0.0746622854958532
 40
0.1120105698964873
 40
0.1493262965455599
 40
0.1877223583034839
 40
0.2261527739750495
 40
0.2645836318947266
 40
0.3029802972565617
 40
0.3404116148286934
 40
0.3778741041440823
 40
0.4153367488346331
 40
0.4527682784582662
 40
0.4912411294643218
 40
0.5297476533767199
 40
0.568254136574336
 40
0.6067269320116297
 40
0.6449299508372618
 40
0.6831662243753569
 40
0.7214022330851146
 40
0.7596048904663827
 40
0.7910674095929838
 40
0.8225586423851857
 40
0.8540590999620544
 40
0.8855495852733697
 40
0.9170114769095609
 40
0.9446721561041413
 40
0.972339477657821
 40
0.9999999999999999
 40
0.9999999999999999
 40
0.9999999999999999
 40
0.9999999999999999
 10
346.6885910102041
 20
204.6499999999957
 30
0.0
 10
346.7225336499221
 20
204.6528824749392
 30
0.0
 10
346.790448787052
 20
204.6586499603997
 30
0.0
 10
346.8954687279776
 20
204.6667958185901
 30
0.0
 10
347.0025222161042
 20
204.6744999265215
 30
0.0
 10
347.1126775342904
 20
204.6817402591848
 30
0.0
 10
347.2257808619011
 20
204.6884477717404
 30
0.0
 10
347.3417184988936
 20
204.6945608991718
 30
0.0
 10
347.4591663183302
 20
204.6999737711494
 30
0.0
 10
347.5768870717538
 20
204.7046025482601
 30
0.0
 10
347.6946727922547
 20
204.7084255118599
 30
0.0
 10
347.8123246116063
 20
204.7114513821928
 30
0.0
 10
347.9306166776557
 20
204.7136945482171
 30
0.0
 10
348.0504216617398
 20
204.715148989958
 30
0.0
 10
348.1715883245288
 20
204.7157660137135
 30
0.0
 10
348.2939407741393
 20
204.7155266743661
 30
0.0
 10
348.4161285058944
 20
204.7144313264568
 30
0.0
 10
348.5376185474784
 20
204.7124886331735
 30
0.0
 10
348.658232394981
 20
204.7097064867902
 30
0.0
 10
348.7778042593413
 20
204.706123716067
 30
0.0
 10
348.8963754735306
 20
204.7017640932761
 30
0.0
 10
349.0068055446989
 20
204.6969568137797
 30
0.0
 10
349.1091784737673
 20
204.6918680763505
 30
0.0
 10
349.2036869332846
 20
204.6866558326232
 30
0.0
 10
349.2970271414464
 20
204.6810100703014
 30
0.0
 10
349.3890227869657
 20
204.6749620466182
 30
0.0
 10
349.4759107097679
 20
204.668799281556
 30
0.0
 10
349.5577558583807
 20
204.6625928118822
 30
0.0
 10
349.6348415453022
 20
204.6564308927798
 30
0.0
 10
349.6850692367012
 20
204.6521434553019
 30
0.0
 10
349.7101799961726
 20
204.6500000000036
 30
0.0
  0
SPLINE
  5
CC
330
1F
100
AcDbEntity
  8
0
  6
Continuous
 62
     7
370
    30
100
AcDbSpline
210
0.0
220
0.0
230
1.0
 70
     8
 71
     3
 72
    32
 73
    28
 74
     0
 42
0.000000001
 43
0.00000001
 40
0.0
 40
0.0
 40
0.0
 40
0.0
 40
0.0429206052532519
 40
0.087395459926998
 40
0.1319527520769296
 40
0.1766759501965326
 40
0.219697330772391
 40
0.2627187442215946
 40
0.3060387227097735
 40
0.3493587429379811
 40
0.38227543086931
 40
0.4151921338359766
 40
0.4482402867418347
 40
0.4812884548758408
 40
0.5257347012963745
 40
0.5689042653969024
 40
0.6122204321224536
 40
0.655610048237004
 40
0.6995328103365565
 40
0.7435317973870914
 40
0.7880742983634966
 40
0.8326960952472231
 40
0.87747753857228
 40
0.9080566334933334
 40
0.9386357251155621
 40
0.9693178654579584
 40
1.0
 40
1.0
 40
1.0
 40
1.0
 10
345.5994357189037
 20
204.5000087006073
 30
0.0
 10
345.5998341682301
 20
204.5000777958995
 30
0.0
 10
345.6006454956084
 20
204.5002184885761
 30
0.0
 10
345.6076826013765
 20
204.5014368357175
 30
0.0
 10
345.6191304427336
 20
204.5034118793377
 30
0.0
 10
345.6351541683215
 20
204.5061620136597
 30
0.0
 10
345.6554136041162
 20
204.5096154792685
 30
0.0
 10
345.6797312260655
 20
204.5137251031413
 30
0.0
 10
345.7083620530052
 20
204.5185152896832
 30
0.0
 10
345.7386448208212
 20
204.5235206185704
 30
0.0
 10
345.7693721404
 20
204.5285374682566
 30
0.0
 10
345.7995847239342
 20
204.5334130623498
 30
0.0
 10
345.8321943144187
 20
204.5386089843521
 30
0.0
 10
345.8711956329979
 20
204.5447372008061
 30
0.0
 10
345.9170439031246
 20
204.5518160101844
 30
0.0
 10
345.9707165302556
 20
204.5599204133788
 30
0.0
 10
346.0277074257992
 20
204.5683204646861
 30
0.0
 10
346.08871293458
 20
204.577076557939
 30
0.0
 10
346.1536622530022
 20
204.5861301086294
 30
0.0
 10
346.2227506285413
 20
204.5954559137419
 30
0.0
 10
346.2956973953497
 20
204.6049610200926
 30
0.0
 10
346.3724817436276
 20
204.6145860115589
 30
0.0
 10
346.4442087462444
 20
204.6232036507691
 30
0.0
 10
346.5096262132323
 20
204.6307639792717
 30
0.0
 10
346.567790920502
 20
204.6372596067204
 30
0.0
 10
346.6273146078918
 20
204.6436927382702
 30
0.0
 10
346.668165544062
 20
204.6478975795561
 30
0.0
 10
346.6885910102166
 20
204.6500000000003
 30
0.0
  0
SPLINE
  5
CD
330
1F
100
AcDbEntity
  8
0
  6
Continuous
 62
     7
370
    30
100
AcDbSpline
210
0.0
220
0.0
230
1.0
 70
     8
 71
     3
 72
   192
 73
   188
 74
     0
 42
0.000000001
 43
0.00000001
 40
0.0
 40
0.0
 40
0.0
 40
0.0
 40
0.0000827746387346
 40
0.0054242954047702
 40
0.0107670525152541
 40
0.0161098152925682
 40
0.0214513437878865
 40
0.0268326300607474
 40
0.0322151576823294
 40
0.0375977020918743
 40
0.0429790112626796
 40
0.0484329928876991
 40
0.053888219353788
 40
0.0593434732074691
 40
0.0647974921876955
 40
0.0702908481371892
 40
0.0757854078646417
 40
0.0812800028765053
 40
0.0867734069515921
 40
0.0920596990231208
 40
0.0973469927401214
 40
0.1026343199909711
 40
0.1079206577990875
 40
0.1132382484770146
 40
0.1185567829146218
 40
0.1238753524713084
 40
0.1291929910473313
 40
0.134565067548678
 40
0.1399380386398156
 40
0.145311044964703
 40
0.1506831695200158
 40
0.1560830337800726
 40
0.161483730854011
 40
0.1668844608098863
 40
0.1722843699158139
 40
0.1771639005096736
 40
0.1820437212073877
 40
0.186923264251824
 40
0.1918128454559231
 40
0.1967027026324056
 40
0.2015922949540884
 40
0.2065111127717896
 40
0.2114301971927867
 40
0.2163490247667281
 40
0.2212771378955099
 40
0.2262055067622522
 40
0.2311336279316683
 40
0.2365655788289796
 40
0.241997532413455
 40
0.2474346667695936
 40
0.2528718031839812
 40
0.2583243339331499
 40
0.263776866073434
 40
0.2692344641067094
 40
0.2746920627911001
 40
0.2804671075957728
 40
0.2862421521756571
 40
0.2920231807780059
 40
0.2978042079793456
 40
0.3034055413803737
 40
0.3090068724236861
 40
0.314613826388369
 40
0.3202207767598945
 40
0.3258451374450911
 40
0.3314694931175976
 40
0.3370999435718073
 40
0.3427303874652757
 40
0.3480511653918012
 40
0.3533722860522132
 40
0.3586930399656604
 40
0.3640270745257975
 40
0.3693614865489191
 40
0.3746954894198541
 40
0.3800929243989605
 40
0.3854917980474305
 40
0.390891049431102
 40
0.3962897272409097
 40
0.4016869979249329
 40
0.4071362605958495
 40
0.4125873433996327
 40
0.4180388996398191
 40
0.4234897260101665
 40
0.4289387735368547
 40
0.4342905078299392
 40
0.4396435798850638
 40
0.4449965640219459
 40
0.450348178396191
 40
0.4557459091247307
 40
0.4611451985850936
 40
0.4665444131420301
 40
0.4719420416997799
 40
0.4774339928420857
 40
0.4829277267086576
 40
0.4884214196672036
 40
0.4939133150076547
 40
0.4994640744064127
 40
0.5050167175221895
 40
0.5105693736044817
 40
0.5161201506908444
 40
0.5207391015859741
 40
0.5253580569534833
 40
0.529985395552379
 40
0.5346127402975432
 40
0.5392796919150189
 40
0.5439476424283852
 40
0.5486156380521889
 40
0.5532826511969553
 40
0.5579804020010242
 40
0.5626790639099275
 40
0.5673777783929842
 40
0.5720756009028385
 40
0.576809973077172
 40
0.5815443550434565
 40
0.5862852419885304
 40
0.5910261383659845
 40
0.5973431395932712
 40
0.6036601682613753
 40
0.6099902963716205
 40
0.6163204489153664
 40
0.6216537930270606
 40
0.6269871478223394
 40
0.6323271271219565
 40
0.6376671156525281
 40
0.6430260112181183
 40
0.6483849146682138
 40
0.6537496926328485
 40
0.6591144771166981
 40
0.664927952368303
 40
0.6707418628456852
 40
0.6765553614725828
 40
0.6823837946582884
 40
0.6882126374814235
 40
0.694041085404576
 40
0.7002466910346308
 40
0.7064527694761404
 40
0.7126583839704146
 40
0.7188808192468327
 40
0.7251037210712094
 40
0.7313261563105178
 40
0.7375740606200232
 40
0.7438224384882172
 40
0.7500703348037806
 40
0.7563356783146918
 40
0.7626015108154022
 40
0.7688668391021747
 40
0.7751322745306152
 40
0.781397704062542
 40
0.7876715160157106
 40
0.7939453208871147
 40
0.7992185027724561
 40
0.8044916806263199
 40
0.8097702458451933
 40
0.8150488065896234
 40
0.8203441793820804
 40
0.8256395472415977
 40
0.8309408212493776
 40
0.8362420899350752
 40
0.8419764115957828
 40
0.8477112273121516
 40
0.853445521498206
 40
0.8591986907417244
 40
0.8649523949776798
 40
0.8707055345412595
 40
0.8767013416935892
 40
0.8826971385509216
 40
0.888703707393977
 40
0.8947102658336363
 40
0.8998707369960619
 40
0.9050312025753966
 40
0.9101991229654786
 40
0.9153670379181009
 40
0.9205581911255248
 40
0.9257493390816832
 40
0.9309485969065958
 40
0.9361478498422655
 40
0.9423323902447143
 40
0.9485178187442631
 40
0.9547023300312809
 40
0.9609200868068188
 40
0.967138783114538
 40
0.9733565188441009
 40
0.9786472503288437
 40
0.9839379798712706
 40
0.9892383018789923
 40
0.9945386228860996
 40
0.9998681934859577
 40
1.0
 40
1.0
 40
1.0
 40
1.0
 10
364.2494124815962
 20
204.5000193469609
 30
0.0
 10
364.2494034971497
 20
204.5000129039079
 30
0.0
 10
364.2488147384103
 20
204.4995906849352
 30
0.0
 10
364.2508037289439
 20
204.501016983043
 30
0.0
 10
364.2554611859202
 20
204.5043546535545
 30
0.0
 10
364.2638311546361
 20
204.5103503082186
 30
0.0
 10
364.2753942819904
 20
204.5186293609867
 30
0.0
 10
364.2903229844286
 20
204.5293132311675
 30
0.0
 10
364.3085855188485
 20
204.5423726671608
 30
0.0
 10
364.3301350256103
 20
204.5577677242687
 30
0.0
 10
364.3550614726578
 20
204.5755561326012
 30
0.0
 10
364.3834045168753
 20
204.5957592984315
 30
0.0
 10
364.4151837007637
 20
204.6183797837452
 30
0.0
 10
364.450239642934
 20
204.6432929653731
 30
0.0
 10
364.4886332115265
 20
204.670530894843
 30
0.0
 10
364.5303684682003
 20
204.700084735139
 30
0.0
 10
364.5754326180858
 20
204.7319294431809
 30
0.0
 10
364.6236831238053
 20
204.7659485641375
 30
0.0
 10
364.6744334404858
 20
204.8016434877232
 30
0.0
 10
364.7275159382174
 20
204.838884624644
 30
0.0
 10
364.7827584554916
 20
204.8775376736766
 30
0.0
 10
364.8408024208354
 20
204.9180352468824
 30
0.0
 10
364.9017263475312
 20
204.9604142419705
 30
0.0
 10
364.9655171063581
 20
205.0046466979752
 30
0.0
 10
365.0321526347157
 20
205.0506952125769
 30
0.0
 10
365.1014620044531
 20
205.0984200628162
 30
0.0
 10
365.1736465539827
 20
205.1479377602936
 30
0.0
 10
365.2487033756152
 20
205.199222140724
 30
0.0
 10
365.3266225584146
 20
205.2522387224849
 30
0.0
 10
365.4071029491969
 20
205.3067562760302
 30
0.0
 10
365.4902422180899
 20
205.3628146962216
 30
0.0
 10
365.5760208085397
 20
205.4203729899836
 30
0.0
 10
365.6644150538438
 20
205.4793841469564
 30
0.0
 10
365.7552326616092
 20
205.5396894661077
 30
0.0
 10
365.8454367091986
 20
205.599253440696
 30
0.0
 10
365.9347341962164
 20
205.6578920134141
 30
0.0
 10
366.0228538287425
 20
205.71543994505
 30
0.0
 10
366.1128957098738
 20
205.7739080787854
 30
0.0
 10
366.2048384096909
 20
205.8332568004063
 30
0.0
 10
366.2986601003353
 20
205.8934445213125
 30
0.0
 10
366.3944634144439
 20
205.9545091026329
 30
0.0
 10
366.4922369450408
 20
206.0164132039648
 30
0.0
 10
366.5919689825551
 20
206.0791170320439
 30
0.0
 10
366.6935065654082
 20
206.1424934272157
 30
0.0
 10
366.7968317125193
 20
206.2065000065829
 30
0.0
 10
366.9019268752046
 20
206.2710925034417
 30
0.0
 10
367.0123456349087
 20
206.3384038206696
 30
0.0
 10
367.1282717590905
 20
206.4084442223525
 30
0.0
 10
367.2499336122164
 20
206.4812340280932
 30
0.0
 10
367.3736118191982
 20
206.5544780842064
 30
0.0
 10
367.4994050650935
 20
206.6281832251449
 30
0.0
 10
367.6272597933124
 20
206.7022645590187
 30
0.0
 10
367.7572030618327
 20
206.7766810128175
 30
0.0
 10
367.889098198864
 20
206.85129820689
 30
0.0
 10
368.0255249879758
 20
206.9274984573235
 30
0.0
 10
368.1665566677622
 20
207.005194918077
 30
0.0
 10
368.312358859663
 20
207.0843355509349
 30
0.0
 10
368.4602856070193
 20
207.1633877252029
 30
0.0
 10
368.6087702804796
 20
207.2414481094629
 30
0.0
 10
368.7576741751398
 20
207.3184133960208
 30
0.0
 10
368.9069636255505
 20
207.3942374704096
 30
0.0
 10
369.0582054035933
 20
207.4696518527889
 30
0.0
 10
369.2115505540653
 20
207.5446474605818
 30
0.0
 10
369.3669456479752
 20
207.6191100234613
 30
0.0
 10
369.5244454380281
 20
207.6929724226016
 30
0.0
 10
369.6838824930824
 20
207.7660641484579
 30
0.0
 10
369.8422920820973
 20
207.8369631190953
 30
0.0
 10
369.9994922157689
 20
207.905608872612
 30
0.0
 10
370.1553567260526
 20
207.9719745363569
 30
0.0
 10
370.3129989225994
 20
208.0373325389779
 30
0.0
 10
370.4724138270672
 20
208.1015900453112
 30
0.0
 10
370.6335944450938
 20
208.1646490638602
 30
0.0
 10
370.7970404239103
 20
208.2266052571006
 30
0.0
 10
370.9627715341027
 20
208.2873440848025
 30
0.0
 10
371.1308003927666
 20
208.3467437245714
 30
0.0
 10
371.3004484443822
 20
208.4044574749904
 30
0.0
 10
371.4716626225846
 20
208.4603670638503
 30
0.0
 10
371.6449663861596
 20
208.514535852915
 30
0.0
 10
371.8203747115747
 20
208.5668332228699
 30
0.0
 10
371.9978865219774
 20
208.617129673572
 30
0.0
 10
372.1768912772259
 20
208.6651442908539
 30
0.0
 10
372.3573030018099
 20
208.710751124847
 30
0.0
 10
372.537983392609
 20
208.7535754195983
 30
0.0
 10
372.7188721512337
 20
208.7935554735567
 30
0.0
 10
372.899895474207
 20
208.8306547657508
 30
0.0
 10
373.0820587935814
 20
208.8650127607291
 30
0.0
 10
373.2657999713404
 20
208.8966170894237
 30
0.0
 10
373.4510711039229
 20
208.9253337527608
 30
0.0
 10
373.6378038301652
 20
208.9510601251758
 30
0.0
 10
373.8253545552675
 20
208.9736360379459
 30
0.0
 10
374.0147017255352
 20
208.9930935361133
 30
0.0
 10
374.2057761126815
 20
209.0092810499188
 30
0.0
 10
374.3984871737267
 20
209.0220950902232
 30
0.0
 10
374.5915919590469
 20
209.0314034026346
 30
0.0
 10
374.7856363334413
 20
209.0371843941221
 30
0.0
 10
374.980517860379
 20
209.0393469796381
 30
0.0
 10
375.1761252224196
 20
209.0378635766255
 30
0.0
 10
375.3716127339604
 20
209.0327416162984
 30
0.0
 10
375.5559049420475
 20
209.0244789832387
 30
0.0
 10
375.7289385014521
 20
209.0137677744068
 30
0.0
 10
375.8908309309434
 20
209.001261652721
 30
0.0
 10
376.0524117533328
 20
208.9863051498542
 30
0.0
 10
376.2140719917898
 20
208.9688864396185
 30
0.0
 10
376.3756525450684
 20
208.9490240255013
 30
0.0
 10
376.5370842212868
 20
208.9267479628503
 30
0.0
 10
376.697836801725
 20
208.9021729536126
 30
0.0
 10
376.8581912948504
 20
208.8752953752914
 30
0.0
 10
377.0180948443377
 20
208.8461499977739
 30
0.0
 10
377.1775032989817
 20
208.8147905179273
 30
0.0
 10
377.3360097193298
 20
208.7813516837006
 30
0.0
 10
377.4939672341458
 20
208.7458107680941
 30
0.0
 10
377.6513245705543
 20
208.7082186649439
 30
0.0
 10
377.8081180798722
 20
208.6686159603347
 30
0.0
 10
377.9639049852258
 20
208.6271697305384
 30
0.0
 10
378.1358005947786
 20
208.5791657842336
 30
0.0
 10
378.3232249851877
 20
208.5239855909381
 30
0.0
 10
378.5257093649054
 20
208.4609644925032
 30
0.0
 10
378.7261974107063
 20
208.3952778424695
 30
0.0
 10
378.9142255711456
 20
208.3306759292174
 30
0.0
 10
379.0900057911088
 20
208.2677769545243
 30
0.0
 10
379.2539515718174
 20
208.2070279760966
 30
0.0
 10
379.4163526034505
 20
208.1448379526074
 30
0.0
 10
379.5773823328983
 20
208.0812274374701
 30
0.0
 10
379.7369543364971
 20
208.016312846095
 30
0.0
 10
379.8951083654648
 20
207.9501587041027
 30
0.0
 10
380.0516445839921
 20
207.8829322601254
 30
0.0
 10
380.2108700271639
 20
207.8128196044613
 30
0.0
 10
380.3725547530659
 20
207.7398442964615
 30
0.0
 10
380.5365082293213
 20
207.6640249873021
 30
0.0
 10
380.6985898838807
 20
207.5873276582881
 30
0.0
 10
380.8587839041623
 20
207.5098540598586
 30
0.0
 10
381.0170734936303
 20
207.4317000389346
 30
0.0
 10
381.1766806438582
 20
207.3513321415365
 30
0.0
 10
381.3374367880057
 20
207.2688140201937
 30
0.0
 10
381.4991620312691
 20
207.184222170741
 30
0.0
 10
381.6586600813724
 20
207.0992945497773
 30
0.0
 10
381.8159059766436
 20
207.0141387268613
 30
0.0
 10
381.9708717110489
 20
206.9288563913955
 30
0.0
 10
382.1236019810539
 20
206.8435102112155
 30
0.0
 10
382.2740619043855
 20
206.7582030384269
 30
0.0
 10
382.4222131637686
 20
206.6730332466198
 30
0.0
 10
382.5679585356165
 20
206.5881359313273
 30
0.0
 10
382.7112595194631
 20
206.5036109589921
 30
0.0
 10
382.8520745318987
 20
206.4195540187525
 30
0.0
 10
382.9902360199974
 20
206.336138263974
 30
0.0
 10
383.125702594167
 20
206.2534613051442
 30
0.0
 10
383.2584973899795
 20
206.1715760885747
 30
0.0
 10
383.3885724291292
 20
206.0905781965813
 30
0.0
 10
383.5091110524079
 20
206.0148141284952
 30
0.0
 10
383.6205168568686
 20
205.944216451278
 30
0.0
 10
383.72327078182
 20
205.8786329332239
 30
0.0
 10
383.8239667323582
 20
205.813919554187
 30
0.0
 10
383.9226756984754
 20
205.7500629912558
 30
0.0
 10
384.0193221875838
 20
205.6871434007357
 30
0.0
 10
384.1138997373949
 20
205.6251949566862
 30
0.0
 10
384.2062674015514
 20
205.564340403402
 30
0.0
 10
384.2988407232015
 20
205.5030085282123
 30
0.0
 10
384.3913240060165
 20
205.4413944172223
 30
0.0
 10
384.4834333309007
 20
205.3796900576579
 30
0.0
 10
384.5728300920261
 20
205.3194873529469
 30
0.0
 10
384.659451364249
 20
205.2608616958972
 30
0.0
 10
384.7432375199006
 20
205.2038838041508
 30
0.0
 10
384.8251782248503
 20
205.1479080556195
 30
0.0
 10
384.9050660710839
 20
205.093095415325
 30
0.0
 10
384.9827399328361
 20
205.0395760820631
 30
0.0
 10
385.057038815826
 20
204.9881781037252
 30
0.0
 10
385.1245719892073
 20
204.9412846229413
 30
0.0
 10
385.1857924544862
 20
204.8986358645351
 30
0.0
 10
385.2412164811996
 20
204.8599144554631
 30
0.0
 10
385.2939741637209
 20
204.8229564801617
 30
0.0
 10
385.3441022634133
 20
204.7877511967839
 30
0.0
 10
385.3915245394783
 20
204.7543668888601
 30
0.0
 10
385.4362175974072
 20
204.7228334059738
 30
0.0
 10
385.4780705046809
 20
204.6932425805246
 30
0.0
 10
385.5195112049356
 20
204.6638864171154
 30
0.0
 10
385.5598031727461
 20
204.6352887300144
 30
0.0
 10
385.5981664397538
 20
204.6080078442838
 30
0.0
 10
385.6323600174608
 20
204.5836504253718
 30
0.0
 10
385.6623074443953
 20
204.5622871218572
 30
0.0
 10
385.687956480958
 20
204.5439661437516
 30
0.0
 10
385.7081620846615
 20
204.5295173971793
 30
0.0
 10
385.7236357827455
 20
204.5184442076637
 30
0.0
 10
385.7350288316827
 20
204.5102860764349
 30
0.0
 10
385.7433053246539
 20
204.5043571630495
 30
0.0
 10
385.7479724132915
 20
204.5010126879564
 30
0.0
 10
385.7499033916259
 20
204.4996289178347
 30
0.0
 10
385.7493588506147
 20
204.5000191432375
 30
0.0
 10
385.7493457084985
 20
204.5000285610544
 30
0.0
  0
LINE
  5
CE
330
1F
100
AcDbEntity
  8
0
  6
Continuous
 62
     7
370
    30
100
AcDbLine
 10
364.4993855032
 20
202.2249319686
 30
0.0
 11
385.4993855032
 21
202.2249319686
 31
0.0
  0
LINE
  5
CF
330
1F
100
AcDbEntity
  8
0
  6
Continuous
 62
     7
370
    30
100
AcDbLine
 10
385.4768855032
 20
194.9088033625
 30
0.0
 11
364.5218855032
 21
194.9088033625
 31
0.0
  0
LINE
  5
D0
330
1F
100
AcDbEntity
  8
0
  6
Continuous
 62
     7
370
    30
100
AcDbLine
 10
365.6838855032
 20
194.2249319686
 30
0.0
 11
384.3148855032
 21
194.2249319686
 31
0.0
  0
SPLINE
  5
D1
330
1F
100
AcDbEntity
  8
0
  6
Continuous
 62
     8
370
     0
100
AcDbSpline
210
0.0
220
0.0
230
1.0
 70
     8
 71
     3
 72
    15
 73
    11
 74
     0
 42
0.000000001
 43
0.00000001
 40
0.0
 40
0.0
 40
0.0
 40
0.0
 40
0.1250020887715932
 40
0.2500023871760835
 40
0.3750014919882569
 40
0.5000000000000002
 40
0.6249985080117435
 40
0.7499976128239169
 40
0.8749979112284071
 40
1.0
 40
1.0
 40
1.0
 40
1.0
 10
341.0168379096248
 20
254.8079942625893
 30
0.0
 10
341.0179321176984
 20
254.9388660369585
 30
0.0
 10
341.0201205181735
 20
255.20060771126
 30
0.0
 10
341.0225405102751
 20
255.5781196472883
 30
0.0
 10
341.0240893663093
 20
255.9260647981582
 30
0.0
 10
341.0246127849256
 20
256.2309427680145
 30
0.0
 10
341.0240893663093
 20
256.4815443011882
 30
0.0
 10
341.0225405102751
 20
256.6663682312663
 30
0.0
 10
341.0201205181735
 20
256.7853078547682
 30
0.0
 10
341.0179321176984
 20
256.8002290179053
 30
0.0
 10
341.0168379096248
 20
256.8076896529021
 30
0.0
  0
LINE
  5
D2
330
1F
100
AcDbEntity
  8
0
  6
Continuous
 62
     8
370
     0
100
AcDbLine
 10
329.9993855032
 20
255.0003046097
 30
0.0
 11
341.0168379096
 21
254.8079942626
 31
0.0
  0
LINE
  5
D3
330
1F
100
AcDbEntity
  8
0
  6
Continuous
 62
     8
370
     0
100
AcDbLine
 10
341.0168379096
 20
184.1920057374
 30
0.0
 11
329.9993855032
 21
183.9996953903
 31
0.0
  0
LINE
  5
D4
330
1F
100
AcDbEntity
  8
0
  6
Continuous
 62
     8
370
     0
100
AcDbLine
 10
341.0168379096
 20
254.8079942626
 30
0.0
 11
341.0168379096
 21
184.1920057374
 31
0.0
  0
SPLINE
  5
D5
330
1F
100
AcDbEntity
  8
0
  6
Continuous
 62
     8
370
     0
100
AcDbSpline
210
0.0
220
0.0
230
1.0
 70
     8
 71
     3
 72
    15
 73
    11
 74
     0
 42
0.000000001
 43
0.00000001
 40
0.0
 40
0.0
 40
0.0
 40
0.0
 40
0.0957811467190508
 40
0.2249558853471718
 40
0.3541293905224406
 40
0.4833022789668576
 40
0.612475167411278
 40
0.7416486725865449
 40
0.8708234112146696
 40
1.0
 40
1.0
 40
1.0
 40
1.0
 10
341.0176493840175
 20
182.2022571740199
 30
0.0
 10
341.0184557624081
 20
182.2083430330498
 30
0.0
 10
341.0203496587647
 20
182.2226365537796
 30
0.0
 10
341.0225343151037
 20
182.3343252536456
 30
0.0
 10
341.0240910262821
 20
182.5182698821587
 30
0.0
 10
341.0246123401492
 20
182.76910702007
 30
0.0
 10
341.0240894854465
 20
183.0739218656815
 30
0.0
 10
341.0225404785048
 20
183.4218839090645
 30
0.0
 10
341.0201205261162
 20
183.7993913996334
 30
0.0
 10
341.017932120346
 20
184.0611336666712
 30
0.0
 10
341.0168379096248
 20
184.1920057374107
 30
0.0
  0
LINE
  5
D6
330
1F
100
AcDbEntity
  8
0
  6
Continuous
 62
     8
370
     0
100
AcDbLine
 10
341.0168379096
 20
254.8079942626
 30
0.0
 11
341.9993855032
 21
254.8079942626
 31
0.0
  0
LINE
  5
D7
330
1F
100
AcDbEntity
  8
0
  6
Continuous
 62
     8
370
     0
100
AcDbLine
 10
341.9993855032
 20
184.1920057374
 30
0.0
 11
341.0168379096
 21
184.1920057374
 31
0.0
  0
LINE
  5
D8
330
1F
100
AcDbEntity
  8
0
  6
Continuous
 62
     8
370
     0
100
AcDbLine
 10
388.9993855032
 20
204.5
 30
0.0
 11
388.9993855032
 21
234.5
 31
0.0
  0
SPLINE
  5
D9
330
1F
100
AcDbEntity
  8
0
  6
Continuous
 62
     7
370
    30
100
AcDbSpline
210
0.0
220
0.0
230
1.0
 70
     8
 71
     3
 72
    41
 73
    37
 74
     0
 42
0.000000001
 43
0.00000001
 40
0.0
 40
0.0
 40
0.0
 40
0.0
 40
0.0395645369203759
 40
0.0783305856628231
 40
0.1163932381639629
 40
0.1542709338093716
 40
0.1938201553273334
 40
0.2351592058461357
 40
0.2782655871802959
 40
0.3229834267376451
 40
0.368644454670612
 40
0.4033961743136878
 40
0.438527045232412
 40
0.4739868275760667
 40
0.5097223032143451
 40
0.5456776987878746
 40
0.581749485231037
 40
0.6171960838972415
 40
0.6517428841940507
 40
0.685353777169328
 40
0.7180000411127143
 40
0.7496599520088414
 40
0.7803183128448475
 40
0.8195809709160711
 40
0.8569041541762143
 40
0.892297712086656
 40
0.9180287442712698
 40
0.9436809093595466
 40
0.9500098005363183
 40
0.9561367985870579
 40
0.9622789235808914
 40
0.9686636519598354
 40
0.9754877972085569
 40
0.9829092637608964
 40
0.9910493331243257
 40
0.9999999999999999
 40
0.9999999999999999
 40
0.9999999999999999
 40
0.9999999999999999
 10
75.98229914857434
 20
256.8050299110823
 30
0.0
 10
75.96165668798082
 20
256.8042836090111
 30
0.0
 10
75.92078837120853
 20
256.8028060666747
 30
0.0
 10
75.86037913919291
 20
256.795892643084
 30
0.0
 10
75.80134714330899
 20
256.7857801019626
 30
0.0
 10
75.74262809536422
 20
256.7720193787314
 30
0.0
 10
75.68320789837193
 20
256.7542588175288
 30
0.0
 10
75.6224680812021
 20
256.7318254655718
 30
0.0
 10
75.56087655355118
 20
256.7043327282433
 30
0.0
 10
75.49932647294617
 20
256.671617278856
 30
0.0
 10
75.44394001889472
 20
256.6369485801263
 30
0.0
 10
75.3949361931102
 20
256.6018006534703
 30
0.0
 10
75.35207822640733
 20
256.5673622065227
 30
0.0
 10
75.31080885737293
 20
256.5302685485556
 30
0.0
 10
75.27136899922633
 20
256.4906306875217
 30
0.0
 10
75.23400554504617
 20
256.4486064682895
 30
0.0
 10
75.19916677253651
 20
256.4046635598429
 30
0.0
 10
75.16726947968915
 20
256.3594435309391
 30
0.0
 10
75.13858244772317
 20
256.3136356486419
 30
0.0
 10
75.11309169309102
 20
256.2676435541035
 30
0.0
 10
75.09068452852796
 20
256.2217476385337
 30
0.0
 10
75.07122415700111
 20
256.1762005063539
 30
0.0
 10
75.05281299082294
 20
256.1265265623175
 30
0.0
 10
75.03627312091382
 20
256.0730839853204
 30
0.0
 10
75.0223843000562
 20
256.0163519020615
 30
0.0
 10
75.01303632542916
 20
255.9658706768555
 30
0.0
 10
75.00693817076295
 20
255.921022579247
 30
0.0
 10
75.00408991097768
 20
255.891108689408
 30
0.0
 10
75.00270060305964
 20
255.8712378131512
 30
0.0
 10
75.00212894547381
 20
255.8618289046399
 30
0.0
 10
75.00167604083687
 20
255.853092977374
 30
0.0
 10
75.0013263449405
 20
255.8450306849451
 30
0.0
 10
75.0010641906379
 20
255.8376015980307
 30
0.0
 10
75.00087553686369
 20
255.8307583766513
 30
0.0
 10
75.00074437124255
 20
255.8243708710628
 30
0.0
 10
75.00069866642492
 20
255.8207262594945
 30
0.0
 10
75.00067473014789
 20
255.8188175234645
 30
0.0
  0
SPLINE
  5
DA
330
1F
100
AcDbEntity
  8
0
  6
Continuous
 62
     7
370
    30
100
AcDbSpline
210
0.0
220
0.0
230
1.0
 70
     8
 71
     3
 72
    46
 73
    42
 74
     0
 42
0.000000001
 43
0.00000001
 40
0.0
 40
0.0
 40
0.0
 40
0.0
 40
0.0105428129214534
 40
0.0200416974403514
 40
0.0286932581901237
 40
0.0347842120696201
 40
0.040679658203726
 40
0.046532156244623
 40
0.0525026843147336
 40
0.0683064177317893
 40
0.0845442860384901
 40
0.1011659701106068
 40
0.1212517185355518
 40
0.1418775907257167
 40
0.1800730249287638
 40
0.2200278119777257
 40
0.2514633453599134
 40
0.2838902534804058
 40
0.3172707224290354
 40
0.3512602046711165
 40
0.3857084590970504
 40
0.4205712644316917
 40
0.455800840564109
 40
0.4913461539610049
 40
0.527153292165096
 40
0.5631659021674871
 40
0.5991758140427014
 40
0.634411599705758
 40
0.6687373976991443
 40
0.7021189551624809
 40
0.7345293214892548
 40
0.7659484363196873
 40
0.7999435617121184
 40
0.8326151109318101
 40
0.8639142244091681
 40
0.8938501450130059
 40
0.9122464562238777
 40
0.9318766687363164
 40
0.9529214658578163
 40
0.9754741132497792
 40
1.0
 40
1.0
 40
1.0
 40
1.0
 10
75.00067473014789
 20
183.1811824765355
 30
0.0
 10
75.00070380784662
 20
183.1789051882483
 30
0.0
 10
75.0007590840281
 20
183.1745761042384
 30
0.0
 10
75.00093893250425
 20
183.1665526665039
 30
0.0
 10
75.00119763558453
 20
183.1583098244295
 30
0.0
 10
75.00153065740595
 20
183.1500638507546
 30
0.0
 10
75.0019151749001
 20
183.1420962050597
 30
0.0
 10
75.00240091037524
 20
183.133505505687
 30
0.0
 10
75.00332244529737
 20
183.1193777046176
 30
0.0
 10
75.00494411704256
 20
183.0995107039994
 30
0.0
 10
75.00764612351348
 20
183.0743373556154
 30
0.0
 10
75.01129372164445
 20
183.0469745977323
 30
0.0
 10
75.0160935751659
 20
183.0174849985044
 30
0.0
 10
75.02399109781143
 20
182.977123886934
 30
0.0
 10
75.0362008483439
 20
182.9270858349407
 30
0.0
 10
75.0531210132703
 20
182.8725000607608
 30
0.0
 10
75.07201202021113
 20
182.8217772783393
 30
0.0
 10
75.09206260535368
 20
182.7752065055151
 30
0.0
 10
75.11507698225076
 20
182.7285332980339
 30
0.0
 10
75.14103850639967
 20
182.6822161864024
 30
0.0
 10
75.16985991634192
 20
182.6367001653637
 30
0.0
 10
75.20148578937777
 20
182.5922846294187
 30
0.0
 10
75.23586015076366
 20
182.5492203196065
 30
0.0
 10
75.27289780546131
 20
182.5077552041811
 30
0.0
 10
75.3124843232573
 20
182.4681303001885
 30
0.0
 10
75.35441845391364
 20
182.4306275519108
 30
0.0
 10
75.39816875524984
 20
182.3957299556532
 30
0.0
 10
75.44307992925806
 20
182.3638324204048
 30
0.0
 10
75.48850173586597
 20
182.3351559841784
 30
0.0
 10
75.53409282086258
 20
182.3096433882069
 30
0.0
 10
75.57957725192529
 20
182.2871804719765
 30
0.0
 10
75.62642020708529
 20
182.2668874386408
 30
0.0
 10
75.67437347210321
 20
182.2489659028819
 30
0.0
 10
75.72313543619316
 20
182.2335861147889
 30
0.0
 10
75.77055520874185
 20
182.2211989760228
 30
0.0
 10
75.81122397936275
 20
182.2126304034735
 30
0.0
 10
75.84617605124085
 20
182.2066368055773
 30
0.0
 10
75.87669845958933
 20
182.2023268783673
 30
0.0
 10
75.90949980530117
 20
182.198776920388
 30
0.0
 10
75.94495092348238
 20
182.1960646402076
 30
0.0
 10
75.9695066655473
 20
182.1953449937161
 30
0.0
 10
75.98229914857436
 20
182.1949700889177
 30
0.0
  0
SPLINE
  5
DB
330
1F
100
AcDbEntity
  8
0
  6
Continuous
 62
     7
370
    30
100
AcDbSpline
210
0.0
220
0.0
230
1.0
 70
     8
 71
     3
 72
    10
 73
     6
 74
     0
 42
0.000000001
 43
0.00000001
 40
0.0
 40
0.0
 40
0.0
 40
0.0
 40
0.1384236990025752
 40
0.5465430467255261
 40
1.0
 40
1.0
 40
1.0
 40
1.0
 10
75.9610300986669
 20
182.193517490753
 30
0.0
 10
75.96202376839634
 20
182.1934236437668
 30
0.0
 10
75.9659471087295
 20
182.1930531044866
 30
0.0
 10
75.97152897133347
 20
182.1926475806438
 30
0.0
 10
75.97555977752573
 20
182.1924991596679
 30
0.0
 10
75.97768123454941
 20
182.1924210440983
 30
0.0
  0
SPLINE
  5
DC
330
1F
100
AcDbEntity
  8
0
  6
Continuous
 62
     7
370
    30
100
AcDbSpline
210
0.0
220
0.0
230
1.0
 70
     8
 71
     3
 72
    10
 73
     6
 74
     0
 42
0.000000001
 43
0.00000001
 40
0.0
 40
0.0
 40
0.0
 40
0.0
 40
0.4897379678770051
 40
0.9252425080074025
 40
0.9999999999999999
 40
0.9999999999999999
 40
0.9999999999999999
 40
0.9999999999999999
 10
75.97768123370318
 20
256.8075789558823
 30
0.0
 10
75.97539237593854
 20
256.8074911854739
 30
0.0
 10
75.97106812779454
 20
256.8073253643244
 30
0.0
 10
75.96561611866278
 20
256.806915018455
 30
0.0
 10
75.96198801114815
 20
256.8065580615331
 30
0.0
 10
75.9614564642146
 20
256.8065057644728
 30
0.0
  0
ARC
  5
DD
330
1F
100
AcDbEntity
  8
0
  6
Continuous
 62
     7
370
    30
100
AcDbCircle
 10
28.0006144968
 20
233.5
 30
0.0
 40
1.0
100
AcDbArc
 50
90.0
 51
180.0
  0
ARC
  5
DE
330
1F
100
AcDbEntity
  8
0
  6
Continuous
 62
     7
370
    30
100
AcDbCircle
 10
28.0006144968
 20
205.5
 30
0.0
 40
1.0
100
AcDbArc
 50
180.0
 51
270.0
  0
LINE
  5
DF
330
1F
100
AcDbEntity
  8
0
  6
Continuous
 62
     7
370
    30
100
AcDbLine
 10
75.0006144968
 20
234.5
 30
0.0
 11
28.0006144968
 21
234.5
 31
0.0
  0
LINE
  5
E0
330
1F
100
AcDbEntity
  8
0
  6
Continuous
 62
     7
370
    30
100
AcDbLine
 10
71.400563999
 20
204.5
 30
0.0
 11
75.0006144968
 21
204.5
 31
0.0
  0
LINE
  5
E1
330
1F
100
AcDbEntity
  8
0
  6
Continuous
 62
     7
370
    30
100
AcDbLine
 10
52.7505920902
 20
204.5
 30
0.0
 11
66.2006649947
 21
204.5
 31
0.0
  0
LINE
  5
E2
330
1F
100
AcDbEntity
  8
0
  6
Continuous
 62
     7
370
    30
100
AcDbLine
 10
28.0006144968
 20
204.5
 30
0.0
 11
31.2506514221
 21
204.5
 31
0.0
  0
LINE
  5
E3
330
1F
100
AcDbEntity
  8
0
  6
Continuous
 62
     7
370
    30
100
AcDbLine
 10
31.5006144968
 20
204.6781349821
 30
0.0
 11
31.5006144968
 21
202.2249319686
 31
0.0
  0
LINE
  5
E4
330
1F
100
AcDbEntity
  8
0
  6
Continuous
 62
     7
370
    30
100
AcDbLine
 10
52.5006144968
 20
202.2249319686
 30
0.0
 11
52.5006144968
 21
204.6781356934
 31
0.0
  0
LINE
  5
E5
330
1F
100
AcDbEntity
  8
0
  6
Continuous
 62
     7
370
    30
100
AcDbLine
 10
31.5231144968
 20
194.9088033625
 30
0.0
 11
32.6851144968
 21
194.2249319686
 31
0.0
  0
LINE
  5
E6
330
1F
100
AcDbEntity
  8
0
  6
Continuous
 62
     7
370
    30
100
AcDbLine
 10
51.3161144968
 20
194.2249319686
 30
0.0
 11
52.4781144968
 21
194.9088033625
 31
0.0
  0
LINE
  5
E7
330
1F
100
AcDbEntity
  8
0
  6
Continuous
 62
     7
370
    30
100
AcDbLine
 10
31.5231144968
 20
202.2249319686
 30
0.0
 11
31.5231144968
 21
194.9088033625
 31
0.0
  0
LINE
  5
E8
330
1F
100
AcDbEntity
  8
0
  6
Continuous
 62
     7
370
    30
100
AcDbLine
 10
52.4781144968
 20
194.9088033625
 30
0.0
 11
52.4781144968
 21
202.2249319686
 31
0.0
  0
LINE
  5
E9
330
1F
100
AcDbEntity
  8
0
  6
Continuous
 62
     7
370
    30
100
AcDbLine
 10
87.0006144968
 20
255.0003046097
 30
0.0
 11
87.0006144968
 21
183.9996953903
 31
0.0
  0
LINE
  5
EA
330
1F
100
AcDbEntity
  8
0
  6
Continuous
 62
     7
370
    30
100
AcDbLine
 10
87.0006144968
 20
182.0
 30
0.0
 11
87.0006144968
 21
183.9996953903
 31
0.0
  0
LINE
  5
EB
330
1F
100
AcDbEntity
  8
0
  6
Continuous
 62
     7
370
    30
100
AcDbLine
 10
75.9831620904
 20
182.1923103471
 30
0.0
 11
87.0006144968
 21
182.0
 31
0.0
  0
LINE
  5
EC
330
1F
100
AcDbEntity
  8
0
  6
Continuous
 62
     7
370
    30
100
AcDbLine
 10
75.9831620904
 20
256.8076896529
 30
0.0
 11
75.982350616
 21
256.797742826
 31
0.0
  0
LINE
  5
ED
330
1F
100
AcDbEntity
  8
0
  6
Continuous
 62
     7
370
    30
100
AcDbLine
 10
87.0006144968
 20
257.0
 30
0.0
 11
75.9831620904
 21
256.8076896529
 31
0.0
  0
LINE
  5
EE
330
1F
100
AcDbEntity
  8
0
  6
Continuous
 62
     7
370
    30
100
AcDbLine
 10
87.0006144968
 20
257.0
 30
0.0
 11
87.0006144968
 21
255.0003046097
 31
0.0
  0
LINE
  5
EF
330
1F
100
AcDbEntity
  8
0
  6
Continuous
 62
     7
370
    30
100
AcDbLine
 10
75.0006144968
 20
184.1920057374
 30
0.0
 11
75.0006144968
 21
254.8079942626
 31
0.0
  0
SPLINE
  5
F0
330
1F
100
AcDbEntity
  8
0
  6
Continuous
 62
     7
370
    30
100
AcDbSpline
210
0.0
220
0.0
230
1.0
 70
    24
 71
     3
 72
    35
 73
    31
 74
     0
 42
0.000000001
 43
0.00000001
 40
0.0
 40
0.0
 40
0.0
 40
0.0
 40
0.040312492345968
 40
0.0802865445942526
 40
0.1200806612855135
 40
0.1598554981728056
 40
0.1997719438019999
 40
0.2399891872432252
 40
0.2663166637269226
 40
0.292456015888707
 40
0.3184499430504908
 40
0.3443418640213892
 40
0.3701757119393786
 40
0.4132177745790012
 40
0.45642621333842
 40
0.5000034979220613
 40
0.5437683803383958
 40
0.5870904686490934
 40
0.6301706058325139
 40
0.6732130219513089
 40
0.7164224819386774
 40
0.7600013961164954
 40
0.7902707291038402
 40
0.8203295376632368
 40
0.8502438273214127
 40
0.8800805627448376
 40
0.9099072309619477
 40
0.9397913872051953
 40
0.9698001984619021
 40
1.0
 40
1.0
 40
1.0
 40
1.0
 10
75.00061449681245
 20
255.8078419577457
 30
0.0
 10
75.00061449681245
 20
255.8074705940755
 30
0.0
 10
75.00061449681245
 20
255.806730984487
 30
0.0
 10
75.00061449681243
 20
255.800666129359
 30
0.0
 10
75.00061449681245
 20
255.7909593197773
 30
0.0
 10
75.00061449681243
 20
255.7772631994543
 30
0.0
 10
75.00061449681245
 20
255.7596740227016
 30
0.0
 10
75.00061449681243
 20
255.7407127178554
 30
0.0
 10
75.00061449681245
 20
255.7219373044586
 30
0.0
 10
75.00061449681245
 20
255.7045382149929
 30
0.0
 10
75.00061449681245
 20
255.6857431628995
 30
0.0
 10
75.00061449681245
 20
255.665553133682
 30
0.0
 10
75.00061449681245
 20
255.6391760787526
 30
0.0
 10
75.00061449681243
 20
255.6052580863846
 30
0.0
 10
75.00061449681245
 20
255.5622415769024
 30
0.0
 10
75.00061449681243
 20
255.5154746267596
 30
0.0
 10
75.00061449681245
 20
255.4654817022898
 30
0.0
 10
75.00061449681245
 20
255.4126484949288
 30
0.0
 10
75.00061449681245
 20
255.3572857428425
 30
0.0
 10
75.00061449681245
 20
255.299398353701
 30
0.0
 10
75.00061449681245
 20
255.2389912706623
 30
0.0
 10
75.00061449681243
 20
255.1827328426372
 30
0.0
 10
75.00061449681245
 20
255.131685024157
 30
0.0
 10
75.00061449681245
 20
255.0866346171118
 30
0.0
 10
75.00061449681245
 20
255.0411798708394
 30
0.0
 10
75.00061449681243
 20
254.9953210686178
 30
0.0
 10
75.00061449681245
 20
254.9490589842489
 30
0.0
 10
75.00061449681245
 20
254.9023943282194
 30
0.0
 10
75.00061449681245
 20
254.8553277505013
 30
0.0
 10
75.00061449681245
 20
254.8238054229951
 30
0.0
 10
75.00061449681245
 20
254.8079942625893
 30
0.0
  0
ARC
  5
F1
330
1F
100
AcDbEntity
  8
0
  6
Continuous
 62
     7
370
    30
100
AcDbCircle
 10
76.0006144968
 20
255.8078419577
 30
0.0
 40
1.000000000000041
100
AcDbArc
 50
91.0
 51
160.8802376144
  0
LWPOLYLINE
  5
F2
330
1F
100
AcDbEntity
  8
0
  6
Continuous
 62
     7
370
    30
100
AcDbPolyline
 90
        3
 70
   128
 43
0.0
 10
75.0029787016
 20
255.876564735
 10
75.0013321012
 20
255.8457193103
 10
75.0006144968
 20
255.8078419577
  0
SPLINE
  5
F3
330
1F
100
AcDbEntity
  8
0
  6
Continuous
 62
     7
370
    30
100
AcDbSpline
210
0.0
220
0.0
230
1.0
 70
    24
 71
     3
 72
    35
 73
    31
 74
     0
 42
0.000000001
 43
0.00000001
 40
0.0
 40
0.0
 40
0.0
 40
0.0
 40
0.040312492343679
 40
0.0802865445905984
 40
0.1200806612814039
 40
0.1598554981691429
 40
0.199771943799656
 40
0.2399891872430283
 40
0.2663166637256099
 40
0.292456015886507
 40
0.3184499430476478
 40
0.3443418640181467
 40
0.3701757119360063
 40
0.4132177745759992
 40
0.4564262133365597
 40
0.5000034979221205
 40
0.5437683803394208
 40
0.5870904686506981
 40
0.6301706058343168
 40
0.6732130219529049
 40
0.7164224819397035
 40
0.7600013961165569
 40
0.7902707291043275
 40
0.8203295376640305
 40
0.8502438273223846
 40
0.8800805627458731
 40
0.9099072309629211
 40
0.9397913872059744
 40
0.9698001984623494
 40
1.0
 40
1.0
 40
1.0
 40
1.0
 10
75.00061449681245
 20
184.1920057374107
 30
0.0
 10
75.00061449681245
 20
184.1708984824446
 30
0.0
 10
75.00061449681245
 20
184.1288611766742
 30
0.0
 10
75.00061449681245
 20
184.0662291867015
 30
0.0
 10
75.00061449681245
 20
184.0043717273741
 30
0.0
 10
75.00061449681245
 20
183.9432916478606
 30
0.0
 10
75.00061449681245
 20
183.8829918466874
 30
0.0
 10
75.00061449681245
 20
183.8305430376804
 30
0.0
 10
75.00061449681243
 20
183.7857902288285
 30
0.0
 10
75.00061449681245
 20
183.7485702187394
 30
0.0
 10
75.00061449681245
 20
183.7122921981808
 30
0.0
 10
75.00061449681245
 20
183.67695491371
 30
0.0
 10
75.00061449681243
 20
183.6349219829862
 30
0.0
 10
75.00061449681245
 20
183.5869806398811
 30
0.0
 10
75.00061449681245
 20
183.534292672908
 30
0.0
 10
75.00061449681245
 20
183.4843857420534
 30
0.0
 10
75.00061449681243
 20
183.4376249139949
 30
0.0
 10
75.00061449681245
 20
183.3945049996492
 30
0.0
 10
75.00061449681245
 20
183.3553346974506
 30
0.0
 10
75.00061449681245
 20
183.3201148240139
 30
0.0
 10
75.00061449681245
 20
183.288847398203
 30
0.0
 10
75.00061449681245
 20
183.2644305505366
 30
0.0
 10
75.00061449681245
 20
183.2455913004866
 30
0.0
 10
75.00061449681245
 20
183.2313099323877
 30
0.0
 10
75.00061449681245
 20
183.219226709983
 30
0.0
 10
75.00061449681243
 20
183.2093446400556
 30
0.0
 10
75.00061449681245
 20
183.2016502454872
 30
0.0
 10
75.00061449681245
 20
183.1961958065016
 30
0.0
 10
75.00061449681245
 20
183.1927851901002
 30
0.0
 10
75.00061449681243
 20
183.1923675331587
 30
0.0
 10
75.00061449681245
 20
183.1921580422543
 30
0.0
  0
LWPOLYLINE
  5
F4
330
1F
100
AcDbEntity
  8
0
  6
Continuous
 62
     7
370
    30
100
AcDbPolyline
 90
        3
 70
   128
 43
0.0
 10
75.0006144968
 20
183.1921580423
 10
75.0013321012
 20
183.1542806897
 10
75.0030927521
 20
183.1217991849
  0
ARC
  5
F5
330
1F
100
AcDbEntity
  8
0
  6
Continuous
 62
     7
370
    30
100
AcDbCircle
 10
76.0006144968
 20
183.1921580423
 30
0.0
 40
0.9999999999999879
100
AcDbArc
 50
199.1691715623
 51
269.0
  0
LINE
  5
F6
330
1F
100
AcDbEntity
  8
0
  6
Continuous
 62
     7
370
    30
100
AcDbLine
 10
75.0006144968
 20
255.8078419577
 30
0.0
 11
75.0006965682
 21
255.8206535152
 31
0.0
  0
SPLINE
  5
F7
330
1F
100
AcDbEntity
  8
0
  6
Continuous
 62
     7
370
    30
100
AcDbSpline
210
0.0
220
0.0
230
1.0
 70
    24
 71
     3
 72
   181
 73
   177
 74
     0
 42
0.000000001
 43
0.00000001
 40
0.0
 40
0.0
 40
0.0
 40
0.0
 40
0.0072539526768643
 40
0.0144981829509114
 40
0.0217353352991621
 40
0.0289680619622747
 40
0.0361990200507956
 40
0.0434308686246893
 40
0.0483031747368643
 40
0.0531779014172239
 40
0.0580558584961087
 40
0.0629378541962747
 40
0.0678246947366648
 40
0.072920269150133
 40
0.0780969501649193
 40
0.0853361746959374
 40
0.0925683704085621
 40
0.099796188273293
 40
0.1070222840788119
 40
0.1142493155122678
 40
0.1195513091781812
 40
0.1248562811998637
 40
0.1301652762807027
 40
0.1322522955740588
 40
0.13434015973892
 40
0.136428931778324
 40
0.138518674613195
 40
0.1406094510768101
 40
0.1427013239093055
 40
0.149856373982008
 40
0.1570008324832845
 40
0.1641372334114016
 40
0.171268119354535
 40
0.1783960388025863
 40
0.185523543427532
 40
0.1897245582486178
 40
0.1939268372361778
 40
0.1981309018723663
 40
0.2023372729752137
 40
0.2065464705065899
 40
0.2107590133817516
 40
0.2149754192808158
 40
0.2191962044624977
 40
0.2265044226636763
 40
0.2338013353271854
 40
0.2410896414948861
 40
0.2483720497779904
 40
0.2556512753715497
 40
0.2629300370323307
 40
0.2697948996005511
 40
0.2766640443816371
 40
0.2835397443687154
 40
0.2904242660621167
 40
0.2973198672634141
 40
0.3046280857190437
 40
0.3119249985432528
 40
0.3192133047992224
 40
0.3264957131196413
 40
0.3337749387211463
 40
0.3410537003821502
 40
0.3459568694250408
 40
0.3508618915318821
 40
0.3557695958579449
 40
0.3606808101999914
 40
0.3655963605814853
 40
0.3705170708422607
 40
0.3754437622336517
 40
0.3825988130078928
 40
0.3897432719522047
 40
0.3968796731236631
 40
0.4040105591696657
 40
0.4111384786396235
 40
0.4182659832651832
 40
0.4245398920276161
 40
0.4308171938125422
 40
0.437099623659578
 40
0.4392166149384756
 40
0.4413344499202161
 40
0.4434531944775439
 40
0.4455729143984052
 40
0.4476936753799763
 40
0.4498155430227332
 40
0.4519385828245675
 40
0.4585311986083479
 40
0.4651151489119717
 40
0.4716924170838281
 40
0.478264992521534
 40
0.4848348688856708
 40
0.4914040422942239
 40
0.4979745095058559
 40
0.5031392521218045
 40
0.5083069922036134
 40
0.5134786948163322
 40
0.5186553228088386
 40
0.5238378362847813
 40
0.5288129636015457
 40
0.5336952169099848
 40
0.5405236314776556
 40
0.5473462437348054
 40
0.5541652786475959
 40
0.5609829646846105
 40
0.5678015316369667
 40
0.5745013558258559
 40
0.5812062885828538
 40
0.5879184338882867
 40
0.5946398889493705
 40
0.6018925085633069
 40
0.6091357137768725
 40
0.6163721512906847
 40
0.6236044752353725
 40
0.630835344271292
 40
0.6380674186633629
 40
0.6429400547451207
 40
0.6478152547733849
 40
0.652693828679641
 40
0.6575765847164398
 40
0.6624643290616222
 40
0.6675601979474028
 40
0.6727368789621654
 40
0.6799761034931567
 40
0.6872082992057627
 40
0.6944361170704827
 40
0.7016622128759988
 40
0.7088892443094601
 40
0.7141912379753823
 40
0.7194962099970779
 40
0.724805205077934
 40
0.726892224371298
 40
0.7289800885361678
 40
0.7310688605755811
 40
0.7331586034104618
 40
0.7352493798740873
 40
0.7373412527065937
 40
0.7444963027791061
 40
0.7516407612802317
 40
0.7587771622082369
 40
0.7659080481512976
 40
0.7730359675993155
 40
0.7801634722242665
 40
0.7843644870453738
 40
0.7885667660329689
 40
0.792770830669206
 40
0.7969772017721152
 40
0.8011863993035669
 40
0.8053989421788174
 40
0.8096153480779836
 40
0.8138361332597811
 40
0.8211443514609332
 40
0.828441264124421
 40
0.8357295702921054
 40
0.8430119785751989
 40
0.8502912041687531
 40
0.8575699658295348
 40
0.8644348283977616
 40
0.8713039731788598
 40
0.8781796731659558
 40
0.885064194859381
 40
0.8919597960607089
 40
0.899268014516531
 40
0.9065649273408932
 40
0.9138532335969767
 40
0.9211356419174697
 40
0.9284148675190088
 40
0.9356936291800071
 40
0.9405967982228712
 40
0.9455018203296681
 40
0.9504095246556683
 40
0.9553207389976341
 40
0.9602362893790294
 40
0.965156999639688
 40
0.9700836910309447
 40
0.9772387418052751
 40
0.9843832007496581
 40
0.9915196019211693
 40
0.9986504879672063
 40
1.0
 40
1.0
 40
1.0
 40
1.0
 10
27.00061449681244
 20
231.7861558665
 30
0.0
 10
27.00061449681245
 20
231.7428533020049
 30
0.0
 10
27.00061449681243
 20
231.6563062110243
 30
0.0
 10
27.00061449681242
 20
231.520918347965
 30
0.0
 10
27.00061449681245
 20
231.3815859507165
 30
0.0
 10
27.00061449681245
 20
231.2379024894763
 30
0.0
 10
27.00061449681242
 20
231.0899770811722
 30
0.0
 10
27.00061449681245
 20
230.95435500241
 30
0.0
 10
27.00061449681242
 20
230.8325212970782
 30
0.0
 10
27.00061449681243
 20
230.7256956749266
 30
0.0
 10
27.00061449681243
 20
230.616936124909
 30
0.0
 10
27.00061449681243
 20
230.5062425402572
 30
0.0
 10
27.00061449681245
 20
230.3920546416786
 30
0.0
 10
27.00061449681241
 20
230.2737020974603
 30
0.0
 10
27.00061449681245
 20
230.1347430120351
 30
0.0
 10
27.00061449681242
 20
229.9758122745683
 30
0.0
 10
27.00061449681246
 20
229.7964608206726
 30
0.0
 10
27.0006144968124
 20
229.6134496129011
 30
0.0
 10
27.00061449681247
 20
229.4267792084863
 30
0.0
 10
27.00061449681242
 20
229.2533773630132
 30
0.0
 10
27.00061449681245
 20
229.0943007813258
 30
0.0
 10
27.00061449681245
 20
228.950444729947
 30
0.0
 10
27.00061449681241
 20
228.8341647461536
 30
0.0
 10
27.00061449681245
 20
228.7465818037572
 30
0.0
 10
27.00061449681242
 20
228.6884570785812
 30
0.0
 10
27.00061449681244
 20
228.6300287543685
 30
0.0
 10
27.00061449681243
 20
228.5712968208636
 30
0.0
 10
27.00061449681245
 20
228.5122611997901
 30
0.0
 10
27.00061449681244
 20
228.4050588825988
 30
0.0
 10
27.00061449681243
 20
228.2485048421267
 30
0.0
 10
27.00061449681245
 20
228.0406654496249
 30
0.0
 10
27.00061449681244
 20
227.8300223630379
 30
0.0
 10
27.00061449681246
 20
227.6165760940199
 30
0.0
 10
27.00061449681244
 20
227.4003270032861
 30
0.0
 10
27.00061449681242
 20
227.2112723661818
 30
0.0
 10
27.00061449681245
 20
227.0506095294037
 30
0.0
 10
27.00061449681241
 20
226.9192547373246
 30
0.0
 10
27.00061449681245
 20
226.7869269292789
 30
0.0
 10
27.00061449681243
 20
226.6536259739114
 30
0.0
 10
27.00061449681245
 20
226.5193518980058
 30
0.0
 10
27.00061449681242
 20
226.3841047658863
 30
0.0
 10
27.00061449681244
 20
226.2478843336243
 30
0.0
 10
27.00061449681242
 20
226.0772945370198
 30
0.0
 10
27.00061449681246
 20
225.8716740794956
 30
0.0
 10
27.0006144968124
 20
225.6301902927968
 30
0.0
 10
27.00061449681247
 20
225.3867164459072
 30
0.0
 10
27.00061449681241
 20
225.1412529369652
 30
0.0
 10
27.00061449681245
 20
224.8937998484221
 30
0.0
 10
27.00061449681243
 20
224.6491103096783
 30
0.0
 10
27.00061449681243
 20
224.4073187302238
 30
0.0
 10
27.00061449681242
 20
224.1685443199494
 30
0.0
 10
27.00061449681245
 20
223.9280016839524
 30
0.0
 10
27.00061449681242
 20
223.6856906301853
 30
0.0
 10
27.00061449681244
 20
223.4369014324457
 30
0.0
 10
27.00061449681245
 20
223.1818608054459
 30
0.0
 10
27.00061449681244
 20
222.9207973909617
 30
0.0
 10
27.00061449681244
 20
222.6587720565168
 30
0.0
 10
27.00061449681245
 20
222.3957847064125
 30
0.0
 10
27.00061449681243
 20
222.1318358973933
 30
0.0
 10
27.00061449681244
 20
221.895767940086
 30
0.0
 10
27.00061449681245
 20
221.6879270570274
 30
0.0
 10
27.00061449681242
 20
221.5085580395064
 30
0.0
 10
27.00061449681246
 20
221.3287531383434
 30
0.0
 10
27.0006144968124
 20
221.1485121623546
 30
0.0
 10
27.00061449681246
 20
220.9678352354791
 30
0.0
 10
27.00061449681245
 20
220.7867221457901
 30
0.0
 10
27.00061449681244
 20
220.5778870805581
 30
0.0
 10
27.00061449681244
 20
220.3414395738276
 30
0.0
 10
27.00061449681242
 20
220.0775179833599
 30
0.0
 10
27.00061449681246
 20
219.8136872530139
 30
0.0
 10
27.00061449681242
 20
219.5499477773862
 30
0.0
 10
27.00061449681246
 20
219.286299703636
 30
0.0
 10
27.00061449681241
 20
219.0332890080265
 30
0.0
 10
27.00061449681243
 20
218.7909103515301
 30
0.0
 10
27.00061449681245
 20
218.55913664023
 30
0.0
 10
27.00061449681243
 20
218.3787209181555
 30
0.0
 10
27.00061449681243
 20
218.2495588959347
 30
0.0
 10
27.00061449681246
 20
218.1715698602614
 30
0.0
 10
27.00061449681242
 20
218.0935889044185
 30
0.0
 10
27.00061449681245
 20
218.0156159612978
 30
0.0
 10
27.00061449681244
 20
217.937651063069
 30
0.0
 10
27.00061449681245
 20
217.8596941494432
 30
0.0
 10
27.00061449681242
 20
217.7270600564053
 30
0.0
 10
27.00061449681245
 20
217.5400775084171
 30
0.0
 10
27.00061449681243
 20
217.299250452798
 30
0.0
 10
27.00061449681243
 20
217.0593309321625
 30
0.0
 10
27.00061449681245
 20
216.8203197039435
 30
0.0
 10
27.00061449681242
 20
216.5822166008759
 30
0.0
 10
27.00061449681245
 20
216.3450219366734
 30
0.0
 10
27.00061449681244
 20
216.1256236161489
 30
0.0
 10
27.00061449681243
 20
215.9238102264075
 30
0.0
 10
27.00061449681243
 20
215.7393651368679
 30
0.0
 10
27.00061449681244
 20
215.5554808985359
 30
0.0
 10
27.00061449681245
 20
215.3721573762949
 30
0.0
 10
27.00061449681244
 20
215.1919128392343
 30
0.0
 10
27.00061449681243
 20
215.015886984613
 30
0.0
 10
27.00061449681245
 20
214.8214518206825
 30
0.0
 10
27.00061449681243
 20
214.6066581475462
 30
0.0
 10
27.00061449681244
 20
214.3710099210563
 30
0.0
 10
27.00061449681242
 20
214.137154339797
 30
0.0
 10
27.00061449681244
 20
213.9050917958678
 30
0.0
 10
27.00061449681244
 20
213.6761937610636
 30
0.0
 10
27.00061449681243
 20
213.4504237560664
 30
0.0
 10
27.00061449681243
 20
213.2277424575721
 30
0.0
 10
27.00061449681245
 20
213.006791042366
 30
0.0
 10
27.00061449681242
 20
212.7819187454969
 30
0.0
 10
27.00061449681242
 20
212.5535679575899
 30
0.0
 10
27.00061449681245
 20
212.3222133599391
 30
0.0
 10
27.00061449681245
 20
212.0937001590654
 30
0.0
 10
27.00061449681245
 20
211.8680287032237
 30
0.0
 10
27.00061449681242
 20
211.6451993308079
 30
0.0
 10
27.00061449681243
 20
211.449170631994
 30
0.0
 10
27.00061449681242
 20
211.2789632279549
 30
0.0
 10
27.00061449681244
 20
211.1337127758565
 30
0.0
 10
27.00061449681245
 20
210.9897512294459
 30
0.0
 10
27.00061449681243
 20
210.8470783488898
 30
0.0
 10
27.00061449681243
 20
210.7037437164457
 30
0.0
 10
27.00061449681241
 20
210.5591090826204
 30
0.0
 10
27.00061449681245
 20
210.3939001942821
 30
0.0
 10
27.00061449681242
 20
210.2111055535472
 30
0.0
 10
27.00061449681245
 20
210.012623992977
 30
0.0
 10
27.00061449681244
 20
209.8177332125301
 30
0.0
 10
27.00061449681244
 20
209.6264337944725
 30
0.0
 10
27.00061449681245
 20
209.4554204094357
 30
0.0
 10
27.00061449681243
 20
209.3036641148913
 30
0.0
 10
27.00061449681244
 20
209.1702358652134
 30
0.0
 10
27.00061449681245
 20
209.0653797541536
 30
0.0
 10
27.00061449681245
 20
208.9879358301627
 30
0.0
 10
27.00061449681242
 20
208.9371063287517
 30
0.0
 10
27.00061449681243
 20
208.8865748175212
 30
0.0
 10
27.00061449681245
 20
208.8363412671548
 30
0.0
 10
27.00061449681242
 20
208.7864056747298
 30
0.0
 10
27.00061449681245
 20
208.696729973728
 30
0.0
 10
27.00061449681242
 20
208.5689586474327
 30
0.0
 10
27.00061449681245
 20
208.4057474038242
 30
0.0
 10
27.00061449681243
 20
208.24666367605
 30
0.0
 10
27.00061449681244
 20
208.091708137248
 30
0.0
 10
27.00061449681245
 20
207.9408809396701
 30
0.0
 10
27.00061449681245
 20
207.8142713364124
 30
0.0
 10
27.00061449681243
 20
207.7101399924994
 30
0.0
 10
27.00061449681244
 20
207.627068165544
 30
0.0
 10
27.00061449681244
 20
207.5454296621248
 30
0.0
 10
27.00061449681244
 20
207.4652243785421
 30
0.0
 10
27.00061449681245
 20
207.3864523510634
 30
0.0
 10
27.00061449681242
 20
207.3091135541883
 30
0.0
 10
27.00061449681245
 20
207.233208067718
 30
0.0
 10
27.00061449681246
 20
207.1406066816814
 30
0.0
 10
27.00061449681242
 20
207.0329701049506
 30
0.0
 10
27.00061449681246
 20
206.9124125764029
 30
0.0
 10
27.00061449681242
 20
206.7966644492616
 30
0.0
 10
27.00061449681244
 20
206.6857263199291
 30
0.0
 10
27.00061449681244
 20
206.5795981234072
 30
0.0
 10
27.00061449681244
 20
206.480210535958
 30
0.0
 10
27.00061449681244
 20
206.3872493857727
 30
0.0
 10
27.00061449681245
 20
206.3004040158263
 30
0.0
 10
27.00061449681244
 20
206.217834458974
 30
0.0
 10
27.00061449681243
 20
206.1395411376716
 30
0.0
 10
27.00061449681245
 20
206.0640938928455
 30
0.0
 10
27.00061449681243
 20
205.991892385147
 30
0.0
 10
27.00061449681244
 20
205.9233752391723
 30
0.0
 10
27.00061449681245
 20
205.8599732142261
 30
0.0
 10
27.00061449681242
 20
205.8016868434712
 30
0.0
 10
27.00061449681246
 20
205.7485160829607
 30
0.0
 10
27.00061449681241
 20
205.705693083582
 30
0.0
 10
27.00061449681243
 20
205.6714522998581
 30
0.0
 10
27.00061449681245
 20
205.6442937069431
 30
0.0
 10
27.00061449681245
 20
205.619454898148
 30
0.0
 10
27.00061449681244
 20
205.5969359703546
 30
0.0
 10
27.00061449681244
 20
205.5767364080257
 30
0.0
 10
27.00061449681243
 20
205.5588581736292
 30
0.0
 10
27.00061449681243
 20
205.5409546102763
 30
0.0
 10
27.00061449681244
 20
205.5244703498505
 30
0.0
 10
27.00061449681243
 20
205.510933746103
 30
0.0
 10
27.00061449681246
 20
205.5028318202079
 30
0.0
 10
27.00061449681242
 20
205.4993474833869
 30
0.0
 10
27.00061449681244
 20
205.5000923022982
 30
0.0
 10
27.00061449681244
 20
205.5002108276402
 30
0.0
  0
SPLINE
  5
F8
330
1F
100
AcDbEntity
  8
0
  6
Continuous
 62
     7
370
    30
100
AcDbSpline
210
0.0
220
0.0
230
1.0
 70
    24
 71
     3
 72
    42
 73
    38
 74
     0
 42
0.000000001
 43
0.00000001
 40
0.0
 40
0.0
 40
0.0
 40
0.0
 40
0.0305283800775508
 40
0.0681842865885726
 40
0.101330490516721
 40
0.1344946204014605
 40
0.1676858427734368
 40
0.1788702936958326
 40
0.1900592020541927
 40
0.2012529158662372
 40
0.2124517827016809
 40
0.2236561496506841
 40
0.2348663632925244
 40
0.2460827696645037
 40
0.2809127608967575
 40
0.3156969708173714
 40
0.3504458778175144
 40
0.3851699922475277
 40
0.4198798469797729
 40
0.4545859878695241
 40
0.489298964156868
 40
0.5165852410962601
 40
0.5438873541943445
 40
0.5712104020657405
 40
0.598559471616627
 40
0.6259396352496385
 40
0.6522277422478978
 40
0.6780260434645534
 40
0.7141067820062096
 40
0.750155379439613
 40
0.7861835921471502
 40
0.8222031964712303
 40
0.8582259771968611
 40
0.8936200026112711
 40
0.9290396046976146
 40
0.9644959073584441
 40
1.0
 40
1.0
 40
1.0
 40
1.0
 10
27.00061449681244
 20
233.4997891723602
 30
0.0
 10
27.00061449681244
 20
233.4996343392092
 30
0.0
 10
27.00061449681244
 20
233.4992885236792
 30
0.0
 10
27.00061449681242
 20
233.4930507157455
 30
0.0
 10
27.00061449681245
 20
233.4828439390371
 30
0.0
 10
27.00061449681245
 20
233.4690958733835
 30
0.0
 10
27.00061449681242
 20
233.4554089863462
 30
0.0
 10
27.00061449681245
 20
233.444164918171
 30
0.0
 10
27.00061449681244
 20
233.4369374186706
 30
0.0
 10
27.00061449681244
 20
233.4292718653874
 30
0.0
 10
27.00061449681245
 20
233.4211683837723
 30
0.0
 10
27.00061449681243
 20
233.4126269657652
 30
0.0
 10
27.00061449681245
 20
233.403647518483
 30
0.0
 10
27.00061449681243
 20
233.3876238040724
 30
0.0
 10
27.00061449681245
 20
233.3628666921637
 30
0.0
 10
27.00061449681243
 20
233.3267207455297
 30
0.0
 10
27.00061449681242
 20
233.286436433905
 30
0.0
 10
27.00061449681245
 20
233.2420135499251
 30
0.0
 10
27.00061449681243
 20
233.1934521408198
 30
0.0
 10
27.00061449681244
 20
233.1407522597309
 30
0.0
 10
27.00061449681243
 20
233.0879762420362
 30
0.0
 10
27.00061449681244
 20
233.0360966424338
 30
0.0
 10
27.00061449681245
 20
232.9859831652528
 30
0.0
 10
27.00061449681242
 20
232.9333151166313
 30
0.0
 10
27.00061449681243
 20
232.8780925684865
 30
0.0
 10
27.00061449681246
 20
232.8211087366982
 30
0.0
 10
27.00061449681244
 20
232.7628715591997
 30
0.0
 10
27.00061449681244
 20
232.6957334628437
 30
0.0
 10
27.00061449681245
 20
232.6178359771434
 30
0.0
 10
27.00061449681244
 20
232.5275335743562
 30
0.0
 10
27.00061449681245
 20
232.4330396364133
 30
0.0
 10
27.00061449681245
 20
232.3343561184413
 30
0.0
 10
27.00061449681242
 20
232.2320888687107
 30
0.0
 10
27.00061449681245
 20
232.1263504265118
 30
0.0
 10
27.00061449681245
 20
232.0171324502574
 30
0.0
 10
27.00061449681243
 20
231.9041469258671
 30
0.0
 10
27.00061449681243
 20
231.8255038743057
 30
0.0
 10
27.00061449681243
 20
231.7861558665
 30
0.0
  0
SPLINE
  5
F9
330
1F
100
AcDbEntity
  8
0
  6
Continuous
 62
     7
370
    30
100
AcDbSpline
210
0.0
220
0.0
230
1.0
 70
     8
 71
     3
 72
    33
 73
    29
 74
     0
 42
0.000000001
 43
0.00000001
 40
0.0
 40
0.0
 40
0.0
 40
0.0
 40
0.0431615243429557
 40
0.0873951639766164
 40
0.1319937526606652
 40
0.1766753534176374
 40
0.2196596246907251
 40
0.2627178740143608
 40
0.3007340472153048
 40
0.3387502449713218
 40
0.3769707262934348
 40
0.4151912348632974
 40
0.4427890203197112
 40
0.4703868132047308
 40
0.4980615495023598
 40
0.5257362929676032
 40
0.5689424591269531
 40
0.6122217323647098
 40
0.6558403704073487
 40
0.6995338169490629
 40
0.7437655502196899
 40
0.7880750072712484
 40
0.8327365248046148
 40
0.8774779462436694
 40
0.908044140817385
 40
0.9386359292653261
 40
0.9693050115992509
 40
1.0
 40
1.0
 40
1.0
 40
1.0
 10
66.20066499467471
 20
204.5000087494538
 30
0.0
 10
66.20106770778307
 20
204.5000785843174
 30
0.0
 10
66.20188313723501
 20
204.500219988715
 30
0.0
 10
66.20893457584062
 20
204.5014408070131
 30
0.0
 10
66.22036358529833
 20
204.503412577082
 30
0.0
 10
66.23638558738551
 20
204.5061624877544
 30
0.0
 10
66.2566345635798
 20
204.5096138770805
 30
0.0
 10
66.27995574668853
 20
204.5135554306546
 30
0.0
 10
66.30601088970097
 20
204.5179168764933
 30
0.0
 10
66.33427023100445
 20
204.5225981401465
 30
0.0
 10
66.36582238914474
 20
204.5277639764531
 30
0.0
 10
66.39741226780203
 20
204.5328674136765
 30
0.0
 10
66.42799413292533
 20
204.537745045578
 30
0.0
 10
66.45675243308382
 20
204.5422794049875
 30
0.0
 10
66.48715101441258
 20
204.5470138247075
 30
0.0
 10
66.52516121511486
 20
204.5528561545343
 30
0.0
 10
66.57196144058835
 20
204.5599227962323
 30
0.0
 10
66.62905404053974
 20
204.5683377337174
 30
0.0
 10
66.69005234047182
 20
204.5770922091445
 30
0.0
 10
66.75512593056251
 20
204.5861622935785
 30
0.0
 10
66.82410437379774
 20
204.5954724962213
 30
0.0
 10
66.89708171717807
 20
204.604980596489
 30
0.0
 10
66.97373409504101
 20
204.6145888918012
 30
0.0
 10
67.04545481567246
 20
204.6232055686767
 30
0.0
 10
67.1108469365064
 20
204.6307630876206
 30
0.0
 10
67.16900354925824
 20
204.6372577820645
 30
0.0
 10
67.22853487249245
 20
204.6436918695816
 30
0.0
 10
67.26938587803636
 20
204.6478966981433
 30
0.0
 10
67.28982000384184
 20
204.6500000000003
 30
0.0
  0
SPLINE
  5
FA
330
1F
100
AcDbEntity
  8
0
  6
Continuous
 62
     7
370
    30
100
AcDbSpline
210
0.0
220
0.0
230
1.0
 70
     8
 71
     3
 72
    36
 73
    32
 74
     0
 42
0.000000001
 43
0.00000001
 40
0.0
 40
0.0
 40
0.0
 40
0.0
 40
0.0437441588999013
 40
0.0875636057639329
 40
0.1317338036115396
 40
0.1759813190816949
 40
0.2207862299864724
 40
0.2656718438764085
 40
0.3109228225570446
 40
0.3562571545526038
 40
0.3858119707576915
 40
0.4153900600315638
 40
0.4450384714105071
 40
0.4747104716527736
 40
0.5070178224020163
 40
0.5393558479965546
 40
0.5664969315475491
 40
0.5936380081249287
 40
0.6208525790925702
 40
0.6480671430411962
 40
0.6921968618157414
 40
0.7364060688391947
 40
0.7809742949463562
 40
0.8256249304467037
 40
0.8579328183937687
 40
0.8902721866550264
 40
0.9174187273097317
 40
0.9445652657835074
 40
0.9717869398972951
 40
0.999008613246281
 40
1.0
 40
1.0
 40
1.0
 40
1.0
 10
70.31140898978347
 20
204.6500000000003
 30
0.0
 10
70.34045599541675
 20
204.6469952758125
 30
0.0
 10
70.39859999941311
 20
204.6409806560135
 30
0.0
 10
70.48258707067802
 20
204.6316790094704
 30
0.0
 10
70.56413827827214
 20
204.622236476283
 30
0.0
 10
70.64312279265164
 20
204.6126605480104
 30
0.0
 10
70.71924684645847
 20
204.6030434312084
 30
0.0
 10
70.7924552223772
 20
204.5934325012688
 30
0.0
 10
70.86230723936055
 20
204.583932913409
 30
0.0
 10
70.9208946983741
 20
204.5757024221802
 30
0.0
 10
70.96934216105444
 20
204.5687291174247
 30
0.0
 10
71.00881047595172
 20
204.5629439619244
 30
0.0
 10
71.04658890195942
 20
204.5573109231122
 30
0.0
 10
71.08369764243622
 20
204.5516880845309
 30
0.0
 10
71.119895917747
 20
204.5461161628979
 30
0.0
 10
71.15305871461187
 20
204.5409332612001
 30
0.0
 10
71.18253326941407
 20
204.5362671426297
 30
0.0
 10
71.20868267263117
 20
204.5320815076503
 30
0.0
 10
71.23325044009616
 20
204.5281085572587
 30
0.0
 10
71.26097299229147
 20
204.5235824619918
 30
0.0
 10
71.29043107348028
 20
204.5187162109998
 30
0.0
 10
71.31990892648027
 20
204.5137862062765
 30
0.0
 10
71.34500241263456
 20
204.5095449873435
 30
0.0
 10
71.36369475704674
 20
204.5063579506442
 30
0.0
 10
71.37724362237536
 20
204.5040345433364
 30
0.0
 10
71.38631979309271
 20
204.5024717432
 30
0.0
 10
71.39284439591646
 20
204.5013452126225
 30
0.0
 10
71.3973377459366
 20
204.5005677224181
 30
0.0
 10
71.3997588235881
 20
204.5001483673731
 30
0.0
 10
71.40106235318476
 20
204.4999224027963
 30
0.0
 10
71.40058091629803
 20
204.5000058182929
 30
0.0
 10
71.40056399895016
 20
204.5000087494538
 30
0.0
  0
SPLINE
  5
FB
330
1F
100
AcDbEntity
  8
0
  6
Continuous
 62
     7
370
    30
100
AcDbSpline
210
0.0
220
0.0
230
1.0
 70
     8
 71
     3
 72
    35
 73
    31
 74
     0
 42
0.000000001
 43
0.00000001
 40
0.0
 40
0.0
 40
0.0
 40
0.0
 40
0.0373147307684636
 40
0.0746622854959067
 40
0.1120105698965804
 40
0.149326296545695
 40
0.1877223583036371
 40
0.2261527739752217
 40
0.2645836318949157
 40
0.3029802972567687
 40
0.3404116148289141
 40
0.377874104144317
 40
0.415336748834881
 40
0.4527682784585288
 40
0.4912411294645995
 40
0.5297476533770125
 40
0.5682541365746437
 40
0.6067269320119513
 40
0.6449299508375865
 40
0.6831662243756855
 40
0.7214022330854454
 40
0.7596048904667165
 40
0.79106740959332
 40
0.8225586423855246
 40
0.8540590999623956
 40
0.8855495852737142
 40
0.9170114769099074
 40
0.9446721561043725
 40
0.9723394776579367
 40
1.0
 40
1.0
 40
1.0
 40
1.0
 10
67.2898200038279
 20
204.6500000000018
 30
0.0
 10
67.32376264354595
 20
204.6528824749451
 30
0.0
 10
67.39167778067605
 20
204.6586499604051
 30
0.0
 10
67.49669772160222
 20
204.6667958185932
 30
0.0
 10
67.60375120972942
 20
204.6744999265223
 30
0.0
 10
67.71390652791582
 20
204.6817402591846
 30
0.0
 10
67.82700985552657
 20
204.6884477717405
 30
0.0
 10
67.94294749251912
 20
204.6945608991718
 30
0.0
 10
68.06039531195586
 20
204.6999737711494
 30
0.0
 10
68.17811606537951
 20
204.7046025482602
 30
0.0
 10
68.29590178588047
 20
204.70842551186
 30
0.0
 10
68.4135536052321
 20
204.7114513821929
 30
0.0
 10
68.53184567128147
 20
204.7136945482171
 30
0.0
 10
68.65165065536564
 20
204.715148989958
 30
0.0
 10
68.7728173181547
 20
204.7157660137135
 30
0.0
 10
68.8951697677652
 20
204.715526674366
 30
0.0
 10
69.01735749952036
 20
204.7144313264568
 30
0.0
 10
69.13884754110435
 20
204.7124886331735
 30
0.0
 10
69.25946138860698
 20
204.7097064867901
 30
0.0
 10
69.37903325296735
 20
204.7061237160669
 30
0.0
 10
69.49760446715656
 20
204.701764093276
 30
0.0
 10
69.60803453832489
 20
204.6969568137797
 30
0.0
 10
69.71040746739321
 20
204.6918680763505
 30
0.0
 10
69.80491592691051
 20
204.6866558326231
 30
0.0
 10
69.8982561350723
 20
204.6810100703013
 30
0.0
 10
69.99025178059158
 20
204.6749620466182
 30
0.0
 10
70.07713970339371
 20
204.6687992815559
 30
0.0
 10
70.15898485200628
 20
204.6625928118821
 30
0.0
 10
70.23607053892741
 20
204.6564308927798
 30
0.0
 10
70.28629823032622
 20
204.6521434553019
 30
0.0
 10
70.3114089897975
 20
204.6500000000036
 30
0.0
  0
SPLINE
  5
FC
330
1F
100
AcDbEntity
  8
0
  6
Continuous
 62
     7
370
    30
100
AcDbSpline
210
0.0
220
0.0
230
1.0
 70
     8
 71
     3
 72
   130
 73
   126
 74
     0
 42
0.000000001
 43
0.00000001
 40
0.0
 40
0.0
 40
0.0
 40
0.0
 40
0.0060872303983196
 40
0.0121744577000641
 40
0.0182653389017207
 40
0.024356216509067
 40
0.0325113097665121
 40
0.0406676260178695
 40
0.0488238617526993
 40
0.0569788451982158
 40
0.0651760657204991
 40
0.0733747311984748
 40
0.0815732883565538
 40
0.0897703611434947
 40
0.0966594394646315
 40
0.1035489942573554
 40
0.1104380321930255
 40
0.1173457534096015
 40
0.124254007978847
 40
0.1311616852788088
 40
0.1390526294995769
 40
0.1469454228078096
 40
0.1548380979717965
 40
0.1627288810485834
 40
0.1706832575711748
 40
0.1786397789582682
 40
0.1865961983799396
 40
0.1945504358209572
 40
0.2031566712969076
 40
0.2117658621135228
 40
0.2203749791017476
 40
0.2289811138678922
 40
0.2376850816812522
 40
0.2463921872629043
 40
0.2550993135912668
 40
0.2638033097057816
 40
0.2708449835882335
 40
0.2778882592756535
 40
0.2849315797366536
 40
0.2919733146878056
 40
0.2990651874735707
 40
0.3061585743829132
 40
0.3132520296023484
 40
0.3203439955579638
 40
0.3275001736732809
 40
0.3346577430276438
 40
0.3418153927669716
 40
0.3489716805192353
 40
0.3561702512802838
 40
0.3633700595549627
 40
0.3705699479316371
 40
0.3777686279412357
 40
0.3868685248046547
 40
0.3959695517541887
 40
0.4050695632707456
 40
0.4142064604678218
 40
0.4233443548391316
 40
0.432481347898895
 40
0.4406154850091002
 40
0.4487496362292059
 40
0.4568932477299051
 40
0.4650368711684433
 40
0.475742272386977
 40
0.4864477020196764
 40
0.497172027061065
 40
0.50789637321082
 40
0.5145452261898724
 40
0.5211940814796039
 40
0.5278470761430997
 40
0.5345000725568477
 40
0.5423540492531351
 40
0.5502080282435977
 40
0.5580685755816942
 40
0.5659291241193904
 40
0.5739573469291622
 40
0.5819860023491703
 40
0.5900142249067861
 40
0.5980581052797977
 40
0.6061024219232185
 40
0.6141462967570651
 40
0.6223543743482353
 40
0.6305624489740141
 40
0.6387781943271592
 40
0.6469939357597654
 40
0.6550848075405837
 40
0.6631761519324831
 40
0.6712670072058615
 40
0.6793755481176118
 40
0.6874845867260533
 40
0.6955931069653689
 40
0.7049216157544538
 40
0.7142509244763294
 40
0.7235793901565543
 40
0.7329383856102165
 40
0.7422982459342331
 40
0.7516571911272699
 40
0.7611243137574489
 40
0.7705914199678614
 40
0.7800745497607897
 40
0.7895576621390253
 40
0.7991557722414846
 40
0.8087549927713433
 40
0.8183530362515427
 40
0.8279937377085532
 40
0.8376356517516977
 40
0.8472762847127214
 40
0.855548941294499
 40
0.863821587550988
 40
0.872107750641454
 40
0.880393903795067
 40
0.8898796711303094
 40
0.8993681590665824
 40
0.9088565648800437
 40
0.9183422201973387
 40
0.9260031899207212
 40
0.9336664478969041
 40
0.9413304338325935
 40
0.9489936234170989
 40
0.9566545357626279
 40
0.9638876039340133
 40
0.9711213265369372
 40
0.9783543879673622
 40
0.9856113484761502
 40
0.9928689780619374
 40
1.0
 40
1.0
 40
1.0
 40
1.0
 10
36.84678995680704
 20
207.8381216183172
 30
0.0
 10
36.8853232702912
 20
207.8550626459442
 30
0.0
 10
36.96238987765764
 20
207.8889446925805
 30
0.0
 10
37.07920277020106
 20
207.9391050447595
 30
0.0
 10
37.19690590222201
 20
207.9887357874061
 30
0.0
 10
37.32898746462575
 20
208.0432899883064
 30
0.0
 10
37.47580726401419
 20
208.1024530997655
 30
0.0
 10
37.63781413184618
 20
208.1658042348621
 30
0.0
 10
37.80145626948372
 20
208.2277924048423
 30
0.0
 10
37.96699602480317
 20
208.288419638956
 30
0.0
 10
38.13443677516024
 20
208.3475783134041
 30
0.0
 10
38.30377519551956
 20
208.4051559515575
 30
0.0
 10
38.47468911966856
 20
208.4609403214944
 30
0.0
 10
38.63797040410013
 20
208.5119534485266
 30
0.0
 10
38.79332137167566
 20
208.5584422763962
 30
0.0
 10
38.94047803922534
 20
208.6006767652658
 30
0.0
 10
39.08879757672646
 20
208.6413944288326
 30
0.0
 10
39.23825905043014
 20
208.6805222219102
 30
0.0
 10
39.38883600745247
 20
208.7179898599104
 30
0.0
 10
39.54755103712123
 20
208.7553910199261
 30
0.0
 10
39.71454186496602
 20
208.7923407657634
 30
0.0
 10
39.88991990744436
 20
208.8284143964669
 30
0.0
 10
40.06637289935512
 20
208.8619191479734
 30
0.0
 10
40.24429746771185
 20
208.892843721633
 30
0.0
 10
40.42365017476811
 20
208.9210673443336
 30
0.0
 10
40.6043695737463
 20
208.9464964558611
 30
0.0
 10
40.78587357232092
 20
208.9689830263034
 30
0.0
 10
40.97303291463837
 20
208.9889847475176
 30
0.0
 10
41.16583871122813
 20
209.0061203335722
 30
0.0
 10
41.36423555729594
 20
209.0200340626203
 30
0.0
 10
41.56307403913693
 20
209.0302373265562
 30
0.0
 10
41.76295092276848
 20
209.0367058692243
 30
0.0
 10
41.96375507164797
 20
209.0393360014703
 30
0.0
 10
42.16536472961719
 20
209.0380954306099
 30
0.0
 10
42.36685564255232
 20
209.032989470744
 30
0.0
 10
42.55525323457979
 20
209.0245982663597
 30
0.0
 10
42.73050693738845
 20
209.0137434121349
 30
0.0
 10
42.89265145143814
 20
209.0012057117844
 30
0.0
 10
43.05438667343579
 20
208.9862281759165
 30
0.0
 10
43.21601394283228
 20
208.9688044168804
 30
0.0
 10
43.37747168005627
 20
208.9489458577314
 30
0.0
 10
43.53870497492868
 20
208.926690069444
 30
0.0
 10
43.69926062424467
 20
208.9021407615453
 30
0.0
 10
43.85955099775042
 20
208.8752725238819
 30
0.0
 10
44.01952121266623
 20
208.8461135262819
 30
0.0
 10
44.17912458526531
 20
208.814711459549
 30
0.0
 10
44.33782354982847
 20
208.7812249943161
 30
0.0
 10
44.49587331644212
 20
208.7456540990317
 30
0.0
 10
44.6532328439668
 20
208.7080504342959
 30
0.0
 10
44.80986972376105
 20
208.6684772347959
 30
0.0
 10
44.96543267319313
 20
208.6270861012082
 30
0.0
 10
45.13347666943437
 20
208.5801568639942
 30
0.0
 10
45.31360649090178
 20
208.5272070219878
 30
0.0
 10
45.50535698930601
 20
208.4677824752361
 30
0.0
 10
45.69545922856444
 20
208.4059133692541
 30
0.0
 10
45.88386444463025
 20
208.3417377274453
 30
0.0
 10
46.07053335563039
 20
208.2753947732177
 30
0.0
 10
46.24842942319547
 20
208.2096141423158
 30
0.0
 10
46.41777427141654
 20
208.1447637609504
 30
0.0
 10
46.5788648242034
 20
208.081125775403
 30
0.0
 10
46.73837091626109
 20
208.016234730732
 30
0.0
 10
46.91283655568753
 20
207.9432564406912
 30
0.0
 10
47.10152549512485
 20
207.8618891071575
 30
0.0
 10
47.30378226448506
 20
207.771811937572
 30
0.0
 10
47.50322795783425
 20
207.6802705785801
 30
0.0
 10
47.67493368421154
 20
207.5992067589984
 30
0.0
 10
47.81993498022774
 20
207.5292717679171
 30
0.0
 10
47.93921499329332
 20
207.4708302933896
 30
0.0
 10
48.05736833832368
 20
207.4120591748392
 30
0.0
 10
48.18143081694411
 20
207.3494446808104
 30
0.0
 10
48.31111648485092
 20
207.2829863027459
 30
0.0
 10
48.44617733913703
 20
207.2126721088349
 30
0.0
 10
48.57963764766854
 20
207.1421345353851
 30
0.0
 10
48.71242306703806
 20
207.0709318300431
 30
0.0
 10
48.84444679792591
 20
206.9991415308408
 30
0.0
 10
48.97565178369211
 20
206.9268254036143
 30
0.0
 10
49.10518334404132
 20
206.8545018119619
 30
0.0
 10
49.23302336615106
 20
206.7822331780569
 30
0.0
 10
49.35915208772573
 20
206.7100792395595
 30
0.0
 10
49.48431584843782
 20
206.6376572515706
 30
0.0
 10
49.60845112446509
 20
206.5650348593723
 30
0.0
 10
49.73153416598596
 20
206.4922559695208
 30
0.0
 10
49.8527081795315
 20
206.4198703643101
 30
0.0
 10
49.97134435678407
 20
206.3483030379739
 30
0.0
 10
50.08741822356147
 20
206.2776267437825
 30
0.0
 10
50.20093847122396
 20
206.2078897787028
 30
0.0
 10
50.3125550823224
 20
206.138736694112
 30
0.0
 10
50.42223606820813
 20
206.0702265780695
 30
0.0
 10
50.52994851554786
 20
206.0024166633563
 30
0.0
 10
50.64088101184821
 20
205.9320526769486
 30
0.0
 10
50.75461849720907
 20
205.8593485352997
 30
0.0
 10
50.87070153443892
 20
205.7845565672232
 30
0.0
 10
50.98401971054594
 20
205.7109945800124
 30
0.0
 10
51.09450818392457
 20
205.6387541782455
 30
0.0
 10
51.20210264094165
 20
205.5679232114442
 30
0.0
 10
51.30702926777953
 20
205.4983978422263
 30
0.0
 10
51.40918321482427
 20
205.4302883463786
 30
0.0
 10
51.50852193485711
 20
205.3636616101579
 30
0.0
 10
51.6045837955307
 20
205.2988693750295
 30
0.0
 10
51.69767499655038
 20
205.2357445769201
 30
0.0
 10
51.78762757388365
 20
205.1744380453407
 30
0.0
 10
51.87432307188002
 20
205.1150653880868
 30
0.0
 10
51.95745583712176
 20
205.0578728110403
 30
0.0
 10
52.03693275035693
 20
205.002961388485
 30
0.0
 10
52.11266989507112
 20
204.9504220609834
 30
0.0
 10
52.18108463523327
 20
204.9027826012997
 30
0.0
 10
52.24273600311605
 20
204.8597131528604
 30
0.0
 10
52.29821436655794
 20
204.8208456863323
 30
0.0
 10
52.35069046964703
 20
204.7839838205142
 30
0.0
 10
52.40250708771759
 20
204.7474940859529
 30
0.0
 10
52.45304643464352
 20
204.7118159920553
 30
0.0
 10
52.50167615344298
 20
204.6774024468758
 30
0.0
 10
52.5461193386187
 20
204.6458808311113
 30
0.0
 10
52.58374120481022
 20
204.6191436402906
 30
0.0
 10
52.61539673954396
 20
204.5966124965175
 30
0.0
 10
52.64190792755171
 20
204.577718520957
 30
0.0
 10
52.66558460075102
 20
204.5608243903089
 30
0.0
 10
52.68640380571806
 20
204.5459531460269
 30
0.0
 10
52.70400985611695
 20
204.5333659270101
 30
0.0
 10
52.71857218639768
 20
204.5229480592774
 30
0.0
 10
52.73026520120361
 20
204.5145776624466
 30
0.0
 10
52.7393888689529
 20
204.5080432371894
 30
0.0
 10
52.74585617881561
 20
204.503410059999
 30
0.0
 10
52.74988236549555
 20
204.5005248385982
 30
0.0
 10
52.7503569071395
 20
204.5001846548034
 30
0.0
 10
52.75059209018416
 20
204.5000160595671
 30
0.0
  0
SPLINE
  5
FD
330
1F
100
AcDbEntity
  8
0
  6
Continuous
 62
     7
370
    30
100
AcDbSpline
210
0.0
220
0.0
230
1.0
 70
     8
 71
     3
 72
    66
 73
    62
 74
     0
 42
0.000000001
 43
0.00000001
 40
0.0
 40
0.0
 40
0.0
 40
0.0
 40
0.0151657856433272
 40
0.0311485913682255
 40
0.0471314003971849
 40
0.0631453300487798
 40
0.0791592663483271
 40
0.0966613308985498
 40
0.1141659105365818
 40
0.1316680284947032
 40
0.1492593605533051
 40
0.1668531730344573
 40
0.1844445813990603
 40
0.1996310722010606
 40
0.214817577249672
 40
0.2300281404882822
 40
0.2452387192506838
 40
0.260568280294617
 40
0.2759007377419224
 40
0.2912332898776216
 40
0.306562980066343
 40
0.3219831082882931
 40
0.3374059697526209
 40
0.3528289312656999
 40
0.3682491959417863
 40
0.383784052234341
 40
0.3993189269682175
 40
0.4148743707189366
 40
0.4304298324910007
 40
0.4471473039895211
 40
0.4638662874920065
 40
0.4805838385319847
 40
0.4973532640698923
 40
0.514124113335125
 40
0.5308936119122265
 40
0.5478237232849811
 40
0.5647538541264505
 40
0.5817052785824274
 40
0.5986567206216795
 40
0.6157646747463569
 40
0.6328739292909729
 40
0.6499819374300753
 40
0.6671350818631927
 40
0.6842894687474076
 40
0.7014426547237749
 40
0.7198651078017773
 40
0.7382890357746306
 40
0.7567115242712762
 40
0.7751861895719971
 40
0.7936622994833564
 40
0.8121369772983219
 40
0.8307821180294345
 40
0.8494272559404532
 40
0.8680961335221928
 40
0.8867650023403447
 40
0.9056075609526688
 40
0.9244516807020067
 40
0.9432941767383471
 40
0.9621955992829548
 40
0.9810986847077807
 40
1.0
 40
1.0
 40
1.0
 40
1.0
 10
31.25065142206697
 20
204.5000266309929
 30
0.0
 10
31.25093716723861
 20
204.5002313448358
 30
0.0
 10
31.25152405141304
 20
204.5006518009854
 30
0.0
 10
31.25665918788797
 20
204.5043317847848
 30
0.0
 10
31.26508572043461
 20
204.5103681405726
 30
0.0
 10
31.27704703090939
 20
204.5189330921144
 30
0.0
 10
31.29292406779743
 20
204.5302943932602
 30
0.0
 10
31.31310777090211
 20
204.5447264994035
 30
0.0
 10
31.33795815084517
 20
204.5624763727974
 30
0.0
 10
31.36690890302824
 20
204.5831289196531
 30
0.0
 10
31.3999599055764
 20
204.6066738054642
 30
0.0
 10
31.43709000887107
 20
204.6330807512954
 30
0.0
 10
31.47633041177181
 20
204.660937027592
 30
0.0
 10
31.51703567792686
 20
204.6897786975436
 30
0.0
 10
31.55862811122002
 20
204.7191924543361
 30
0.0
 10
31.6031251699138
 20
204.7505956667738
 30
0.0
 10
31.65061994026588
 20
204.7840397452224
 30
0.0
 10
31.70108778840331
 20
204.8194930459714
 30
0.0
 10
31.75451593202282
 20
204.8569296896305
 30
0.0
 10
31.81073114198106
 20
204.8962112019956
 30
0.0
 10
31.86980946460744
 20
204.9373736771757
 30
0.0
 10
31.93173852435512
 20
204.9803905030673
 30
0.0
 10
31.99649695749768
 20
205.0252256546183
 30
0.0
 10
32.06391861123227
 20
205.071743343305
 30
0.0
 10
32.13413414865637
 20
205.120012769635
 30
0.0
 10
32.2071272933086
 20
205.169999831711
 30
0.0
 10
32.28291387055891
 20
205.2216897500372
 30
0.0
 10
32.36127858337742
 20
205.2749111934117
 30
0.0
 10
32.44419761858645
 20
205.3309743826024
 30
0.0
 10
32.53182019946829
 20
205.3899312521306
 30
0.0
 10
32.62431886030206
 20
205.4518404763171
 30
0.0
 10
32.71966534130352
 20
205.5153021391171
 30
0.0
 10
32.81782351887482
 20
205.5802558396194
 30
0.0
 10
32.91875467903088
 20
205.6466362979137
 30
0.0
 10
33.02264265232427
 20
205.7145239321085
 30
0.0
 10
33.1294701037659
 20
205.7838627972907
 30
0.0
 10
33.23926954286682
 20
205.8546253667445
 30
0.0
 10
33.3516639372215
 20
205.9265227738973
 30
0.0
 10
33.46696891472892
 20
205.9997080442762
 30
0.0
 10
33.58512819012392
 20
206.0740921714732
 30
0.0
 10
33.70612622848672
 20
206.1496078039812
 30
0.0
 10
33.829673044027
 20
206.2260192979843
 30
0.0
 10
33.95574097467148
 20
206.3032547757152
 30
0.0
 10
34.08430339834762
 20
206.3812383915395
 30
0.0
 10
34.21844663058084
 20
206.4617632065502
 30
0.0
 10
34.35834644808123
 20
206.5447998391842
 30
0.0
 10
34.50417774288317
 20
206.6302958567105
 30
0.0
 10
34.65276000473661
 20
206.7162816657651
 30
0.0
 10
34.80407123749895
 20
206.8026599690795
 30
0.0
 10
34.95809218828344
 20
206.8893268704535
 30
0.0
 10
35.11513595226246
 20
206.9763633572168
 30
0.0
 10
35.27520149983931
 20
207.063662188619
 30
0.0
 10
35.43836737816198
 20
207.1511489719419
 30
0.0
 10
35.60412732023966
 20
207.2384434893211
 30
0.0
 10
35.77298918534368
 20
207.3256957438576
 30
0.0
 10
35.94489595991255
 20
207.4127478338444
 30
0.0
 10
36.11985878521817
 20
207.4994600636759
 30
0.0
 10
36.29750188128953
 20
207.5855306178984
 30
0.0
 10
36.47787979062578
 20
207.6707917302161
 30
0.0
 10
36.66076359458888
 20
207.7552156258757
 30
0.0
 10
36.78478310507492
 20
207.8104871501712
 30
0.0
 10
36.84678995680704
 20
207.8381216183172
 30
0.0
  0
LINE
  5
FE
330
1F
100
AcDbEntity
  8
0
  6
Continuous
 62
     7
370
    30
100
AcDbLine
 10
52.4357510939
 20
202.2249319686
 30
0.0
 11
52.5006144968
 21
202.2249319686
 31
0.0
  0
LINE
  5
FF
330
1F
100
AcDbEntity
  8
0
  6
Continuous
 62
     7
370
    30
100
AcDbLine
 10
31.5006144968
 20
202.2249319686
 30
0.0
 11
52.4357510939
 21
202.2249319686
 31
0.0
  0
LINE
  5
100
330
1F
100
AcDbEntity
  8
0
  6
Continuous
 62
     7
370
    30
100
AcDbLine
 10
45.9723094278
 20
194.9088033625
 30
0.0
 11
31.5231144968
 21
194.9088033625
 31
0.0
  0
LINE
  5
101
330
1F
100
AcDbEntity
  8
0
  6
Continuous
 62
     7
370
    30
100
AcDbLine
 10
52.4781144968
 20
194.9088033625
 30
0.0
 11
45.9723094278
 21
194.9088033625
 31
0.0
  0
LINE
  5
102
330
1F
100
AcDbEntity
  8
0
  6
Continuous
 62
     7
370
    30
100
AcDbLine
 10
51.2585683035
 20
194.2249319686
 30
0.0
 11
51.3161144968
 21
194.2249319686
 31
0.0
  0
LINE
  5
103
330
1F
100
AcDbEntity
  8
0
  6
Continuous
 62
     7
370
    30
100
AcDbLine
 10
32.6851144968
 20
194.2249319686
 30
0.0
 11
51.2585683035
 21
194.2249319686
 31
0.0
  0
LINE
  5
104
330
1F
100
AcDbEntity
  8
0
  6
Continuous
 62
     8
370
     0
100
AcDbLine
 10
75.9831620904
 20
254.8079942626
 30
0.0
 11
87.0006144968
 21
255.0003046097
 31
0.0
  0
LINE
  5
105
330
1F
100
AcDbEntity
  8
0
  6
Continuous
 62
     8
370
     0
100
AcDbLine
 10
87.0006144968
 20
183.9996953903
 30
0.0
 11
75.9831620904
 21
184.1920057374
 31
0.0
  0
LINE
  5
106
330
1F
100
AcDbEntity
  8
0
  6
Continuous
 62
     8
370
     0
100
AcDbLine
 10
75.9831620904
 20
184.1920057374
 30
0.0
 11
75.9831620904
 21
254.8079942626
 31
0.0
  0
SPLINE
  5
107
330
1F
100
AcDbEntity
  8
0
  6
Continuous
 62
     8
370
     0
100
AcDbSpline
210
0.0
220
0.0
230
1.0
 70
     8
 71
     3
 72
    15
 73
    11
 74
     0
 42
0.000000001
 43
0.00000001
 40
0.0
 40
0.0
 40
0.0
 40
0.0
 40
0.1250020887715968
 40
0.2500023871760856
 40
0.3750014919882623
 40
0.5000000000000016
 40
0.6249985080117443
 40
0.749997612823918
 40
0.8749979112284055
 40
1.0
 40
1.0
 40
1.0
 40
1.0
 10
75.98316209037515
 20
184.1920057374107
 30
0.0
 10
75.98206788230159
 20
184.0611339630415
 30
0.0
 10
75.97987948182653
 20
183.79939228874
 30
0.0
 10
75.9774594897249
 20
183.4218803527117
 30
0.0
 10
75.97591063369062
 20
183.0739352018417
 30
0.0
 10
75.97538721507435
 20
182.7690572319856
 30
0.0
 10
75.97591063369062
 20
182.5184556988118
 30
0.0
 10
75.9774594897249
 20
182.3336317687337
 30
0.0
 10
75.97987948182653
 20
182.2146921452318
 30
0.0
 10
75.98206788230159
 20
182.1997709820947
 30
0.0
 10
75.98316209037515
 20
182.1923103470979
 30
0.0
  0
SPLINE
  5
108
330
1F
100
AcDbEntity
  8
0
  6
Continuous
 62
     8
370
     0
100
AcDbSpline
210
0.0
220
0.0
230
1.0
 70
     8
 71
     3
 72
    15
 73
    11
 74
     0
 42
0.000000001
 43
0.00000001
 40
0.0
 40
0.0
 40
0.0
 40
0.0
 40
0.0957811467190572
 40
0.2249558853471824
 40
0.3541293905224462
 40
0.4833022789668641
 40
0.6124751674112853
 40
0.7416486725865481
 40
0.8708234112146725
 40
1.0
 40
1.0
 40
1.0
 40
1.0
 10
75.98235061598248
 20
256.7977428259801
 30
0.0
 10
75.98154423759182
 20
256.7916569669503
 30
0.0
 10
75.97965034123528
 20
256.7773634462204
 30
0.0
 10
75.97746568489625
 20
256.6656747463544
 30
0.0
 10
75.97590897371795
 20
256.4817301178413
 30
0.0
 10
75.97538765985074
 20
256.2308929799299
 30
0.0
 10
75.97591051455349
 20
255.9260781343185
 30
0.0
 10
75.97745952149518
 20
255.5781160909355
 30
0.0
 10
75.97987947388377
 20
255.2006086003666
 30
0.0
 10
75.982067879654
 20
254.9388663333288
 30
0.0
 10
75.98316209037513
 20
254.8079942625893
 30
0.0
  0
LINE
  5
109
330
1F
100
AcDbEntity
  8
0
  6
Continuous
 62
     8
370
     0
100
AcDbLine
 10
75.0006144968
 20
254.8079942626
 30
0.0
 11
75.9831620904
 21
254.8079942626
 31
0.0
  0
LINE
  5
10A
330
1F
100
AcDbEntity
  8
0
  6
Continuous
 62
     8
370
     0
100
AcDbLine
 10
75.9831620904
 20
184.1920057374
 30
0.0
 11
75.0006144968
 21
184.1920057374
 31
0.0
  0
LINE
  5
10B
330
1F
100
AcDbEntity
  8
0
  6
Continuous
 62
     8
370
     0
100
AcDbLine
 10
28.0006144968
 20
234.5
 30
0.0
 11
28.0006144968
 21
204.5
 31
0.0
  0
SPLINE
  5
10C
330
1F
100
AcDbEntity
  8
0
  6
Continuous
 62
     7
370
    30
100
AcDbSpline
210
0.0
220
0.0
230
1.0
 70
     8
 71
     3
 72
    41
 73
    37
 74
     0
 42
0.000000001
 43
0.00000001
 40
0.0
 40
0.0
 40
0.0
 40
0.0
 40
0.0395645369203743
 40
0.0783305856628179
 40
0.1163932381639601
 40
0.1542709338093672
 40
0.1938201553273275
 40
0.235159205846134
 40
0.278265587180293
 40
0.322983426737648
 40
0.3686444546706021
 40
0.4033961743136767
 40
0.4385270452323977
 40
0.4739868275760517
 40
0.5097223032143279
 40
0.5456776987878436
 40
0.5817494852310249
 40
0.6171960838972266
 40
0.6517428841940494
 40
0.6853537771693177
 40
0.7180000411127023
 40
0.7496599520088193
 40
0.7803183128448412
 40
0.8195809709160462
 40
0.8569041541761793
 40
0.8922977120866284
 40
0.9180287442712494
 40
0.9436809093595072
 40
0.9500098005362799
 40
0.9561367985870353
 40
0.9622789235808704
 40
0.9686636519598185
 40
0.9754877972085273
 40
0.9829092637609051
 40
0.9910493331243265
 40
1.0
 40
1.0
 40
1.0
 40
1.0
 10
171.1949700889176
 20
116.9822991485744
 30
0.0
 10
171.1957163909889
 20
116.9616566879809
 30
0.0
 10
171.1971939333253
 20
116.9207883712086
 30
0.0
 10
171.2041073569159
 20
116.8603791391929
 30
0.0
 10
171.2142198980375
 20
116.801347143309
 30
0.0
 10
171.2279806212686
 20
116.7426280953642
 30
0.0
 10
171.2457411824712
 20
116.6832078983719
 30
0.0
 10
171.2681745344282
 20
116.6224680812021
 30
0.0
 10
171.2956672717567
 20
116.5608765535512
 30
0.0
 10
171.328382721144
 20
116.4993264729462
 30
0.0
 10
171.3630514198737
 20
116.4439400188947
 30
0.0
 10
171.3981993465297
 20
116.3949361931102
 30
0.0
 10
171.4326377934773
 20
116.3520782264073
 30
0.0
 10
171.4697314514444
 20
116.3108088573729
 30
0.0
 10
171.5093693124783
 20
116.2713689992264
 30
0.0
 10
171.5513935317105
 20
116.2340055450461
 30
0.0
 10
171.5953364401571
 20
116.1991667725365
 30
0.0
 10
171.6405564690609
 20
116.1672694796892
 30
0.0
 10
171.6863643513581
 20
116.1385824477232
 30
0.0
 10
171.7323564458966
 20
116.113091693091
 30
0.0
 10
171.7782523614663
 20
116.090684528528
 30
0.0
 10
171.8237994936462
 20
116.0712241570011
 30
0.0
 10
171.8734734376825
 20
116.052812990823
 30
0.0
 10
171.9269160146796
 20
116.0362731209138
 30
0.0
 10
171.9836480979385
 20
116.0223843000562
 30
0.0
 10
172.0341293231445
 20
116.0130363254292
 30
0.0
 10
172.078977420753
 20
116.006938170763
 30
0.0
 10
172.1088913105919
 20
116.0040899109777
 30
0.0
 10
172.1287621868488
 20
116.0027006030597
 30
0.0
 10
172.1381710953601
 20
116.0021289454738
 30
0.0
 10
172.146907022626
 20
116.0016760408369
 30
0.0
 10
172.154969315055
 20
116.0013263449405
 30
0.0
 10
172.1623984019693
 20
116.0010641906379
 30
0.0
 10
172.1692416233488
 20
116.0008755368637
 30
0.0
 10
172.1756291289373
 20
116.0007443712425
 30
0.0
 10
172.1792737405056
 20
116.0006986664249
 30
0.0
 10
172.1811824765356
 20
116.0006747301479
 30
0.0
  0
SPLINE
  5
10D
330
1F
100
AcDbEntity
  8
0
  6
Continuous
 62
     7
370
    30
100
AcDbSpline
210
0.0
220
0.0
230
1.0
 70
     8
 71
     3
 72
    46
 73
    42
 74
     0
 42
0.000000001
 43
0.00000001
 40
0.0
 40
0.0
 40
0.0
 40
0.0
 40
0.0105428129214766
 40
0.0200416974403704
 40
0.0286932581901584
 40
0.034784212069655
 40
0.0406796582037614
 40
0.0465321562446588
 40
0.0525026843147738
 40
0.0683064177318285
 40
0.0845442860385281
 40
0.1011659701106445
 40
0.1212517185355884
 40
0.1418775907257521
 40
0.1800730249287967
 40
0.2200278119777527
 40
0.2514633453599384
 40
0.2838902534804286
 40
0.3172707224290605
 40
0.3512602046711367
 40
0.3857084590970725
 40
0.4205712644317126
 40
0.455800840564126
 40
0.4913461539610226
 40
0.5271532921651114
 40
0.5631659021674975
 40
0.5991758140427123
 40
0.6344115997057648
 40
0.6687373976991552
 40
0.7021189551624907
 40
0.7345293214892618
 40
0.7659484363196953
 40
0.7999435617121247
 40
0.8326151109318135
 40
0.8639142244091693
 40
0.8938501450130086
 40
0.9122464562238785
 40
0.9318766687363187
 40
0.952921465857818
 40
0.9754741132497773
 40
1.0
 40
1.0
 40
1.0
 40
1.0
 10
244.8188175234644
 20
116.0006747301479
 30
0.0
 10
244.8210948117517
 20
116.0007038078466
 30
0.0
 10
244.8254238957616
 20
116.0007590840281
 30
0.0
 10
244.8334473334961
 20
116.0009389325043
 30
0.0
 10
244.8416901755705
 20
116.0011976355846
 30
0.0
 10
244.8499361492454
 20
116.001530657406
 30
0.0
 10
244.8579037949403
 20
116.0019151749001
 30
0.0
 10
244.866494494313
 20
116.0024009103753
 30
0.0
 10
244.8806222953824
 20
116.0033224452974
 30
0.0
 10
244.9004892960006
 20
116.0049441170426
 30
0.0
 10
244.9256626443846
 20
116.0076461235135
 30
0.0
 10
244.9530254022677
 20
116.0112937216444
 30
0.0
 10
244.9825150014955
 20
116.0160935751659
 30
0.0
 10
245.022876113066
 20
116.0239910978115
 30
0.0
 10
245.0729141650593
 20
116.0362008483439
 30
0.0
 10
245.1274999392392
 20
116.0531210132703
 30
0.0
 10
245.1782227216607
 20
116.0720120202111
 30
0.0
 10
245.2247934944849
 20
116.0920626053537
 30
0.0
 10
245.2714667019661
 20
116.1150769822507
 30
0.0
 10
245.3177838135976
 20
116.1410385063997
 30
0.0
 10
245.3632998346363
 20
116.1698599163419
 30
0.0
 10
245.4077153705813
 20
116.2014857893778
 30
0.0
 10
245.4507796803935
 20
116.2358601507636
 30
0.0
 10
245.4922447958189
 20
116.2728978054613
 30
0.0
 10
245.5318696998114
 20
116.3124843232573
 30
0.0
 10
245.5693724480892
 20
116.3544184539136
 30
0.0
 10
245.6042700443468
 20
116.3981687552498
 30
0.0
 10
245.6361675795952
 20
116.4430799292581
 30
0.0
 10
245.6648440158216
 20
116.488501735866
 30
0.0
 10
245.6903566117931
 20
116.5340928208626
 30
0.0
 10
245.7128195280235
 20
116.5795772519253
 30
0.0
 10
245.7331125613592
 20
116.6264202070853
 30
0.0
 10
245.7510340971181
 20
116.6743734721032
 30
0.0
 10
245.766413885211
 20
116.7231354361932
 30
0.0
 10
245.7788010239772
 20
116.7705552087419
 30
0.0
 10
245.7873695965265
 20
116.8112239793628
 30
0.0
 10
245.7933631944226
 20
116.8461760512409
 30
0.0
 10
245.7976731216327
 20
116.8766984595893
 30
0.0
 10
245.8012230796119
 20
116.9094998053012
 30
0.0
 10
245.8039353597923
 20
116.9449509234824
 30
0.0
 10
245.8046550062839
 20
116.9695066655473
 30
0.0
 10
245.8050299110823
 20
116.9822991485744
 30
0.0
  0
SPLINE
  5
10E
330
1F
100
AcDbEntity
  8
0
  6
Continuous
 62
     7
370
    30
100
AcDbSpline
210
0.0
220
0.0
230
1.0
 70
     8
 71
     3
 72
    10
 73
     6
 74
     0
 42
0.000000001
 43
0.00000001
 40
0.0
 40
0.0
 40
0.0
 40
0.0
 40
0.4897379681225592
 40
0.9252425084826196
 40
1.0
 40
1.0
 40
1.0
 40
1.0
 10
171.1924210441164
 20
116.977681233758
 30
0.0
 10
171.1925088145248
 20
116.9753923759892
 30
0.0
 10
171.1926746356743
 20
116.9710681278372
 30
0.0
 10
171.1930849815435
 20
116.9656161187006
 30
0.0
 10
171.193441938465
 20
116.9619880111859
 30
0.0
 10
171.1934942355249
 20
116.9614564642555
 30
0.0
  0
SPLINE
  5
10F
330
1F
100
AcDbEntity
  8
0
  6
Continuous
 62
     7
370
    30
100
AcDbSpline
210
0.0
220
0.0
230
1.0
 70
     8
 71
     3
 72
    10
 73
     6
 74
     0
 42
0.000000001
 43
0.00000001
 40
0.0
 40
0.0
 40
0.0
 40
0.0
 40
0.1384236985166524
 40
0.5465430464759968
 40
1.0
 40
1.0
 40
1.0
 40
1.0
 10
245.8064825092492
 20
116.9610300987092
 30
0.0
 10
245.8065763562351
 20
116.9620237684356
 30
0.0
 10
245.806946895515
 20
116.9659471087687
 30
0.0
 10
245.8073524193575
 20
116.9715289713774
 30
0.0
 10
245.8075008403333
 20
116.9755597775771
 30
0.0
 10
245.8075789559029
 20
116.9776812346047
 30
0.0
  0
ARC
  5
110
330
1F
100
AcDbEntity
  8
0
  6
Continuous
 62
     7
370
    30
100
AcDbCircle
 10
194.5
 20
69.0006144968
 30
0.0
 40
1.0
100
AcDbArc
 50
180.0
 51
270.0
  0
ARC
  5
111
330
1F
100
AcDbEntity
  8
0
  6
Continuous
 62
     7
370
    30
100
AcDbCircle
 10
222.5
 20
69.0006144968
 30
0.0
 40
1.0
100
AcDbArc
 50
270.0
 51
0.0
  0
LINE
  5
112
330
1F
100
AcDbEntity
  8
0
  6
Continuous
 62
     7
370
    30
100
AcDbLine
 10
193.5
 20
116.0006144968
 30
0.0
 11
193.5
 21
69.0006144968
 31
0.0
  0
LINE
  5
113
330
1F
100
AcDbEntity
  8
0
  6
Continuous
 62
     7
370
    30
100
AcDbLine
 10
223.5
 20
69.0006144968
 30
0.0
 11
223.5
 21
116.0006144968
 31
0.0
  0
LINE
  5
114
330
1F
100
AcDbEntity
  8
0
  6
Continuous
 62
     7
370
    30
100
AcDbLine
 10
171.1923103471
 20
116.9831620904
 30
0.0
 11
171.202257174
 21
116.982350616
 31
0.0
  0
LINE
  5
115
330
1F
100
AcDbEntity
  8
0
  6
Continuous
 62
     7
370
    30
100
AcDbLine
 10
171.0
 20
128.0006144968
 30
0.0
 11
171.1923103471
 21
116.9831620904
 31
0.0
  0
LINE
  5
116
330
1F
100
AcDbEntity
  8
0
  6
Continuous
 62
     7
370
    30
100
AcDbLine
 10
171.0
 20
128.0006144968
 30
0.0
 11
172.9996953903
 21
128.0006144968
 31
0.0
  0
LINE
  5
117
330
1F
100
AcDbEntity
  8
0
  6
Continuous
 62
     7
370
    30
100
AcDbLine
 10
172.9996953903
 20
128.0006144968
 30
0.0
 11
244.0003046097
 21
128.0006144968
 31
0.0
  0
LINE
  5
118
330
1F
100
AcDbEntity
  8
0
  6
Continuous
 62
     7
370
    30
100
AcDbLine
 10
245.7977429237
 20
116.982350624
 30
0.0
 11
245.8076896529
 21
116.9831620904
 31
0.0
  0
LINE
  5
119
330
1F
100
AcDbEntity
  8
0
  6
Continuous
 62
     7
370
    30
100
AcDbLine
 10
244.0003046097
 20
128.0006144968
 30
0.0
 11
246.0
 21
128.0006144968
 31
0.0
  0
LINE
  5
11A
330
1F
100
AcDbEntity
  8
0
  6
Continuous
 62
     7
370
    30
100
AcDbLine
 10
245.8076896529
 20
116.9831620904
 30
0.0
 11
246.0
 21
128.0006144968
 31
0.0
  0
LINE
  5
11B
330
1F
100
AcDbEntity
  8
0
  6
Continuous
 62
     7
370
    30
100
AcDbLine
 10
243.8079942626
 20
116.0006144968
 30
0.0
 11
173.1920057374
 21
116.0006144968
 31
0.0
  0
SPLINE
  5
11C
330
1F
100
AcDbEntity
  8
0
  6
Continuous
 62
     7
370
    30
100
AcDbSpline
210
0.0
220
0.0
230
1.0
 70
    24
 71
     3
 72
    35
 73
    31
 74
     0
 42
0.000000001
 43
0.00000001
 40
0.0
 40
0.0
 40
0.0
 40
0.0
 40
0.0403124923457408
 40
0.0802865445938826
 40
0.1200806612851023
 40
0.1598554981724484
 40
0.1997719438017721
 40
0.2399891872432044
 40
0.2663166637270227
 40
0.2924560158888984
 40
0.3184499430507474
 40
0.344341864021686
 40
0.3701757119396816
 40
0.4132177745792712
 40
0.4564262133385907
 40
0.5000034979220932
 40
0.5437683803409913
 40
0.5870904686532413
 40
0.6301706058371686
 40
0.6732130219554472
 40
0.7164224819413183
 40
0.7600013961166733
 40
0.7902707291056263
 40
0.8203295376661799
 40
0.8502438273250557
 40
0.880080562748719
 40
0.9099072309655938
 40
0.9397913872081203
 40
0.9698001984635997
 40
1.0
 40
1.0
 40
1.0
 40
1.0
 10
172.1921580422543
 20
116.0006144968125
 30
0.0
 10
172.1925294059245
 20
116.0006144968125
 30
0.0
 10
172.1932690155129
 20
116.0006144968124
 30
0.0
 10
172.1993338706411
 20
116.0006144968125
 30
0.0
 10
172.2090406802227
 20
116.0006144968125
 30
0.0
 10
172.2227368005458
 20
116.0006144968125
 30
0.0
 10
172.2403259772983
 20
116.0006144968124
 30
0.0
 10
172.2592872821446
 20
116.0006144968125
 30
0.0
 10
172.2780626955414
 20
116.0006144968125
 30
0.0
 10
172.2954617850069
 20
116.0006144968124
 30
0.0
 10
172.3142568371004
 20
116.0006144968125
 30
0.0
 10
172.3344468663179
 20
116.0006144968124
 30
0.0
 10
172.3608239212473
 20
116.0006144968125
 30
0.0
 10
172.3947419136153
 20
116.0006144968125
 30
0.0
 10
172.4377584230974
 20
116.0006144968125
 30
0.0
 10
172.4845253732414
 20
116.0006144968124
 30
0.0
 10
172.5345182977129
 20
116.0006144968125
 30
0.0
 10
172.5873515050756
 20
116.0006144968125
 30
0.0
 10
172.6427142571624
 20
116.0006144968125
 30
0.0
 10
172.7006016463034
 20
116.0006144968125
 30
0.0
 10
172.7610087293403
 20
116.0006144968125
 30
0.0
 10
172.8172671573647
 20
116.0006144968125
 30
0.0
 10
172.8683149758455
 20
116.0006144968125
 30
0.0
 10
172.9133653828925
 20
116.0006144968125
 30
0.0
 10
172.9588201291661
 20
116.0006144968125
 30
0.0
 10
173.0046789313881
 20
116.0006144968124
 30
0.0
 10
173.0509410157566
 20
116.0006144968125
 30
0.0
 10
173.0976056717849
 20
116.0006144968125
 30
0.0
 10
173.144672249501
 20
116.0006144968125
 30
0.0
 10
173.1761945770058
 20
116.0006144968125
 30
0.0
 10
173.1920057374107
 20
116.0006144968125
 30
0.0
  0
ARC
  5
11D
330
1F
100
AcDbEntity
  8
0
  6
Continuous
 62
     7
370
    30
100
AcDbCircle
 10
172.1921580423
 20
117.0006144968
 30
0.0
 40
1.000000000000041
100
AcDbArc
 50
181.0
 51
250.8802376144
  0
LWPOLYLINE
  5
11E
330
1F
100
AcDbEntity
  8
0
  6
Continuous
 62
     7
370
    30
100
AcDbPolyline
 90
        3
 70
   128
 43
0.0
 10
172.123435265
 20
116.0029787016
 10
172.1542806897
 20
116.0013321012
 10
172.1921580423
 20
116.0006144968
  0
LWPOLYLINE
  5
11F
330
1F
100
AcDbEntity
  8
0
  6
Continuous
 62
     7
370
    30
100
AcDbPolyline
 90
        3
 70
   128
 43
0.0
 10
244.8078419577
 20
116.0006144968
 10
244.8457193103
 20
116.0013321012
 10
244.8782008151
 20
116.0030927521
  0
ARC
  5
120
330
1F
100
AcDbEntity
  8
0
  6
Continuous
 62
     7
370
    30
100
AcDbCircle
 10
244.8078419577
 20
117.0006144968
 30
0.0
 40
0.9999999999999838
100
AcDbArc
 50
289.1691715623
 51
359.0
  0
SPLINE
  5
121
330
1F
100
AcDbEntity
  8
0
  6
Continuous
 62
     7
370
    30
100
AcDbSpline
210
0.0
220
0.0
230
1.0
 70
    24
 71
     3
 72
    35
 73
    31
 74
     0
 42
0.000000001
 43
0.00000001
 40
0.0
 40
0.0
 40
0.0
 40
0.0
 40
0.0403124923459682
 40
0.0802865445942529
 40
0.120080661285514
 40
0.1598554981728062
 40
0.1997719438020006
 40
0.2399891872432261
 40
0.2663166637269236
 40
0.2924560158887043
 40
0.3184499430504882
 40
0.3443418640213867
 40
0.3701757119393762
 40
0.4132177745789991
 40
0.456426213338418
 40
0.5000034979220594
 40
0.5437683803383941
 40
0.587090468649092
 40
0.6301706058325126
 40
0.6732130219513077
 40
0.7164224819386764
 40
0.7600013961164945
 40
0.7902707291038394
 40
0.8203295376632361
 40
0.8502438273214122
 40
0.8800805627448371
 40
0.9099072309619475
 40
0.9397913872051951
 40
0.969800198461902
 40
1.0
 40
1.0
 40
1.0
 40
1.0
 10
243.8079942625893
 20
116.0006144968125
 30
0.0
 10
243.8291015175566
 20
116.0006144968125
 30
0.0
 10
243.8711388233289
 20
116.0006144968125
 30
0.0
 10
243.9337708133038
 20
116.0006144968125
 30
0.0
 10
243.9956282726319
 20
116.0006144968125
 30
0.0
 10
244.0567083521447
 20
116.0006144968124
 30
0.0
 10
244.1170081533159
 20
116.0006144968125
 30
0.0
 10
244.1694569623212
 20
116.0006144968124
 30
0.0
 10
244.2142097711726
 20
116.0006144968125
 30
0.0
 10
244.2514297812627
 20
116.0006144968125
 30
0.0
 10
244.287707801822
 20
116.0006144968124
 30
0.0
 10
244.3230450862932
 20
116.0006144968125
 30
0.0
 10
244.3650780170171
 20
116.0006144968124
 30
0.0
 10
244.4130193601217
 20
116.0006144968125
 30
0.0
 10
244.4657073270937
 20
116.0006144968125
 30
0.0
 10
244.515614257947
 20
116.0006144968124
 30
0.0
 10
244.5623750860044
 20
116.0006144968125
 30
0.0
 10
244.6054950003495
 20
116.0006144968125
 30
0.0
 10
244.6446653025479
 20
116.0006144968124
 30
0.0
 10
244.6798851759848
 20
116.0006144968125
 30
0.0
 10
244.7111526017962
 20
116.0006144968125
 30
0.0
 10
244.735569449463
 20
116.0006144968125
 30
0.0
 10
244.7544086995134
 20
116.0006144968125
 30
0.0
 10
244.7686900676123
 20
116.0006144968125
 30
0.0
 10
244.780773290017
 20
116.0006144968125
 30
0.0
 10
244.7906553599444
 20
116.0006144968125
 30
0.0
 10
244.7983497545128
 20
116.0006144968125
 30
0.0
 10
244.8038041934984
 20
116.0006144968125
 30
0.0
 10
244.8072148098998
 20
116.0006144968124
 30
0.0
 10
244.8076324668413
 20
116.0006144968125
 30
0.0
 10
244.8078419577457
 20
116.0006144968125
 30
0.0
  0
LINE
  5
122
330
1F
100
AcDbEntity
  8
0
  6
Continuous
 62
     7
370
    30
100
AcDbLine
 10
172.1921580423
 20
116.0006144968
 30
0.0
 11
172.1793464848
 21
116.0006965682
 31
0.0
  0
SPLINE
  5
123
330
1F
100
AcDbEntity
  8
0
  6
Continuous
 62
     7
370
    30
100
AcDbSpline
210
0.0
220
0.0
230
1.0
 70
    24
 71
     3
 72
    77
 73
    73
 74
     0
 42
0.000000001
 43
0.00000001
 40
0.0
 40
0.0
 40
0.0
 40
0.0
 40
0.017895084376062
 40
0.0357661841431112
 40
0.0536198230739824
 40
0.0714625440939577
 40
0.0893009021420536
 40
0.1071414569663889
 40
0.1191611561383257
 40
0.131186826712866
 40
0.1432204664949202
 40
0.1552640693235794
 40
0.167319624094643
 40
0.1798901133348532
 40
0.1926606878993957
 40
0.2105194387860676
 40
0.2283608499817025
 40
0.2461914612781741
 40
0.264017824353535
 40
0.2818464955692468
 40
0.2949262092425211
 40
0.3080132703483143
 40
0.3211102561098453
 40
0.3262588127675408
 40
0.3314094536746853
 40
0.3365623342561521
 40
0.3417176097342454
 40
0.3468754351150485
 40
0.3520359651748725
 40
0.3696870625103059
 40
0.387312031047719
 40
0.4049171220152087
 40
0.4225086078316848
 40
0.4400927754752749
 40
0.457675919774103
 40
0.4680395819093949
 40
0.4784063626707282
 40
0.4887775485246084
 40
0.4991544242991856
 40
0.5095382727105114
 40
0.5199303738927021
 40
0.5303320049328559
 40
0.5407444394115547
 40
0.5587733937175119
 40
0.5767744579117571
 40
0.5947542903754498
 40
0.6127195730967891
 40
0.6306770043059274
 40
0.6486332910195631
 40
0.6655685124582391
 40
0.68251429786996
 40
0.6994762545981422
 40
0.7164599739688483
 40
0.7334710258488054
 40
0.7514999807824787
 40
0.7695010453731613
 40
0.7874808780546089
 40
0.8054461608680012
 40
0.8234035920967407
 40
0.8413598788109264
 40
0.8534557150592753
 40
0.8655561227098966
 40
0.8776631472411928
 40
0.8897788307802036
 40
0.9019052110793431
 40
0.9140443205041365
 40
0.9261981850344289
 40
0.9438492841005177
 40
0.9614742537308735
 40
0.9790793452986725
 40
0.9966708313689209
 40
1.0
 40
1.0
 40
1.0
 40
1.0
 10
215.21195754046
 20
68.00061449681245
 30
0.0
 10
215.2901987505258
 20
68.00061449681245
 30
0.0
 10
215.4465763047182
 20
68.00061449681245
 30
0.0
 10
215.6778226867029
 20
68.00061449681245
 30
0.0
 10
215.9063935303067
 20
68.00061449681245
 30
0.0
 10
216.1320667669575
 20
68.00061449681245
 30
0.0
 10
216.3549014061337
 20
68.00061449681245
 30
0.0
 10
216.5509250909224
 20
68.00061449681245
 30
0.0
 10
216.7211228306516
 20
68.00061449681246
 30
0.0
 10
216.8663596786322
 20
68.00061449681246
 30
0.0
 10
217.0103035451932
 20
68.00061449681245
 30
0.0
 10
217.1529546298474
 20
68.00061449681245
 30
0.0
 10
217.2962706063162
 20
68.00061449681245
 30
0.0
 10
217.4408936772374
 20
68.00061449681245
 30
0.0
 10
217.6060998128766
 20
68.00061449681246
 30
0.0
 10
217.7888944442909
 20
68.00061449681243
 30
0.0
 10
217.9873760076181
 20
68.00061449681245
 30
0.0
 10
218.1822667873268
 20
68.00061449681246
 30
0.0
 10
218.3735662055823
 20
68.00061449681245
 30
0.0
 10
218.5445795905683
 20
68.00061449681246
 30
0.0
 10
218.696335885122
 20
68.00061449681242
 30
0.0
 10
218.8297641347968
 20
68.00061449681246
 30
0.0
 10
218.9346202458565
 20
68.00061449681245
 30
0.0
 10
219.0120641698469
 20
68.00061449681245
 30
0.0
 10
219.0628936712575
 20
68.00061449681246
 30
0.0
 10
219.1134251824876
 20
68.00061449681245
 30
0.0
 10
219.1636587328536
 20
68.00061449681245
 30
0.0
 10
219.2135943252782
 20
68.00061449681246
 30
0.0
 10
219.3032700262809
 20
68.00061449681245
 30
0.0
 10
219.4310413525783
 20
68.00061449681246
 30
0.0
 10
219.5942525961897
 20
68.00061449681245
 30
0.0
 10
219.753336323966
 20
68.00061449681246
 30
0.0
 10
219.9082918627691
 20
68.00061449681242
 30
0.0
 10
220.0591190603473
 20
68.00061449681246
 30
0.0
 10
220.1857286636046
 20
68.00061449681245
 30
0.0
 10
220.2898600075169
 20
68.00061449681246
 30
0.0
 10
220.3729318344712
 20
68.00061449681246
 30
0.0
 10
220.454570337889
 20
68.00061449681245
 30
0.0
 10
220.5347756214699
 20
68.00061449681245
 30
0.0
 10
220.6135476489466
 20
68.00061449681245
 30
0.0
 10
220.6908864458194
 20
68.00061449681245
 30
0.0
 10
220.7667919322871
 20
68.00061449681246
 30
0.0
 10
220.8593933183215
 20
68.00061449681246
 30
0.0
 10
220.9670298950506
 20
68.00061449681245
 30
0.0
 10
221.0875874235973
 20
68.00061449681245
 30
0.0
 10
221.2033355507376
 20
68.00061449681243
 30
0.0
 10
221.3142736800694
 20
68.00061449681246
 30
0.0
 10
221.4204018765907
 20
68.00061449681245
 30
0.0
 10
221.5197894640394
 20
68.00061449681245
 30
0.0
 10
221.6127506142243
 20
68.00061449681246
 30
0.0
 10
221.6995959841703
 20
68.00061449681245
 30
0.0
 10
221.7821655410224
 20
68.00061449681246
 30
0.0
 10
221.8604588623247
 20
68.00061449681245
 30
0.0
 10
221.9359061071503
 20
68.00061449681245
 30
0.0
 10
222.0081076148479
 20
68.00061449681246
 30
0.0
 10
222.076624760821
 20
68.00061449681245
 30
0.0
 10
222.140026785766
 20
68.00061449681245
 30
0.0
 10
222.1983131565198
 20
68.00061449681246
 30
0.0
 10
222.2514839170296
 20
68.00061449681245
 30
0.0
 10
222.2943069164077
 20
68.00061449681246
 30
0.0
 10
222.3285477001313
 20
68.00061449681245
 30
0.0
 10
222.3557062930462
 20
68.00061449681245
 30
0.0
 10
222.3805451018412
 20
68.00061449681245
 30
0.0
 10
222.4030640296346
 20
68.00061449681246
 30
0.0
 10
222.4232635919637
 20
68.00061449681243
 30
0.0
 10
222.4411418263605
 20
68.00061449681246
 30
0.0
 10
222.4590453897135
 20
68.00061449681246
 30
0.0
 10
222.4755296501394
 20
68.00061449681245
 30
0.0
 10
222.4890662538864
 20
68.00061449681246
 30
0.0
 10
222.4971681797811
 20
68.00061449681242
 30
0.0
 10
222.5006525166017
 20
68.00061449681247
 30
0.0
 10
222.4999076976902
 20
68.00061449681245
 30
0.0
 10
222.4997891723481
 20
68.00061449681245
 30
0.0
  0
SPLINE
  5
124
330
1F
100
AcDbEntity
  8
0
  6
Continuous
 62
     7
370
    30
100
AcDbSpline
210
0.0
220
0.0
230
1.0
 70
    24
 71
     3
 72
   146
 73
   142
 74
     0
 42
0.000000001
 43
0.00000001
 40
0.0
 40
0.0
 40
0.0
 40
0.0
 40
0.0073711718167891
 40
0.0164633069413615
 40
0.024466560425426
 40
0.0324741421871326
 40
0.0404882655136645
 40
0.0431887857905869
 40
0.0458903823292091
 40
0.0485931391594862
 40
0.0512971402032012
 40
0.0540024692663472
 40
0.0567092100315629
 40
0.0594174460506253
 40
0.067827255188474
 40
0.0762260102869983
 40
0.0846162413861632
 40
0.0930004862425749
 40
0.1013812880508507
 40
0.1097611931403726
 40
0.1181427486577963
 40
0.1247311046414008
 40
0.1313232843145177
 40
0.1379205187534207
 40
0.144524036207344
 40
0.1511350614235965
 40
0.1574815364105963
 40
0.1637095375308242
 40
0.1724201411988858
 40
0.1811233432033977
 40
0.1898219818017935
 40
0.1985188997193397
 40
0.2072169413683801
 40
0.2157635099132806
 40
0.2243165951556899
 40
0.2328788810185842
 40
0.2414530427848843
 40
0.2507047796832249
 40
0.2599445071890975
 40
0.2691756015415801
 40
0.2784014484577767
 40
0.2876254394330949
 40
0.2968509680097899
 40
0.3030667010040927
 40
0.3092857046729551
 40
0.3155090121979597
 40
0.3217376546189714
 40
0.327972660329271
 40
0.334473158178152
 40
0.3410767432693467
 40
0.3503113928543598
 40
0.3595370761924473
 40
0.3687571749695231
 40
0.3779750770177707
 40
0.3871941725911351
 40
0.3939576116027954
 40
0.400724849926362
 40
0.4074972202280151
 40
0.4101595070197908
 40
0.4128228715640624
 40
0.4154873942300701
 40
0.4181531552823072
 40
0.42082023487346
 40
0.4234887130374014
 40
0.4326159862559179
 40
0.441729748434657
 40
0.4508332320449889
 40
0.4599296805159229
 40
0.4690223448049489
 40
0.4781144799287414
 40
0.483473465495264
 40
0.4888340636840207
 40
0.4941969397188817
 40
0.4995627579765336
 40
0.5049321817415103
 40
0.5103058729632427
 40
0.5156844920155673
 40
0.5210686974591235
 40
0.5303913581793985
 40
0.5396995970954359
 40
0.5489968572149357
 40
0.5582865937526515
 40
0.5675722703219508
 40
0.5768573550796692
 40
0.5856144533013641
 40
0.594377014088124
 40
0.6031479369625352
 40
0.6119301131647091
 40
0.6207264228382683
 40
0.630049083883
 40
0.6393573230039286
 40
0.6486545832359507
 40
0.6579443198212164
 40
0.6672299964006282
 40
0.6765150811586352
 40
0.682769763241432
 40
0.6890268091680543
 40
0.6952872766427276
 40
0.7015522216367089
 40
0.7078226978591632
 40
0.7140997562337283
 40
0.7203844443820476
 40
0.7295117184953751
 40
0.7386254812391888
 40
0.7477289651598785
 40
0.7568254137619987
 40
0.7659180780789521
 40
0.7750102132035309
 40
0.7830134666876387
 40
0.7910210484494237
 40
0.799035171776069
 40
0.8017356920530374
 40
0.8044372885917096
 40
0.8071400454220407
 40
0.8098440464658136
 40
0.8125493755290214
 40
0.8152561162943028
 40
0.8179643523134351
 40
0.8263741614513151
 40
0.8347729165498644
 40
0.843163147649048
 40
0.8515473925054721
 40
0.8599281943137542
 40
0.8683080994032766
 40
0.8766896549206947
 40
0.883278010904291
 40
0.8898701905773966
 40
0.8964674250162848
 40
0.9030709424701905
 40
0.9096819676864218
 40
0.9160293124496558
 40
0.9222583920915909
 40
0.9309701980368101
 40
0.9396742434120056
 40
0.9483733668320756
 40
0.9570704117313279
 40
0.9657682235825614
 40
0.974314220518697
 40
0.9828663930213982
 40
0.9914274269913511
 40
1.0
 40
1.0
 40
1.0
 40
1.0
 10
194.5002108276525
 20
68.00061449681245
 30
0.0
 10
194.5003656608036
 20
68.00061449681246
 30
0.0
 10
194.500711476334
 20
68.00061449681246
 30
0.0
 10
194.5069492842682
 20
68.00061449681245
 30
0.0
 10
194.5171560609772
 20
68.00061449681245
 30
0.0
 10
194.5309041266312
 20
68.00061449681245
 30
0.0
 10
194.5445910136689
 20
68.00061449681245
 30
0.0
 10
194.5558350818444
 20
68.00061449681245
 30
0.0
 10
194.5630625813448
 20
68.00061449681246
 30
0.0
 10
194.5707281346282
 20
68.00061449681245
 30
0.0
 10
194.5788316162435
 20
68.00061449681245
 30
0.0
 10
194.5873730342507
 20
68.00061449681245
 30
0.0
 10
194.596352481533
 20
68.00061449681245
 30
0.0
 10
194.6123761959441
 20
68.00061449681246
 30
0.0
 10
194.6371333078536
 20
68.00061449681246
 30
0.0
 10
194.6732792544884
 20
68.00061449681245
 30
0.0
 10
194.7135635661142
 20
68.00061449681245
 30
0.0
 10
194.7579864500941
 20
68.00061449681245
 30
0.0
 10
194.8065478592027
 20
68.00061449681245
 30
0.0
 10
194.8592477402823
 20
68.00061449681246
 30
0.0
 10
194.9120237580113
 20
68.00061449681245
 30
0.0
 10
194.9639033575128
 20
68.00061449681246
 30
0.0
 10
195.0140168350513
 20
68.00061449681245
 30
0.0
 10
195.0666848823355
 20
68.00061449681245
 30
0.0
 10
195.1219074354799
 20
68.00061449681246
 30
0.0
 10
195.1788887151741
 20
68.00061449681245
 30
0.0
 10
195.2371198876874
 20
68.00061449681246
 30
0.0
 10
195.3042486485355
 20
68.00061449681245
 30
0.0
 10
195.3821368029521
 20
68.00061449681245
 30
0.0
 10
195.4724317485035
 20
68.00061449681246
 30
0.0
 10
195.5669210705172
 20
68.00061449681245
 30
0.0
 10
195.6656046639423
 20
68.00061449681246
 30
0.0
 10
195.76786977388
 20
68.00061449681246
 30
0.0
 10
195.8736290938321
 20
68.00061449681246
 30
0.0
 10
195.982797352808
 20
68.00061449681245
 30
0.0
 10
196.0960116410407
 20
68.00061449681245
 30
0.0
 10
196.2162922556576
 20
68.00061449681245
 30
0.0
 10
196.3438631883782
 20
68.00061449681246
 30
0.0
 10
196.4789742299917
 20
68.00061449681246
 30
0.0
 10
196.6183575167146
 20
68.00061449681246
 30
0.0
 10
196.7620135194263
 20
68.00061449681245
 30
0.0
 10
196.9099418106844
 20
68.00061449681245
 30
0.0
 10
197.0455665061482
 20
68.00061449681245
 30
0.0
 10
197.167408559762
 20
68.00061449681245
 30
0.0
 10
197.2742452207621
 20
68.00061449681246
 30
0.0
 10
197.3830192161993
 20
68.00061449681245
 30
0.0
 10
197.4937305771646
 20
68.00061449681245
 30
0.0
 10
197.607933804943
 20
68.00061449681246
 30
0.0
 10
197.7262955430256
 20
68.00061449681245
 30
0.0
 10
197.8652569969127
 20
68.00061449681246
 30
0.0
 10
198.0241877227333
 20
68.00061449681245
 30
0.0
 10
198.2035391800718
 20
68.00061449681245
 30
0.0
 10
198.3865503869202
 20
68.00061449681245
 30
0.0
 10
198.5732207915821
 20
68.00061449681245
 30
0.0
 10
198.7466226369923
 20
68.00061449681246
 30
0.0
 10
198.905699218692
 20
68.00061449681243
 30
0.0
 10
199.0495552700681
 20
68.00061449681246
 30
0.0
 10
199.1658352538626
 20
68.00061449681245
 30
0.0
 10
199.2534181962593
 20
68.00061449681245
 30
0.0
 10
199.3115429214356
 20
68.00061449681245
 30
0.0
 10
199.3699712456486
 20
68.00061449681245
 30
0.0
 10
199.4287031791539
 20
68.00061449681245
 30
0.0
 10
199.4877388002278
 20
68.00061449681245
 30
0.0
 10
199.5949411174186
 20
68.00061449681245
 30
0.0
 10
199.7514951578895
 20
68.00061449681246
 30
0.0
 10
199.9593345503896
 20
68.00061449681245
 30
0.0
 10
200.1699776369752
 20
68.00061449681246
 30
0.0
 10
200.3834239059921
 20
68.00061449681246
 30
0.0
 10
200.5996729967254
 20
68.00061449681246
 30
0.0
 10
200.7887276338293
 20
68.00061449681245
 30
0.0
 10
200.9493904706075
 20
68.00061449681246
 30
0.0
 10
201.0807452626867
 20
68.00061449681245
 30
0.0
 10
201.2130730707327
 20
68.00061449681245
 30
0.0
 10
201.3463740261005
 20
68.00061449681245
 30
0.0
 10
201.4806481020066
 20
68.00061449681245
 30
0.0
 10
201.6158952341268
 20
68.00061449681246
 30
0.0
 10
201.7521156663896
 20
68.00061449681245
 30
0.0
 10
201.9227054629962
 20
68.00061449681245
 30
0.0
 10
202.1283259205234
 20
68.00061449681245
 30
0.0
 10
202.3698097072259
 20
68.00061449681246
 30
0.0
 10
202.6132835541181
 20
68.00061449681245
 30
0.0
 10
202.8587470630617
 20
68.00061449681245
 30
0.0
 10
203.1062001516054
 20
68.00061449681242
 30
0.0
 10
203.350889690349
 20
68.00061449681246
 30
0.0
 10
203.5926812698021
 20
68.00061449681246
 30
0.0
 10
203.8314556800744
 20
68.00061449681242
 30
0.0
 10
204.0719983160684
 20
68.00061449681246
 30
0.0
 10
204.3143093698316
 20
68.00061449681245
 30
0.0
 10
204.5630985675688
 20
68.00061449681245
 30
0.0
 10
204.8181391945677
 20
68.00061449681246
 30
0.0
 10
205.0792026090531
 20
68.00061449681245
 30
0.0
 10
205.3412279434987
 20
68.00061449681245
 30
0.0
 10
205.6042152936035
 20
68.00061449681245
 30
0.0
 10
205.8681641026228
 20
68.00061449681246
 30
0.0
 10
206.10423205993
 20
68.00061449681245
 30
0.0
 10
206.3120729429883
 20
68.00061449681246
 30
0.0
 10
206.4914419605089
 20
68.00061449681245
 30
0.0
 10
206.6712468616713
 20
68.00061449681245
 30
0.0
 10
206.8514878376594
 20
68.00061449681246
 30
0.0
 10
207.0321647645341
 20
68.00061449681245
 30
0.0
 10
207.2132778542222
 20
68.00061449681246
 30
0.0
 10
207.422112919452
 20
68.00061449681246
 30
0.0
 10
207.6585604261793
 20
68.00061449681245
 30
0.0
 10
207.9224820166435
 20
68.00061449681246
 30
0.0
 10
208.1863127469869
 20
68.00061449681245
 30
0.0
 10
208.4500522226128
 20
68.00061449681245
 30
0.0
 10
208.7137002963623
 20
68.00061449681246
 30
0.0
 10
208.9667109919719
 20
68.00061449681245
 30
0.0
 10
209.2090896484692
 20
68.00061449681245
 30
0.0
 10
209.4408633597708
 20
68.00061449681246
 30
0.0
 10
209.621279081847
 20
68.00061449681245
 30
0.0
 10
209.7504411040693
 20
68.00061449681246
 30
0.0
 10
209.8284301397436
 20
68.00061449681245
 30
0.0
 10
209.9064110955876
 20
68.00061449681246
 30
0.0
 10
209.9843840387094
 20
68.00061449681245
 30
0.0
 10
210.0623489369395
 20
68.00061449681246
 30
0.0
 10
210.1403058505667
 20
68.00061449681246
 30
0.0
 10
210.2729399436053
 20
68.00061449681245
 30
0.0
 10
210.4599224915935
 20
68.00061449681246
 30
0.0
 10
210.700749547212
 20
68.00061449681246
 30
0.0
 10
210.9406690678473
 20
68.00061449681245
 30
0.0
 10
211.1796802960658
 20
68.00061449681246
 30
0.0
 10
211.4177833991342
 20
68.00061449681245
 30
0.0
 10
211.6549780633339
 20
68.00061449681246
 30
0.0
 10
211.8743763838685
 20
68.00061449681245
 30
0.0
 10
212.0761897735808
 20
68.00061449681245
 30
0.0
 10
212.2606348632247
 20
68.00061449681246
 30
0.0
 10
212.4445191011686
 20
68.00061449681243
 30
0.0
 10
212.6278426248628
 20
68.00061449681246
 30
0.0
 10
212.8080951711002
 20
68.00061449681246
 30
0.0
 10
212.9841388694298
 20
68.00061449681243
 30
0.0
 10
213.1786030188372
 20
68.00061449681246
 30
0.0
 10
213.3934254193774
 20
68.00061449681245
 30
0.0
 10
213.629096990879
 20
68.00061449681245
 30
0.0
 10
213.8629658340219
 20
68.00061449681243
 30
0.0
 10
214.0950325655401
 20
68.00061449681246
 30
0.0
 10
214.3239220912963
 20
68.00061449681242
 30
0.0
 10
214.5496848041952
 20
68.00061449681246
 30
0.0
 10
214.7723090492305
 20
68.00061449681245
 30
0.0
 10
214.9933442458567
 20
68.00061449681246
 30
0.0
 10
215.1390537317425
 20
68.00061449681245
 30
0.0
 10
215.21195754046
 20
68.00061449681245
 30
0.0
  0
SPLINE
  5
125
330
1F
100
AcDbEntity
  8
0
  6
Continuous
 62
     8
370
     0
100
AcDbSpline
210
0.0
220
0.0
230
1.0
 70
     8
 71
     3
 72
    15
 73
    11
 74
     0
 42
0.000000001
 43
0.00000001
 40
0.0
 40
0.0
 40
0.0
 40
0.0
 40
0.0957811467190635
 40
0.2249558853471865
 40
0.3541293905224497
 40
0.4833022789668686
 40
0.6124751674112873
 40
0.7416486725865504
 40
0.8708234112146734
 40
0.9999999999999999
 40
0.9999999999999999
 40
0.9999999999999999
 40
0.9999999999999999
 10
171.2022571740199
 20
116.9823506159825
 30
0.0
 10
171.2083430330498
 20
116.9815442375918
 30
0.0
 10
171.2226365537796
 20
116.9796503412353
 30
0.0
 10
171.3343252536455
 20
116.9774656848963
 30
0.0
 10
171.5182698821588
 20
116.975908973718
 30
0.0
 10
171.76910702007
 20
116.9753876598507
 30
0.0
 10
172.0739218656815
 20
116.9759105145535
 30
0.0
 10
172.4218839090645
 20
116.9774595214952
 30
0.0
 10
172.7993913996334
 20
116.9798794738838
 30
0.0
 10
173.0611336666712
 20
116.982067879654
 30
0.0
 10
173.1920057374107
 20
116.9831620903751
 30
0.0
  0
LINE
  5
126
330
1F
100
AcDbEntity
  8
0
  6
Continuous
 62
     8
370
     0
100
AcDbLine
 10
173.1920057374
 20
116.9831620904
 30
0.0
 11
172.9996953903
 21
128.0006144968
 31
0.0
  0
LINE
  5
127
330
1F
100
AcDbEntity
  8
0
  6
Continuous
 62
     8
370
     0
100
AcDbLine
 10
244.0003046097
 20
128.0006144968
 30
0.0
 11
243.8079942626
 21
116.9831620904
 31
0.0
  0
LINE
  5
128
330
1F
100
AcDbEntity
  8
0
  6
Continuous
 62
     8
370
     0
100
AcDbLine
 10
243.8079942626
 20
116.9831620904
 30
0.0
 11
173.1920057374
 21
116.9831620904
 31
0.0
  0
SPLINE
  5
129
330
1F
100
AcDbEntity
  8
0
  6
Continuous
 62
     8
370
     0
100
AcDbSpline
210
0.0
220
0.0
230
1.0
 70
     8
 71
     3
 72
    15
 73
    11
 74
     0
 42
0.000000001
 43
0.00000001
 40
0.0
 40
0.0
 40
0.0
 40
0.0
 40
0.1291765464230833
 40
0.258351242689569
 40
0.387524705503598
 40
0.5166975515869832
 40
0.6458703976703715
 40
0.7750438604843994
 40
0.9042185567508845
 40
0.9999999999999999
 40
0.9999999999999999
 40
0.9999999999999999
 40
0.9999999999999999
 10
243.8079942625893
 20
116.9831620903751
 30
0.0
 10
243.9388663333254
 20
116.982067879654
 30
0.0
 10
244.2006086003565
 20
116.9798794738839
 30
0.0
 10
244.578116090976
 20
116.9774595214948
 30
0.0
 10
244.9260781341665
 20
116.9759105145549
 30
0.0
 10
245.2308929804975
 20
116.9753876598457
 30
0.0
 10
245.4817301157231
 20
116.9759089737369
 30
0.0
 10
245.6656747542596
 20
116.9774656848256
 30
0.0
 10
245.7773635233702
 20
116.9796503434931
 30
0.0
 10
245.7916570501052
 20
116.9815442427431
 30
0.0
 10
245.7977429236571
 20
116.9823506239511
 30
0.0
  0
LINE
  5
12A
330
1F
100
AcDbEntity
  8
0
  6
Continuous
 62
     8
370
     0
100
AcDbLine
 10
243.8079942626
 20
116.9831620904
 30
0.0
 11
243.8079942626
 21
116.0006144968
 31
0.0
  0
LINE
  5
12B
330
1F
100
AcDbEntity
  8
0
  6
Continuous
 62
     8
370
     0
100
AcDbLine
 10
173.1920057374
 20
116.0006144968
 30
0.0
 11
173.1920057374
 21
116.9831620904
 31
0.0
  0
LINE
  5
12C
330
1F
100
AcDbEntity
  8
0
  6
Continuous
 62
     8
370
     0
100
AcDbLine
 10
208.5
 20
69.0006144968
 30
0.0
 11
223.5
 21
69.0006144968
 31
0.0
  0
LINE
  5
12D
330
1F
100
AcDbEntity
  8
0
  6
Continuous
 62
     8
370
     0
100
AcDbLine
 10
193.5
 20
69.0006144968
 30
0.0
 11
208.5
 21
69.0006144968
 31
0.0
  0
SPLINE
  5
12E
330
1F
100
AcDbEntity
  8
0
  6
Continuous
 62
     7
370
    30
100
AcDbSpline
210
0.0
220
0.0
230
1.0
 70
     8
 71
     3
 72
    69
 73
    65
 74
     0
 42
0.000000001
 43
0.00000001
 40
0.0
 40
0.0
 40
0.0
 40
0.0
 40
0.0188755463417024
 40
0.0340571140484221
 40
0.0455425711879592
 40
0.0538928035087804
 40
0.0612705764663282
 40
0.0699314154126578
 40
0.0793968832266223
 40
0.0902797985155266
 40
0.1029802628745788
 40
0.1158856718916607
 40
0.1287035594889689
 40
0.1400441741787657
 40
0.15044388218112
 40
0.1697091940549118
 40
0.1902604152546065
 40
0.2037141242708785
 40
0.2218621242069094
 40
0.2402152454345013
 40
0.2548105390759049
 40
0.2644679785180434
 40
0.275799616588683
 40
0.2892314991040144
 40
0.3031493659890841
 40
0.314193742971333
 40
0.3227031224306506
 40
0.3313396642975129
 40
0.3399144413068076
 40
0.3502770006152345
 40
0.362493121783156
 40
0.3733401396674088
 40
0.3816250363602673
 40
0.3902301004543216
 40
0.4047027041378896
 40
0.4193212299841815
 40
0.4326018481675173
 40
0.4436601150927095
 40
0.4557397649248776
 40
0.4712506607004658
 40
0.4858517615946466
 40
0.498578329820116
 40
0.5361928019945188
 40
0.5769968177808779
 40
0.6158393788444547
 40
0.6572099885900984
 40
0.6932042866734449
 40
0.7390371527100673
 40
0.7554205441038395
 40
0.7720282295425488
 40
0.7907424014371954
 40
0.8132070062463044
 40
0.8352973086441134
 40
0.8533639786875494
 40
0.8703630948187642
 40
0.8877265418686212
 40
0.9070011543847899
 40
0.9291728182679773
 40
0.938098147966739
 40
0.9465178257701241
 40
0.9550012789122285
 40
0.9665346747344431
 40
0.9815399912179821
 40
0.9999999999999999
 40
0.9999999999999999
 40
0.9999999999999999
 40
0.9999999999999999
 10
380.4020238480819
 20
47.83037916305999
 30
0.0
 10
380.4104630654421
 20
47.82555613927607
 30
0.0
 10
380.4256899300271
 20
47.81685396620551
 30
0.0
 10
380.4461794954877
 20
47.80563223574431
 30
0.0
 10
380.4619928992844
 20
47.797177229655
 30
0.0
 10
380.4743451702664
 20
47.79070752569463
 30
0.0
 10
380.4854466273356
 20
47.78498552254135
 30
0.0
 10
380.4970983947434
 20
47.77907965629775
 30
0.0
 10
380.5104071285298
 20
47.77246237501595
 30
0.0
 10
380.5256210873878
 20
47.76506241338971
 30
0.0
 10
380.5424817396962
 20
47.75707223097159
 30
0.0
 10
380.5603203781916
 20
47.7488600635992
 30
0.0
 10
380.577602051529
 20
47.74113878098547
 30
0.0
 10
380.593778096322
 20
47.73411699973047
 30
0.0
 10
380.61306727974
 20
47.72596401901239
 30
0.0
 10
380.6368223179894
 20
47.71629295640009
 30
0.0
 10
380.6621221135419
 20
47.70651948555162
 30
0.0
 10
380.6870166661798
 20
47.69734265945491
 30
0.0
 10
380.7110505999636
 20
47.68887810789884
 30
0.0
 10
380.7356846535009
 20
47.68066876714609
 30
0.0
 10
380.7563744190688
 20
47.67412619500563
 30
0.0
 10
380.7737616802823
 20
47.66884705992738
 30
0.0
 10
380.7905944629704
 20
47.66391945279867
 30
0.0
 10
380.8095197736982
 20
47.65862120676086
 30
0.0
 10
380.8283212080053
 20
47.65362212062771
 30
0.0
 10
380.8447577006115
 20
47.64946237715749
 30
0.0
 10
380.8586715100585
 20
47.64608099688549
 30
0.0
 10
380.8713959348736
 20
47.64310105103305
 30
0.0
 10
380.8850601872205
 20
47.64002201310814
 30
0.0
 10
380.9005409385825
 20
47.6366845526786
 30
0.0
 10
380.9171771331148
 20
47.63329144534504
 30
0.0
 10
380.9327945374306
 20
47.63029138676744
 30
0.0
 10
380.9466392422661
 20
47.6277680177776
 30
0.0
 10
380.9623414530032
 20
47.62504266830153
 30
0.0
 10
380.981238990269
 20
47.62198749322476
 30
0.0
 10
381.0025141604675
 20
47.61886679631557
 30
0.0
 10
381.0221168277828
 20
47.61627362715075
 30
0.0
 10
381.0404594911058
 20
47.6140776127455
 30
0.0
 10
381.0599842187548
 20
47.61197375687529
 30
0.0
 10
381.0813092518335
 20
47.60998096360925
 30
0.0
 10
381.1029788628907
 20
47.608294518744
 30
0.0
 10
381.135865232252
 20
47.60620232295672
 30
0.0
 10
381.1821379894133
 20
47.60447311938302
 30
0.0
 10
381.2416450051664
 20
47.60470198477194
 30
0.0
 10
381.303099832504
 20
47.60754177700692
 30
0.0
 10
381.3618569930969
 20
47.61279679458141
 30
0.0
 10
381.4239696993119
 20
47.62098349286175
 30
0.0
 10
381.4731142462323
 20
47.62970671821216
 30
0.0
 10
381.5122989123681
 20
47.63805094930808
 30
0.0
 10
381.5379116232806
 20
47.64399331518462
 30
0.0
 10
381.5664085763302
 20
47.65119312079517
 30
0.0
 10
381.5974197497238
 20
47.65978428793471
 30
0.0
 10
381.6278957316655
 20
47.66904408557856
 30
0.0
 10
381.6555077880707
 20
47.67811173115808
 30
0.0
 10
381.6806818835873
 20
47.6869270018944
 30
0.0
 10
381.7062630708406
 20
47.69643933794168
 30
0.0
 10
381.7340983747138
 20
47.70744370861102
 30
0.0
 10
381.757714412592
 20
47.71741961882429
 30
0.0
 10
381.7760979458841
 20
47.72556544539312
 30
0.0
 10
381.7880616859497
 20
47.73100666644162
 30
0.0
 10
381.8011811392045
 20
47.73712318900049
 30
0.0
 10
381.8172569159587
 20
47.74484517686077
 30
0.0
 10
381.8377665159992
 20
47.75504200046751
 30
0.0
 10
381.85281207501
 20
47.76298475985507
 30
0.0
 10
381.8611114460535
 20
47.76736611299849
 30
0.0
  0
SPLINE
  5
12F
330
1F
100
AcDbEntity
  8
0
  6
Continuous
 62
     7
370
    30
100
AcDbSpline
210
0.0
220
0.0
230
1.0
 70
     8
 71
     3
 72
    90
 73
    86
 74
     0
 42
0.000000001
 43
0.00000001
 40
0.0
 40
0.0
 40
0.0
 40
0.0
 40
0.0167586549591727
 40
0.0299470912985967
 40
0.0395510169592504
 40
0.0457095006300514
 40
0.0510114814504066
 40
0.0564021670543529
 40
0.061881618385428
 40
0.0768020464775782
 40
0.0917188750420366
 40
0.1060772932201338
 40
0.1228939597701335
 40
0.1409677845522986
 40
0.1582070629774082
 40
0.1724735081720847
 40
0.1856409844399049
 40
0.1986503511664044
 40
0.2121439832871125
 40
0.2278473636469144
 40
0.245495019145143
 40
0.2633037576645502
 40
0.2780520144593376
 40
0.2912574750538404
 40
0.3038580844883606
 40
0.31739538181965
 40
0.3350583354266422
 40
0.3524736670682339
 40
0.3678651518504299
 40
0.3806268584191352
 40
0.3926946191931991
 40
0.4017631305050143
 40
0.4132370610580405
 40
0.4258677391699987
 40
0.4369787553492705
 40
0.4465936697595471
 40
0.4552485801054784
 40
0.464701183995975
 40
0.4756102530522734
 40
0.4881157189305671
 40
0.5015401732225422
 40
0.5216508095338398
 40
0.5377602723792072
 40
0.5576524464611243
 40
0.5797766734329413
 40
0.5961817615176085
 40
0.6166459424481846
 40
0.6371834715203727
 40
0.644748846250248
 40
0.6510825416656659
 40
0.658203533790193
 40
0.667169133323858
 40
0.6776508116541057
 40
0.6867041229310963
 40
0.6936275432830543
 40
0.7011163698593265
 40
0.7097705595504201
 40
0.7199134131977805
 40
0.7327557960038906
 40
0.7439433899569416
 40
0.7558021377392736
 40
0.7652689627571911
 40
0.7721937232931041
 40
0.7797749490391779
 40
0.7893540682414739
 40
0.7998402611624303
 40
0.8081998963035532
 40
0.8143483771871143
 40
0.8255294948189046
 40
0.8392268508373916
 40
0.855223386140737
 40
0.8729057971859259
 40
0.883206125185291
 40
0.8918979657222333
 40
0.9013310971949184
 40
0.9123247036037415
 40
0.9245300538357221
 40
0.9345548178444812
 40
0.9395943591304061
 40
0.9432808301611926
 40
0.9483007022399083
 40
0.9564845414235347
 40
0.9678304763078704
 40
0.9823363187819231
 40
1.0
 40
1.0
 40
1.0
 40
1.0
 10
329.937042078219
 20
137.7028786177361
 30
0.0
 10
329.929850460228
 20
137.6983618371606
 30
0.0
 10
329.916999307132
 20
137.6902905187524
 30
0.0
 10
329.9002165761729
 20
137.6792324772327
 30
0.0
 10
329.8880078781775
 20
137.6709835962718
 30
0.0
 10
329.8791286536537
 20
137.6648653363232
 30
0.0
 10
329.8720582876245
 20
137.659926136377
 30
0.0
 10
329.865318815988
 20
137.6551572504418
 30
0.0
 10
329.8546424210265
 20
137.6475043623365
 30
0.0
 10
329.8401568529571
 20
137.6368680201661
 30
0.0
 10
329.822252735791
 20
137.6232552324207
 30
0.0
 10
329.8038182628558
 20
137.6087564509427
 30
0.0
 10
329.7843943083333
 20
137.5929238463487
 30
0.0
 10
329.7641627428986
 20
137.5757662063959
 30
0.0
 10
329.7452469740912
 20
137.5590732656445
 30
0.0
 10
329.7284651471853
 20
137.5437315668892
 30
0.0
 10
329.7134969233256
 20
137.5296227996293
 30
0.0
 10
329.6989967960794
 20
137.5155527100021
 30
0.0
 10
329.6837204183471
 20
137.5002841964923
 30
0.0
 10
329.6672277179285
 20
137.4832581164379
 30
0.0
 10
329.6495118629359
 20
137.4642878989198
 30
0.0
 10
329.6324444352225
 20
137.4452808559642
 30
0.0
 10
329.6172098128472
 20
137.427691886076
 30
0.0
 10
329.6039508450725
 20
137.4119017868125
 30
0.0
 10
329.5913056791708
 20
137.3964039512863
 30
0.0
 10
329.5774774127066
 20
137.3789539277883
 30
0.0
 10
329.5624771718782
 20
137.3593509709486
 30
0.0
 10
329.5472824002405
 20
137.3386919914599
 30
0.0
 10
329.5338982461033
 20
137.3198023628921
 30
0.0
 10
329.5223319533052
 20
137.3029422293782
 30
0.0
 10
329.5127802242226
 20
137.2886126409909
 30
0.0
 10
329.5037561194848
 20
137.2747371406441
 30
0.0
 10
329.4947326931766
 20
137.2605242379361
 30
0.0
 10
329.4853391464835
 20
137.2453000214213
 30
0.0
 10
329.4766212951882
 20
137.2307636356325
 30
0.0
 10
329.4690878678729
 20
137.2178837530168
 30
0.0
 10
329.4620955288577
 20
137.2056598095236
 30
0.0
 10
329.4549028669799
 20
137.1928024600068
 30
0.0
 10
329.4469164929615
 20
137.1781610527128
 30
0.0
 10
329.4381622737514
 20
137.1616329978745
 30
0.0
 10
329.427506086312
 20
137.1408387784321
 30
0.0
 10
329.4163934538918
 20
137.1181892371864
 30
0.0
 10
329.4043303070895
 20
137.0923918831379
 30
0.0
 10
329.3923316961162
 20
137.0654457684084
 30
0.0
 10
329.3808447453561
 20
137.0380843325694
 30
0.0
 10
329.3697895767907
 20
137.010240381875
 30
0.0
 10
329.3595410165443
 20
136.982963167932
 30
0.0
 10
329.3513388433915
 20
136.959696876805
 30
0.0
 10
329.3457507169733
 20
136.9431122873343
 30
0.0
 10
329.3424096517473
 20
136.9329667594788
 30
0.0
 10
329.3389244919191
 20
136.9221428715637
 30
0.0
 10
329.3348962368837
 20
136.9092857804519
 30
0.0
 10
329.3307031401987
 20
136.8954431784767
 30
0.0
 10
329.3269261402058
 20
136.8825330486231
 30
0.0
 10
329.3236607865906
 20
136.8710415785029
 30
0.0
 10
329.3205297166544
 20
136.8597224957503
 30
0.0
 10
329.3170682641755
 20
136.846818954648
 30
0.0
 10
329.3130412415827
 20
136.8312471569022
 30
0.0
 10
329.3088802432143
 20
136.8143966052748
 30
0.0
 10
329.3047077095442
 20
136.7966320231567
 30
0.0
 10
329.3010977878923
 20
136.7804746572582
 30
0.0
 10
329.2980983933112
 20
136.766387404968
 30
0.0
 10
329.295646539345
 20
136.7544216245554
 30
0.0
 10
329.2932690571265
 20
136.7424068493484
 30
0.0
 10
329.2906479373941
 20
136.7285849951836
 30
0.0
 10
329.288081379216
 20
136.7143313458251
 30
0.0
 10
329.2859305271276
 20
136.7017633839977
 30
0.0
 10
329.2838067016311
 20
136.6888378895045
 30
0.0
 10
329.2813678997921
 20
136.6732270134435
 30
0.0
 10
329.2783821886669
 20
136.6525961065334
 30
0.0
 10
329.2752405022039
 20
136.628638000572
 30
0.0
 10
329.2726538274362
 20
136.6063249480216
 30
0.0
 10
329.2707242027326
 20
136.5876699986545
 30
0.0
 10
329.2693497813981
 20
136.5732079335606
 30
0.0
 10
329.2680594740357
 20
136.5583914971207
 30
0.0
 10
329.2667590792364
 20
136.5417611784398
 30
0.0
 10
329.2656023448425
 20
136.524793354386
 30
0.0
 10
329.2647836183586
 20
136.5108311921355
 30
0.0
 10
329.2642818601485
 20
136.5012223924355
 30
0.0
 10
329.2639401403657
 20
136.4941789208723
 30
0.0
 10
329.263553571574
 20
136.4855558646261
 30
0.0
 10
329.2630600168518
 20
136.4730107855535
 30
0.0
 10
329.2625204465388
 20
136.4555856687227
 30
0.0
 10
329.2620470310193
 20
136.4332479680674
 30
0.0
 10
329.2619792926906
 20
136.4166600262521
 30
0.0
 10
329.2619420988467
 20
136.4075518989731
 30
0.0
  0
LINE
  5
130
330
1F
100
AcDbEntity
  8
0
  6
Continuous
 62
     7
370
    30
100
AcDbLine
 10
381.8663542463
 20
47.7610830421
 30
0.0
 11
389.7983344745
 21
52.0258676403
 31
0.0
  0
LINE
  5
131
330
1F
100
AcDbEntity
  8
0
  6
Continuous
 62
     7
370
    30
100
AcDbLine
 10
337.5940415707
 20
142.4467301348
 30
0.0
 11
329.9342173692
 21
137.7105576292
 31
0.0
  0
LINE
  5
132
330
1F
100
AcDbEntity
  8
0
  6
Continuous
 62
     7
370
    30
100
AcDbLine
 10
344.258906926
 20
68.6953564386
 30
0.0
 11
380.4020261643
 21
47.8303778259
 31
0.0
  0
LINE
  5
133
330
1F
100
AcDbEntity
  8
0
  6
Continuous
 62
     7
370
    30
100
AcDbLine
 10
329.2619420988
 20
136.4075545522
 30
0.0
 11
329.2619420988
 21
94.6778707583
 31
0.0
  0
SPLINE
  5
134
330
1F
100
AcDbEntity
  8
0
  6
Continuous
 62
     7
370
    30
100
AcDbSpline
210
0.0
220
0.0
230
1.0
 70
     8
 71
     3
 72
   158
 73
   154
 74
     0
 42
0.000000001
 43
0.00000001
 40
0.0
 40
0.0
 40
0.0
 40
0.0
 40
0.0016429824326273
 40
0.0079836691903892
 40
0.0143273735165154
 40
0.0206746483013833
 40
0.0270260916578523
 40
0.0333822970128018
 40
0.0397438511187845
 40
0.046111332077955
 40
0.0524853073796031
 40
0.0588663319578292
 40
0.0652549462768054
 40
0.0716516744510861
 40
0.0780570224095331
 40
0.0844714761109393
 40
0.0908954998208612
 40
0.0973295344588993
 40
0.1037739960265437
 40
0.1102292741251789
 40
0.1166957305757319
 40
0.12317369814892
 40
0.1296634794177597
 40
0.1361653457417771
 40
0.142679536392936
 40
0.1492062578323558
 40
0.155745683146406
 40
0.1622979516492976
 40
0.1688631686585804
 40
0.1754414054485106
 40
0.1820326993842095
 40
0.1886370542386436
 40
0.1952544406919067
 40
0.2018847970104548
 40
0.2085280299025463
 40
0.2151840155433454
 40
0.2218526007613808
 40
0.2285336043765936
 40
0.2352268186777169
 40
0.2419320110255952
 40
0.2486489255673175
 40
0.255377285045177
 40
0.2621167926830191
 40
0.2688671341324905
 40
0.275627979460906
 40
0.2823989851626607
 40
0.2891797961762497
 40
0.2959700478895614
 40
0.3027693681170118
 40
0.3095773790328543
 40
0.3163936990465693
 40
0.323217944607731
 40
0.3300497319285443
 40
0.3368886786152097
 40
0.3437344051996947
 40
0.350586536565822
 40
0.35744470326536
 40
0.3643085427209655
 40
0.3711777003148239
 40
0.378051830362966
 40
0.3849305969766528
 40
0.3918136748132338
 40
0.3987007497205325
 40
0.4055915192784258
 40
0.4124856932434263
 40
0.4193829939017498
 40
0.4262831563368071
 40
0.4331859286180277
 40
0.4400910719174307
 40
0.446998360560376
 40
0.4539075820181954
 40
0.4608185368479368
 40
0.4677310385870423
 40
0.4746449136083658
 40
0.4815600009419073
 40
0.4884761520688646
 40
0.4953932158743148
 40
0.5023110396312339
 40
0.5092295134130046
 40
0.5161485389762367
 40
0.5230680291574571
 40
0.5299879075980658
 40
0.5369081084774664
 40
0.543828576253701
 40
0.5507492654148783
 40
0.5576701402440981
 40
0.5645911746000971
 40
0.571512351716623
 40
0.5784336640223303
 40
0.5853551129840333
 40
0.5922767089750617
 40
0.5991984711713646
 40
0.6061204274774783
 40
0.613042614485008
 40
0.619965077466047
 40
0.6268878704043759
 40
0.6338110560677497
 40
0.6407347061243873
 40
0.6476589013076985
 40
0.6545837316339775
 40
0.6615092966772002
 40
0.668435705907761
 40
0.6753630791011
 40
0.6822915468241696
 40
0.6892212510088637
 40
0.6961523456227989
 40
0.703084997449926
 40
0.7100193869957145
 40
0.716955709533842
 40
0.723894176315156
 40
0.7308350159632124
 40
0.7377784760857353
 40
0.7447248251368265
 40
0.7516743545724964
 40
0.7586273813508408
 40
0.7655842508394793
 40
0.7725453402071163
 40
0.7795110623940319
 40
0.7864818707791317
 40
0.7934582646904673
 40
0.8004407959450609
 40
0.8074300766525166
 40
0.8144267885842791
 40
0.8214316944971014
 40
0.8284456519191233
 40
0.8354696300686842
 40
0.8425047308001515
 40
0.8495522147873577
 40
0.8566135346030604
 40
0.8629616935391221
 40
0.8693086464419356
 40
0.8756538069256024
 40
0.8819970099499411
 40
0.8883380489577122
 40
0.8946766639610005
 40
0.9010125246337933
 40
0.9073452064731908
 40
0.9136741564378066
 40
0.9199986421658948
 40
0.9263176747514144
 40
0.9326298873703437
 40
0.9389333370166648
 40
0.9452251654968586
 40
0.9515009869840682
 40
0.957753704165367
 40
0.9639710162304254
 40
0.9701295564215549
 40
0.9761788330357428
 40
0.981986019180131
 40
0.9872615586711406
 40
0.9909923407936145
 40
0.9951158913246801
 40
1.0
 40
1.0
 40
1.0
 40
1.0
 10
314.4950035275941
 20
86.15291917233823
 30
0.0
 10
314.487814051016
 20
86.14882227364662
 30
0.0
 10
314.4528785571778
 20
86.12891440171151
 30
0.0
 10
314.390991741795
 20
86.09179020655313
 30
0.0
 10
314.3093750598476
 20
86.04149886923479
 30
0.0
 10
314.2286204236485
 20
85.98968323580164
 30
0.0
 10
314.1486549615423
 20
85.9364868895763
 30
0.0
 10
314.0695085620019
 20
85.88187441781466
 30
0.0
 10
313.9911836208773
 20
85.82585835056963
 30
0.0
 10
313.9136900434357
 20
85.76843834611824
 30
0.0
 10
313.8370358667781
 20
85.7096175229788
 30
0.0
 10
313.7612297857098
 20
85.64939809916169
 30
0.0
 10
313.6862804836778
 20
85.5877825846372
 30
0.0
 10
313.612196819488
 20
85.52477348530442
 30
0.0
 10
313.5389877827942
 20
85.46037340785143
 30
0.0
 10
313.4666625099904
 20
85.39458505833485
 30
0.0
 10
313.3952302821573
 20
85.32741127045887
 30
0.0
 10
313.3247005260168
 20
85.25885502688747
 30
0.0
 10
313.2550828122044
 20
85.18891948325188
 30
0.0
 10
313.1863868523239
 20
85.1176079920546
 30
0.0
 10
313.1186224943427
 20
85.04492412700193
 30
0.0
 10
313.0517997164068
 20
84.97087170738158
 30
0.0
 10
312.985928619032
 20
84.89545482233449
 30
0.0
 10
312.9210194156724
 20
84.81867785479044
 30
0.0
 10
312.8570824216808
 20
84.74054550484959
 30
0.0
 10
312.7941280416842
 20
84.66106281237823
 30
0.0
 10
312.7321667554257
 20
84.58023517858895
 30
0.0
 10
312.6712091021333
 20
84.4980683863728
 30
0.0
 10
312.6112656635021
 20
84.41456861915746
 30
0.0
 10
312.5523470453913
 20
84.32974247807341
 30
0.0
 10
312.4944638583608
 20
84.2435969972216
 30
0.0
 10
312.4376266971851
 20
84.15613965685473
 30
0.0
 10
312.3818461195066
 20
84.0673783943035
 30
0.0
 10
312.3271326237997
 20
83.97732161250364
 30
0.0
 10
312.2734966268332
 20
83.88597818600776
 30
0.0
 10
312.2209484408294
 20
83.79335746439615
 30
0.0
 10
312.1694982505257
 20
83.69946927303394
 30
0.0
 10
312.1191560903492
 20
83.6043239111572
 30
0.0
 10
312.0699318219139
 20
83.50793214730342
 30
0.0
 10
312.0218351120519
 20
83.41030521214098
 30
0.0
 10
311.9748754115774
 20
83.31145478878283
 30
0.0
 10
311.9290619349788
 20
83.21139300070587
 30
0.0
 10
311.8844036412166
 20
83.11013239742593
 30
0.0
 10
311.8409092157899
 20
83.00768593810719
 30
0.0
 10
311.7985870542163
 20
82.90406697330756
 30
0.0
 10
311.7574452470479
 20
82.79928922508257
 30
0.0
 10
311.717491566523
 20
82.69336676568435
 30
0.0
 10
311.6787334549311
 20
82.58631399510341
 30
0.0
 10
311.641178014742
 20
82.47814561770657
 30
0.0
 10
311.6048320005273
 20
82.3688766182254
 30
0.0
 10
311.569701812678
 20
82.2585222373448
 30
0.0
 10
311.5357934928999
 20
82.14709794713659
 30
0.0
 10
311.5031127214454
 20
82.03461942656646
 30
0.0
 10
311.4716648160239
 20
81.92110253729363
 30
0.0
 10
311.4414547323133
 20
81.80656329995917
 30
0.0
 10
311.4124870659824
 20
81.69101787114371
 30
0.0
 10
311.38476605612
 20
81.5744825211516
 30
0.0
 10
311.3582955899577
 20
81.4569736127556
 30
0.0
 10
311.3330792087679
 20
81.33850758101572
 30
0.0
 10
311.3091201148102
 20
81.21910091426058
 30
0.0
 10
311.2864211792025
 20
81.09877013630012
 30
0.0
 10
311.2649849505868
 20
80.97753178991356
 30
0.0
 10
311.2448136644689
 20
80.85540242164093
 30
0.0
 10
311.2259092531075
 20
80.73239856788365
 30
0.0
 10
311.20827335584
 20
80.6085367423067
 30
0.0
 10
311.1919073297338
 20
80.48383342451724
 30
0.0
 10
311.1768122604621
 20
80.35830504998276
 30
0.0
 10
311.1629889733104
 20
80.23196800113993
 30
0.0
 10
311.1504380442281
 20
80.10483859963777
 30
0.0
 10
311.1391598108486
 20
79.97693309964683
 30
0.0
 10
311.1291543834126
 20
79.84826768216831
 30
0.0
 10
311.120421655532
 20
79.71885845026166
 30
0.0
 10
311.1129613147501
 20
79.588721425119
 30
0.0
 10
311.1067728528513
 20
79.45787254290025
 30
0.0
 10
311.101855575892
 20
79.3263276522537
 30
0.0
 10
311.0982086165281
 20
79.19410260687793
 30
0.0
 10
311.0958309399826
 20
79.06121335374257
 30
0.0
 10
311.0947213419106
 20
78.92767573684034
 30
0.0
 10
311.0948784595275
 20
78.79350539790958
 30
0.0
 10
311.0963007881231
 20
78.65871768497405
 30
0.0
 10
311.0989866926815
 20
78.52332785212879
 30
0.0
 10
311.1029344155022
 20
78.38735106199339
 30
0.0
 10
311.1081420834832
 20
78.25080238611777
 30
0.0
 10
311.1146077151044
 20
78.11369680538571
 30
0.0
 10
311.122329227131
 20
77.97604921038169
 30
0.0
 10
311.1313044410634
 20
77.83787440166739
 30
0.0
 10
311.141531089358
 20
77.69918708991351
 30
0.0
 10
311.1530068214499
 20
77.56000189583871
 30
0.0
 10
311.1657292096083
 20
77.42033334990143
 30
0.0
 10
311.1796957546575
 20
77.28019589169888
 30
0.0
 10
311.1949038916025
 20
77.13960386902062
 30
0.0
 10
311.2113509951945
 20
76.998571536509
 30
0.0
 10
311.2290343854794
 20
76.85711305387244
 30
0.0
 10
311.2479513333727
 20
76.71524248359854
 30
0.0
 10
311.2680990663073
 20
76.57297378810982
 30
0.0
 10
311.2894747740053
 20
76.43032082630009
 30
0.0
 10
311.312075614427
 20
76.28729734938523
 30
0.0
 10
311.335898719959
 20
76.14391699599481
 30
0.0
 10
311.3609412039026
 20
76.0001932864213
 30
0.0
 10
311.3872001673364
 20
75.85613961593774
 30
0.0
 10
311.4146727064303
 20
75.71176924707667
 30
0.0
 10
311.4433559203005
 20
75.56709530075481
 30
0.0
 10
311.4732469195019
 20
75.42213074610413
 30
0.0
 10
311.5043428352724
 20
75.2768883888549
 30
0.0
 10
311.5366408296534
 20
75.13138085808758
 30
0.0
 10
311.5701381066339
 20
74.98562059114134
 30
0.0
 10
311.6048319244849
 20
74.83961981642982
 30
0.0
 10
311.6407196094787
 20
74.69339053387318
 30
0.0
 10
311.6777985712189
 20
74.54694449260069
 30
0.0
 10
311.716066319849
 20
74.40029316551575
 30
0.0
 10
311.7555204854492
 20
74.25344772023429
 30
0.0
 10
311.7961588399975
 20
74.10641898581508
 30
0.0
 10
311.837979322336
 20
73.95921741458113
 30
0.0
 10
311.8809800666749
 20
73.81185303818613
 30
0.0
 10
311.9251594352781
 20
73.66433541689854
 30
0.0
 10
311.9705160561095
 20
73.51667358084872
 30
0.0
 10
312.0170488663957
 20
73.36887596169952
 30
0.0
 10
312.0647571632781
 20
73.22095031283712
 30
0.0
 10
312.1136406630088
 20
73.07290361571708
 30
0.0
 10
312.1636995705072
 20
72.92474196940064
 30
0.0
 10
312.2149346615613
 20
72.77647045953759
 30
0.0
 10
312.2673473805643
 20
72.62809300205484
 30
0.0
 10
312.3209399575277
 20
72.47961215536242
 30
0.0
 10
312.3757155490291
 20
72.33102889347299
 30
0.0
 10
312.4316784098434
 20
72.18234232849966
 30
0.0
 10
312.4888341016639
 20
72.03354937321926
 30
0.0
 10
312.5471897568423
 20
71.884644308872
 30
0.0
 10
312.6067543862716
 20
71.73561829482789
 30
0.0
 10
312.6654486406215
 20
71.59158892692122
 30
0.0
 10
312.7231036457661
 20
71.4526498174137
 30
0.0
 10
312.7795489846513
 20
71.318903922842
 30
0.0
 10
312.836853909822
 20
71.18536234477286
 30
0.0
 10
312.895009161771
 20
71.05204438188166
 30
0.0
 10
312.9540062581587
 20
70.91896701194773
 30
0.0
 10
313.0138360147763
 20
70.78614830098795
 30
0.0
 10
313.0744883392638
 20
70.65360776281727
 30
0.0
 10
313.1359519429826
 20
70.52136685875973
 30
0.0
 10
313.1982139215818
 20
70.38944972733549
 30
0.0
 10
313.2612591308542
 20
70.25788427131349
 30
0.0
 10
313.3250692285736
 20
70.12670382878892
 30
0.0
 10
313.389621150834
 20
69.99594983407334
 30
0.0
 10
313.4548845850199
 20
69.86567623588726
 30
0.0
 10
313.5208175633255
 20
69.73595721367522
 30
0.0
 10
313.5873582827486
 20
69.60690151240635
 30
0.0
 10
313.6544087076575
 20
69.47868125078774
 30
0.0
 10
313.7217980861741
 20
69.35159599244447
 30
0.0
 10
313.7891898999594
 20
69.2262369354055
 30
0.0
 10
313.8557875400392
 20
69.10400542931639
 30
0.0
 10
313.9197683626282
 20
68.98808706603012
 30
0.0
 10
313.9756066774945
 20
68.88812234857691
 30
0.0
 10
314.0254756680893
 20
68.79972092793344
 30
0.0
 10
314.0741451345249
 20
68.71411099939351
 30
0.0
 10
314.1088841029861
 20
68.6537566593315
 30
0.0
 10
314.1277201727513
 20
68.62103149187834
 30
0.0
  0
SPLINE
  5
135
330
1F
100
AcDbEntity
  8
0
  6
Continuous
 62
     7
370
    30
100
AcDbSpline
210
0.0
220
0.0
230
1.0
 70
     8
 71
     3
 72
   163
 73
   159
 74
     0
 42
0.000000001
 43
0.00000001
 40
0.0
 40
0.0
 40
0.0
 40
0.0
 40
0.0067070340932189
 40
0.0094871289795761
 40
0.0140962857936475
 40
0.0188942662909799
 40
0.0240500845528247
 40
0.0294381322876748
 40
0.0350076306728557
 40
0.0407180992686062
 40
0.0465407857900498
 40
0.0524544196610241
 40
0.0584429730724465
 40
0.0644941331344512
 40
0.0705982759449883
 40
0.0767477611850941
 40
0.0829364377685476
 40
0.0891592908974183
 40
0.0954121856527485
 40
0.1016916776818337
 40
0.1079948713197599
 40
0.1143193117846623
 40
0.1206629022149208
 40
0.1270238390715924
 40
0.1334005612921366
 40
0.1397917098652991
 40
0.1461960953916204
 40
0.1526126718258344
 40
0.1590405150527123
 40
0.1654788052743558
 40
0.1719268124295194
 40
0.1783838840435014
 40
0.1848494350407384
 40
0.1913229391530923
 40
0.1978039216343887
 40
0.2042919530501347
 40
0.2107866439574068
 40
0.217287640326242
 40
0.2237946195809566
 40
0.2303072871625362
 40
0.2368253735314857
 40
0.2433486315437205
 40
0.2498768341438418
 40
0.2564097723300797
 40
0.2629472533514635
 40
0.2694890991051694
 40
0.2760351447060841
 40
0.2825852372055055
 40
0.28913923443908
 40
0.2956970039865116
 40
0.3022584222293638
 40
0.3088233734933083
 40
0.3153917492647858
 40
0.321963447472215
 40
0.3285383718237847
 40
0.3351164311944736
 40
0.3416975390560515
 40
0.3482816129447722
 40
0.3548685739616749
 40
0.3614583463011426
 40
0.3680508568042638
 40
0.3746460345332656
 40
0.3812438103641964
 40
0.3878441165952247
 40
0.3944468865681043
 40
0.4010520543007279
 40
0.4076595541289448
 40
0.4142693203559544
 40
0.4208812869078801
 40
0.4274953869941618
 40
0.434111552771849
 40
0.4407297150127104
 40
0.447349802772578
 40
0.4539717430622455
 40
0.4605954605195537
 40
0.4672208770824304
 40
0.4738479116627718
 40
0.4804764798212005
 40
0.4871064934432427
 40
0.4937378604170216
 40
0.5003704843135007
 40
0.5070042640698765
 40
0.5136390936772213
 40
0.5202748618740268
 40
0.5269114518467435
 40
0.5335487020846927
 40
0.5401864796286897
 40
0.5468246465353631
 40
0.5534630581364813
 40
0.5601015628292451
 40
0.5667400018744667
 40
0.5733782092215391
 40
0.5800160113633891
 40
0.5866532272253936
 40
0.593289668092576
 40
0.599925137578934
 40
0.6065594316436369
 40
0.6131923386582574
 40
0.6198236395299397
 40
0.6264531078845631
 40
0.6330805103144319
 40
0.639705606694982
 40
0.6463281505739426
 40
0.6529478896370294
 40
0.6595645662531014
 40
0.6661779181013278
 40
0.6727876788827177
 40
0.6793935791167034
 40
0.6859953470236457
 40
0.6925927094924992
 40
0.6991853931321913
 40
0.7057731254039071
 40
0.712355635830722
 40
0.7189326572795862
 40
0.725503927309463
 40
0.7320691895783206
 40
0.7386281953006488
 40
0.7451807047458563
 40
0.7517264887668756
 40
0.7582653303479882
 40
0.7647970261590694
 40
0.7713213881039781
 40
0.7778382448496879
 40
0.784347443322603
 40
0.7908488501589214
 40
0.7973423530953767
 40
0.8038278622877841
 40
0.810305311544845
 40
0.8167746594657181
 40
0.8232358904708644
 40
0.8296890157162414
 40
0.8361340738830942
 40
0.842571131835698
 40
0.849000285141791
 40
0.8554216584513643
 40
0.8618354057307358
 40
0.8682417103507507
 40
0.874640785028685
 40
0.8810328716251858
 40
0.8874182407984236
 40
0.893797191518667
 40
0.9001700504479537
 40
0.9065371711893551
 40
0.912898933412016
 40
0.919255741858032
 40
0.925608025237755
 40
0.9319562350205594
 40
0.9383008441281413
 40
0.9446423455373368
 40
0.9509812507998666
 40
0.9573180884855966
 40
0.9636534025567335
 40
0.969987750679004
 40
0.9763217024768269
 40
0.9826558377384511
 40
0.9889907445770126
 40
0.9953270175537007
 40
1.0
 40
1.0
 40
1.0
 40
1.0
 10
314.1277201727513
 20
68.62103149187834
 30
0.0
 10
314.1537190069802
 20
68.57616949551313
 30
0.0
 10
314.1904944713988
 20
68.51271200597562
 30
0.0
 10
314.2456932598129
 20
68.41875650440457
 30
0.0
 10
314.2936689171769
 20
68.33767987971288
 30
0.0
 10
314.3514171654551
 20
68.24106206229769
 30
0.0
 10
314.4127077533091
 20
68.13956942402541
 30
0.0
 10
314.4775844352936
 20
68.03330750602069
 30
0.0
 10
314.5452302933056
 20
67.92375483430385
 30
0.0
 10
314.615201312464
 20
67.81174170582844
 30
0.0
 10
314.687159941489
 20
67.69789698770019
 30
0.0
 10
314.760858863021
 20
67.58268380797965
 30
0.0
 10
314.8361109787688
 20
67.46645364842588
 30
0.0
 10
314.9127717517467
 20
67.34947886279754
 30
0.0
 10
314.9907271735339
 20
67.2319747690884
 30
0.0
 10
315.0698855744497
 20
67.1141147476624
 30
0.0
 10
315.1501719212031
 20
66.99604077681748
 30
0.0
 10
315.2315237743395
 20
66.87787092512222
 30
0.0
 10
315.3138883705795
 20
66.7597047750706
 30
0.0
 10
315.3972204822669
 20
66.6416274149488
 30
0.0
 10
315.4814808228181
 20
66.52371242221258
 30
0.0
 10
315.5666348421407
 20
66.4060241248642
 30
0.0
 10
315.6526518048273
 20
66.28861933797043
 30
0.0
 10
315.7395040763147
 20
66.17154871319444
 30
0.0
 10
315.8271665640114
 20
66.05485779920733
 30
0.0
 10
315.915616275318
 20
65.93858788344508
 30
0.0
 10
316.0048319648213
 20
65.82277666661604
 30
0.0
 10
316.0947938502382
 20
65.70745880791783
 30
0.0
 10
316.185483381881
 20
65.59266636933137
 30
0.0
 10
316.2768830541742
 20
65.47842918040415
 30
0.0
 10
316.3689762504889
 20
65.364775139863
 30
0.0
 10
316.4617471145889
 20
65.25173046663193
 30
0.0
 10
316.5551804434884
 20
65.13931991002903
 30
0.0
 10
316.6492615976583
 20
65.02756692679426
 30
0.0
 10
316.7439764253804
 20
64.91649383099087
 30
0.0
 10
316.8393111987096
 20
64.80612192158495
 30
0.0
 10
316.9352525590162
 20
64.69647159154924
 30
0.0
 10
317.0317874704751
 20
64.58756242159346
 30
0.0
 10
317.1289031801803
 20
64.47941326103447
 30
0.0
 10
317.2265871838114
 20
64.3720422978587
 30
0.0
 10
317.3248271959686
 20
64.26546711965793
 30
0.0
 10
317.4236111244536
 20
64.15970476682642
 30
0.0
 10
317.5229270478959
 20
64.05477177916906
 30
0.0
 10
317.622763196223
 20
63.95068423687842
 30
0.0
 10
317.7231079335616
 20
63.84745779667865
 30
0.0
 10
317.8239497432151
 20
63.74510772381215
 30
0.0
 10
317.9252772144263
 20
63.64364892043284
 30
0.0
 10
318.0270790306719
 20
63.54309595088713
 30
0.0
 10
318.1293439592765
 20
63.44346306429162
 30
0.0
 10
318.2320608421657
 20
63.34476421475181
 30
0.0
 10
318.3352185875996
 20
63.24701307952317
 30
0.0
 10
318.4388061627543
 20
63.15022307536548
 30
0.0
 10
318.5428125870332
 20
63.05440737331322
 30
0.0
 10
318.6472269260075
 20
62.95957891204797
 30
0.0
 10
318.752038285899
 20
62.865750410038
 30
0.0
 10
318.8572358085242
 20
62.77293437658624
 30
0.0
 10
318.9628086666351
 20
62.68114312190838
 30
0.0
 10
319.0687460595949
 20
62.59038876634826
 30
0.0
 10
319.175037209335
 20
62.50068324882241
 30
0.0
 10
319.2816713565466
 20
62.4120383345744
 30
0.0
 10
319.388637757064
 20
62.32446562230848
 30
0.0
 10
319.4959256784016
 20
62.23797655076301
 30
0.0
 10
319.6035243964097
 20
62.15258240477592
 30
0.0
 10
319.7114231920203
 20
62.06829432088735
 30
0.0
 10
319.8196113480525
 20
61.98512329251808
 30
0.0
 10
319.9280781460548
 20
61.90308017475658
 30
0.0
 10
320.0368128631592
 20
61.822175688783
 30
0.0
 10
320.14580476893
 20
61.74242042595235
 30
0.0
 10
320.2550431221856
 20
61.66382485155676
 30
0.0
 10
320.3645171677799
 20
61.5863993082813
 30
0.0
 10
320.4742161333264
 20
61.51015401936516
 30
0.0
 10
320.5841292258555
 20
61.4350990914763
 30
0.0
 10
320.6942456283918
 20
61.36124451730495
 30
0.0
 10
320.8045544964451
 20
61.28860017787822
 30
0.0
 10
320.9150449544068
 20
61.21717584459553
 30
0.0
 10
321.0257060918483
 20
61.14698118098242
 30
0.0
 10
321.1365269597184
 20
61.07802574415787
 30
0.0
 10
321.2474965664396
 20
61.01031898600785
 30
0.0
 10
321.3586038739056
 20
60.94387025405639
 30
0.0
 10
321.4698377933859
 20
60.87868879202256
 30
0.0
 10
321.5811871813436
 20
60.81478374005252
 30
0.0
 10
321.6926408351763
 20
60.75216413461175
 30
0.0
 10
321.8041874888967
 20
60.6908389080229
 30
0.0
 10
321.9158158087636
 20
60.63081688763405
 30
0.0
 10
322.0275141709097
 20
60.57210690917313
 30
0.0
 10
322.1392708510355
 20
60.51471770095934
 30
0.0
 10
322.2510740281472
 20
60.45865787616862
 30
0.0
 10
322.3629119982272
 20
60.40393582656688
 30
0.0
 10
322.4747729751779
 20
60.3505598224539
 30
0.0
 10
322.5866450785658
 20
60.29853801337862
 30
0.0
 10
322.6985163299603
 20
60.24787842406521
 30
0.0
 10
322.8103746494314
 20
60.19858894989014
 30
0.0
 10
322.9222078523423
 20
60.15067735185992
 30
0.0
 10
323.034003646492
 20
60.10415125108761
 30
0.0
 10
323.1457496296636
 20
60.05901812276844
 30
0.0
 10
323.2574332876421
 20
60.0152852896602
 30
0.0
 10
323.369041992759
 20
59.97295991507996
 30
0.0
 10
323.4805630030322
 20
59.93204899543269
 30
0.0
 10
323.5919834619625
 20
59.8925593522967
 30
0.0
 10
323.7032903990494
 20
59.85449762409506
 30
0.0
 10
323.8144707310923
 20
59.81787025739194
 30
0.0
 10
323.9255112643309
 20
59.78268349785954
 30
0.0
 10
324.0363986974859
 20
59.74894338096949
 30
0.0
 10
324.1471196257474
 20
59.7166557224721
 30
0.0
 10
324.257660545754
 20
59.68582610873402
 30
0.0
 10
324.3680078616018
 20
59.65645988701408
 30
0.0
 10
324.4781478919047
 20
59.62856215576462
 30
0.0
 10
324.5880668779256
 20
59.60213775505326
 30
0.0
 10
324.6977509927775
 20
59.57719125720671
 30
0.0
 10
324.8071863516876
 20
59.55372695778401
 30
0.0
 10
324.9163590232949
 20
59.53174886699045
 30
0.0
 10
325.0252550419449
 20
59.51126070164836
 30
0.0
 10
325.1338604209193
 20
59.49226587784001
 30
0.0
 10
325.242161166533
 20
59.47476750433919
 30
0.0
 10
325.350143293004
 20
59.45876837694562
 30
0.0
 10
325.4577928379921
 20
59.44427097383142
 30
0.0
 10
325.5650958786868
 20
59.43127745200259
 30
0.0
 10
325.6720385483055
 20
59.41978964497055
 30
0.0
 10
325.7786070528588
 20
59.40980906171713
 30
0.0
 10
325.8847876880207
 20
59.40133688702414
 30
0.0
 10
325.9905668559393
 20
59.39437398322442
 30
0.0
 10
326.0959310818164
 20
59.38892089341486
 30
0.0
 10
326.2008670300767
 20
59.38497784615438
 30
0.0
 10
326.3053615199576
 20
59.38254476165194
 30
0.0
 10
326.4094015403412
 20
59.38162125943001
 30
0.0
 10
326.512974263668
 20
59.38220666743042
 30
0.0
 10
326.6160670587714
 20
59.38430003250972
 30
0.0
 10
326.718667502492
 20
59.38790013225327
 30
0.0
 10
326.8207633899391
 20
59.3930054880197
 30
0.0
 10
326.9223427432875
 20
59.39961437911086
 30
0.0
 10
327.0233938190153
 20
59.40772485794827
 30
0.0
 10
327.1239051135078
 20
59.41733476612504
 30
0.0
 10
327.2238653669759
 20
59.42844175119033
 30
0.0
 10
327.3232635656559
 20
59.4410432840173
 30
0.0
 10
327.4220889422813
 20
59.45513667659864
 30
0.0
 10
327.5203309748392
 20
59.47071910011062
 30
0.0
 10
327.6179793836407
 20
59.48778760308619
 30
0.0
 10
327.7150241267573
 20
59.50633912953877
 30
0.0
 10
327.8114553938903
 20
59.52637053688151
 30
0.0
 10
327.9072635987558
 20
59.54787861349239
 30
0.0
 10
328.0024393700831
 20
59.57086009578218
 30
0.0
 10
328.0969735413303
 20
59.59531168463135
 30
0.0
 10
328.1908571392403
 20
59.62123006106533
 30
0.0
 10
328.2840813713427
 20
59.64861190107332
 30
0.0
 10
328.3766376125791
 20
59.67745388938507
 30
0.0
 10
328.4685173910042
 20
59.70775273241133
 30
0.0
 10
328.5597123733396
 20
59.73950516914231
 30
0.0
 10
328.6502143480988
 20
59.77270798411123
 30
0.0
 10
328.7400152153922
 20
59.80735800676687
 30
0.0
 10
328.8291069500328
 20
59.84345215534611
 30
0.0
 10
328.9174816629977
 20
59.88098730833127
 30
0.0
 10
329.0051312953262
 20
59.91996081240914
 30
0.0
 10
329.0920486831407
 20
59.9603686089829
 30
0.0
 10
329.178223507032
 20
60.00221223942395
 30
0.0
 10
329.2636573323968
 20
60.04547271021389
 30
0.0
 10
329.3483073990326
 20
60.09020803768266
 30
0.0
 10
329.4249388040027
 20
60.13216110250073
 30
0.0
 10
329.4729862652512
 20
60.15983428618112
 30
0.0
 10
329.4933804639846
 20
60.17158043036645
 30
0.0
  0
LINE
  5
136
330
1F
100
AcDbEntity
  8
0
  6
Continuous
 62
     7
370
    30
100
AcDbLine
 10
347.7289660815
 20
105.3386567822
 30
0.0
 11
314.4949473657
 21
86.1530661544
 31
0.0
  0
LINE
  5
137
330
1F
100
AcDbEntity
  8
0
  6
Continuous
 62
     7
370
    30
100
AcDbLine
 10
340.6320482441
 20
66.6016154881
 30
0.0
 11
362.727747071
 21
79.3571909108
 31
0.0
  0
LINE
  5
138
330
1F
100
AcDbEntity
  8
0
  6
Continuous
 62
     7
370
    30
100
AcDbLine
 10
329.4937283552
 20
60.171600283
 30
0.0
 11
338.1521536718
 21
65.1700028242
 31
0.0
  0
LINE
  5
139
330
1F
100
AcDbEntity
  8
0
  6
Continuous
 62
     7
370
    30
100
AcDbLine
 10
342.3938327971
 20
64.7713919257
 30
0.0
 11
342.3938327971
 21
67.6186720618
 31
0.0
  0
LINE
  5
13A
330
1F
100
AcDbEntity
  8
0
  6
Continuous
 62
     7
370
    30
100
AcDbLine
 10
321.4163327971
 20
60.910265747
 30
0.0
 11
321.4163327971
 21
58.7974743338
 31
0.0
  0
LINE
  5
13B
330
1F
100
AcDbEntity
  8
0
  6
Continuous
 62
     7
370
    30
100
AcDbLine
 10
342.3713327971
 20
58.7974743338
 30
0.0
 11
342.3713327971
 21
64.3747848689
 31
0.0
  0
ELLIPSE
  5
13C
330
1F
100
AcDbEntity
  8
0
  6
Continuous
 62
     7
370
    30
100
AcDbEllipse
 10
388.8157132582
 20
111.7422029522
 30
0.0
 11
-0.9999186583269191
 21
1.732097767663759
 31
0.0
210
0.0
220
0.0
230
1.0
 40
0.5775574346
 41
3.927224423831237
 42
5.497716164131006
  0
LINE
  5
13D
330
1F
100
AcDbEntity
  8
0
  6
Continuous
 62
     7
370
    30
100
AcDbLine
 10
390.230142245
 20
110.9261679689
 30
0.0
 11
390.230142245
 21
52.9512728726
 31
0.0
  0
LINE
  5
13E
330
1F
100
AcDbEntity
  8
0
  6
Continuous
 62
     7
370
    30
100
AcDbLine
 10
338.6111318268
 20
142.3580212909
 30
0.0
 11
388.8161440742
 21
113.3752846354
 31
0.0
  0
ELLIPSE
  5
13F
330
1F
100
AcDbEntity
  8
0
  6
Continuous
 62
     7
370
    30
100
AcDbEllipse
 10
388.8157132582
 20
53.7683028366
 30
0.0
 11
-1.000223415011646
 21
1.732625335835628
 31
0.0
210
0.0
220
0.0
230
1.0
 40
0.5772057094
 41
3.124143257728019
 42
3.926919738320266
  0
ELLIPSE
  5
140
330
1F
100
AcDbEntity
  8
0
  6
Continuous
 62
     7
370
    30
100
AcDbEllipse
 10
338.6115626427
 20
140.7244421982
 30
0.0
 11
-1.000223415011646
 21
1.73262533583565
 31
0.0
210
0.0
220
0.0
230
1.0
 40
0.5772057094
 41
5.498020651610322
 42
6.300634703041339
  0
SPLINE
  5
141
330
1F
100
AcDbEntity
  8
0
  6
Continuous
 62
     7
370
    30
100
AcDbSpline
210
0.0
220
0.0
230
1.0
 70
     8
 71
     3
 72
    25
 73
    21
 74
     0
 42
0.000000001
 43
0.00000001
 40
0.0
 40
0.0
 40
0.0
 40
0.0
 40
0.0534261097848723
 40
0.1072860691622036
 40
0.1612714242526465
 40
0.2152566523924609
 40
0.2696388577423613
 40
0.3240209670605422
 40
0.3785433652594093
 40
0.4330657096700897
 40
0.4899454223396035
 40
0.5468251294217797
 40
0.6038692021718213
 40
0.6609133298899201
 40
0.7223860134457749
 40
0.7838713773050835
 40
0.8453446517396033
 40
0.907255947716881
 40
0.969179364325172
 40
1.0
 40
1.0
 40
1.0
 40
1.0
 10
338.1521534450345
 20
65.17000321628443
 30
0.0
 10
338.202585568343
 20
65.19913050793535
 30
0.0
 10
338.3038593517244
 20
65.25762162097261
 30
0.0
 10
338.4540811233459
 20
65.34452593400164
 30
0.0
 10
338.6032278034341
 20
65.43086349967069
 30
0.0
 10
338.7510168470113
 20
65.51645208762037
 30
0.0
 10
338.8972554200162
 20
65.60114377822897
 30
0.0
 10
339.0419442493009
 20
65.68491624283182
 30
0.0
 10
339.1846212546135
 20
65.7674777710876
 30
0.0
 10
339.3272094921916
 20
65.84992729903317
 30
0.0
 10
339.4693684172612
 20
65.93205094919452
 30
0.0
 10
339.6110102699365
 20
66.01379272712374
 30
0.0
 10
339.7500294121135
 20
66.09393453739911
 30
0.0
 10
339.8898511227357
 20
66.17446206529654
 30
0.0
 10
340.029986698854
 20
66.25509785890551
 30
0.0
 10
340.1700298379368
 20
66.33563750520118
 30
0.0
 10
340.3068357044427
 20
66.41430549750122
 30
0.0
 10
340.4400181916537
 20
66.49092988280222
 30
0.0
 10
340.5486289649001
 20
66.55346449529095
 30
0.0
 10
340.6112334351869
 20
66.58961840693745
 30
0.0
 10
340.6320381069996
 20
66.60163304843353
 30
0.0
  0
ARC
  5
142
330
1F
100
AcDbEntity
  8
0
  6
Continuous
 62
     7
370
    30
100
AcDbCircle
 10
350.8338591252
 20
98.4557811551
 30
0.0
 40
7.550783913746805
100
AcDbArc
 50
54.4092132707
 51
114.2803283002
  0
LWPOLYLINE
  5
143
330
1F
100
AcDbEntity
  8
0
  6
Continuous
 62
     7
370
    30
100
AcDbPolyline
 90
       92
 70
   128
 43
0.0
 10
362.727747071
 20
79.3571909108
 10
362.7283565762
 20
79.3575428279
 10
362.9221136258
 20
79.4753683804
 10
363.1105977587
 20
79.6020161395
 10
363.2936797972
 20
79.7373993071
 10
363.471234266
 20
79.8814250983
 10
363.6431394782
 20
80.033994805
 10
363.8092776185
 20
80.1950038636
 10
363.9695348241
 20
80.3643419265
 10
364.1238012629
 20
80.5418929378
 10
364.2719712081
 20
80.727535213
 10
364.4139431117
 20
80.9211415221
 10
364.549619673
 20
81.1225791771
 10
364.6789079062
 20
81.3317101226
 10
364.8017192037
 20
81.5483910306
 10
364.9179693965
 20
81.772473399
 10
365.0275788128
 20
82.0038036529
 10
365.1304723316
 20
82.2422232501
 10
365.2265794349
 20
82.4875687897
 10
365.3158342557
 20
82.7396721241
 10
365.3981756231
 20
82.9983604743
 10
365.4735471046
 20
83.2634565482
 10
365.5418970442
 20
83.5347786622
 10
365.6031785984
 20
83.8121408657
 10
365.6573497678
 20
84.0953530685
 10
365.7043734262
 20
84.384221171
 10
365.744217346
 20
84.6785471976
 10
365.77685422
 20
84.9781294318
 10
365.8022616807
 20
85.282762555
 10
365.820422315
 20
85.5922377869
 10
365.8313236765
 20
85.9063430285
 10
365.834958294
 20
86.2248630078
 10
365.8313236765
 20
86.5475794272
 10
365.820422315
 20
86.8742711129
 10
365.8022616807
 20
87.2047141668
 10
365.77685422
 20
87.5386821197
 10
365.744217346
 20
87.8759460866
 10
365.7043734262
 20
88.2162749237
 10
365.6573497678
 20
88.5594353867
 10
365.6031785984
 20
88.9051922903
 10
365.5418970442
 20
89.2533086702
 10
365.4735471046
 20
89.6035459448
 10
365.3981756231
 20
89.9556640789
 10
365.3158342557
 20
90.3094217483
 10
365.2265794349
 20
90.6645765053
 10
365.1304723316
 20
91.0208849444
 10
365.0275788128
 20
91.3781028697
 10
364.9179693965
 20
91.7359854619
 10
364.8017192037
 20
92.094287446
 10
364.6789079062
 20
92.4527632599
 10
364.549619673
 20
92.8111672221
 10
364.4139431117
 20
93.1692537004
 10
364.2719712081
 20
93.5267772803
 10
364.1238012629
 20
93.8834929329
 10
363.9695348241
 20
94.2391561832
 10
363.8092776185
 20
94.5935232772
 10
363.6431394782
 20
94.9463513496
 10
363.471234266
 20
95.2973985896
 10
363.2936797972
 20
95.646424407
 10
363.1105977587
 20
95.9931895968
 10
362.9221136258
 20
96.3374565035
 10
362.7283565762
 20
96.6789891839
 10
362.5294594012
 20
97.0175535684
 10
362.3255584151
 20
97.3529176219
 10
362.1167933613
 20
97.6848515027
 10
361.903307317
 20
98.0131277199
 10
361.6852465949
 20
98.3375212893
 10
361.4627606429
 20
98.6578098879
 10
361.2360019418
 20
98.9737740057
 10
361.0051259006
 20
99.2851970968
 10
360.7702907503
 20
99.5918657273
 10
360.5316574351
 20
99.893569722
 10
360.2893895025
 20
100.1901023078
 10
360.0436529906
 20
100.4812602563
 10
359.7946163152
 20
100.7668440222
 10
359.5424501534
 20
101.0466578808
 10
359.2873273273
 20
101.3205100616
 10
359.0294226855
 20
101.58821288
 10
358.7689129828
 20
101.8495828658
 10
358.5059767596
 20
102.1044408892
 10
358.2407942192
 20
102.3526122832
 10
357.9735471046
 20
102.5939269634
 10
357.7044185735
 20
102.8282195449
 10
357.4335930732
 20
103.0553294553
 10
357.1612562139
 20
103.2751010446
 10
356.8875946418
 20
103.4873836926
 10
356.6127959108
 20
103.6920319112
 10
356.3370483543
 20
103.8889054448
 10
356.0605409557
 20
104.077869366
 10
355.7834632196
 20
104.2587941686
 10
355.5060050411
 20
104.4315558556
 10
355.2283565762
 20
104.5960360248
  0
LWPOLYLINE
  5
144
330
1F
100
AcDbEntity
  8
0
  6
Continuous
 62
     7
370
    30
100
AcDbPolyline
 90
       81
 70
   128
 43
0.0
 10
327.0064748171
 20
59.406536612
 10
327.0663129762
 20
59.3885112829
 10
327.3120524496
 20
59.3174041654
 10
327.5609320463
 20
59.2500349387
 10
327.8127811968
 20
59.1864497742
 10
328.0674272962
 20
59.1266922502
 10
328.3246958228
 20
59.0708033213
 10
328.5844104576
 20
59.0188212912
 10
328.8463932052
 20
58.9707817856
 10
329.1104645156
 20
58.9267177284
 10
329.3764434077
 20
58.886659319
 10
329.6441475926
 20
58.8506340114
 10
329.9133935995
 20
58.8186664955
 10
330.1839969004
 20
58.7907786802
 10
330.4557720375
 20
58.7669896786
 10
330.7285327495
 20
58.7473157943
 10
331.0020921
 20
58.7317705108
 10
331.2762626051
 20
58.7203644823
 10
331.5508563619
 20
58.7131055256
 10
331.8256851776
 20
58.7099986159
 10
332.1005606983
 20
58.7110458823
 10
332.375294538
 20
58.7162466072
 10
332.6496984079
 20
58.7255972263
 10
332.9235842452
 20
58.739091331
 10
333.1967643424
 20
58.7567196733
 10
333.4690514753
 20
58.7784701714
 10
333.7402590321
 20
58.8043279188
 10
334.0102011405
 20
58.8342751938
 10
334.2786927958
 20
58.868291472
 10
334.5455499872
 20
58.9063534405
 10
334.8105898241
 20
58.9484350133
 10
335.0736306614
 20
58.9945073499
 10
335.3344922241
 20
59.0445388747
 10
335.5929957306
 20
59.0984952985
 10
335.8489640157
 20
59.1563396423
 10
336.1022216514
 20
59.2180322624
 10
336.3525950676
 20
59.2835308778
 10
336.5999126708
 20
59.3527905991
 10
336.844004962
 20
59.425763959
 10
337.0847046525
 20
59.5024009454
 10
337.3218467786
 20
59.582649035
 10
337.5552688152
 20
59.6664532297
 10
337.7848107862
 20
59.7537560945
 10
338.0103153752
 20
59.8444977962
 10
338.2316280326
 20
59.9386161451
 10
338.4485970817
 20
60.036046637
 10
338.6610738228
 20
60.1367224981
 10
338.8689126349
 20
60.2405747301
 10
339.0719710757
 20
60.3475321579
 10
339.2701099791
 20
60.4575214782
 10
339.4631935506
 20
60.5704673098
 10
339.6510894603
 20
60.6862922454
 10
339.8336689337
 20
60.8049169041
 10
340.0108068401
 20
60.9262599868
 10
340.1823817779
 20
61.0502383308
 10
340.3482761583
 20
61.1767669675
 10
340.5083762855
 20
61.3057591807
 10
340.6625724349
 20
61.4371265655
 10
340.8107589282
 20
61.5707790892
 10
340.9528342057
 20
61.706625153
 10
341.0887008961
 20
61.8445716549
 10
341.2182658833
 20
61.9845240532
 10
341.3414403697
 20
62.1263864316
 10
341.4581399379
 20
62.2700615646
 10
341.5682846077
 20
62.4154509845
 10
341.6717988915
 20
62.5624550486
 10
341.7686118457
 20
62.7109730077
 10
341.8586571196
 20
62.860903075
 10
341.9418730007
 20
63.012142496
 10
342.0182024569
 20
63.1645876186
 10
342.087593176
 20
63.3181339646
 10
342.1499976008
 20
63.4726763011
 10
342.2053729626
 20
63.6281087124
 10
342.2536813098
 20
63.7843246729
 10
342.2948895343
 20
63.9412171199
 10
342.3289693941
 20
64.0986785273
 10
342.3558975325
 20
64.2566009789
 10
342.3756554944
 20
64.4148762425
 10
342.3882297385
 20
64.5733958441
 10
342.3936116472
 20
64.7320511424
 10
342.3938327971
 20
64.7713919257
  0
LWPOLYLINE
  5
145
330
1F
100
AcDbEntity
  8
0
  6
Continuous
 62
     7
370
    30
100
AcDbPolyline
 90
      106
 70
   128
 43
0.0
 10
341.558032757
 20
56.4609744091
 10
341.4487731476
 20
56.3157332495
 10
341.3329650595
 20
56.1721929512
 10
341.2106878615
 20
56.0304518896
 10
341.0820253565
 20
55.8906072071
 10
340.9470657233
 20
55.752754746
 10
340.8059014565
 20
55.6169889837
 10
340.6586293029
 20
55.4834029671
 10
340.5053501957
 20
55.3520882495
 10
340.3461691846
 20
55.2231348275
 10
340.1811953643
 20
55.0966310792
 10
340.0105417997
 20
54.972663704
 10
339.8343254481
 20
54.8513176629
 10
339.6526670796
 20
54.7326761206
 10
339.4656911936
 20
54.6168203878
 10
339.273525934
 20
54.5038298665
 10
339.0763030014
 20
54.3937819946
 10
338.8741575625
 20
54.2867521935
 10
338.6672281577
 20
54.182813816
 10
338.4556566061
 20
54.0820380963
 10
338.2395879081
 20
53.9844941011
 10
338.0191701467
 20
53.8902486821
 10
337.7945543849
 20
53.7993664305
 10
337.5658945633
 20
53.7119096323
 10
337.3333473939
 20
53.6279382262
 10
337.097072253
 20
53.5475097619
 10
336.8572310716
 20
53.470679361
 10
336.6139882249
 20
53.3974996794
 10
336.3675104195
 20
53.3280208707
 10
336.1179665789
 20
53.2622905521
 10
335.8655277281
 20
53.200353772
 10
335.6103668759
 20
53.1422529788
 10
335.3526588969
 20
53.0880279918
 10
335.0925804112
 20
53.0377159742
 10
334.8303096638
 20
52.9913514072
 10
334.5660264017
 20
52.9489660668
 10
334.2999117517
 20
52.9105890019
 10
334.0321480953
 20
52.8762465141
 10
333.7629189444
 20
52.8459621401
 10
333.4924088153
 20
52.8197566353
 10
333.2208031019
 20
52.7976479596
 10
332.9482879495
 20
52.7796512652
 10
332.6750501261
 20
52.7657788861
 10
332.4012768954
 20
52.7560403298
 10
332.1271558879
 20
52.7504422706
 10
331.8528749723
 20
52.7489885451
 10
331.5786221273
 20
52.7516801496
 10
331.3045853118
 20
52.7585152395
 10
331.0309523372
 20
52.7694891303
 10
330.7579107377
 20
52.784594301
 10
330.4856476425
 20
52.8038203994
 10
330.214349647
 20
52.8271542487
 10
329.9442026854
 20
52.8545798573
 10
329.6753919029
 20
52.8860784288
 10
329.4081015289
 20
52.9216283759
 10
329.142514751
 20
52.9612053342
 10
328.8788135891
 20
53.0047821798
 10
328.6171787707
 20
53.0523290473
 10
328.3577896073
 20
53.1038133503
 10
328.1008238713
 20
53.1591998042
 10
327.8464576742
 20
53.2184504498
 10
327.5948653458
 20
53.2815246797
 10
327.3462193149
 20
53.3483792659
 10
327.1006899911
 20
53.4189683898
 10
326.8584456481
 20
53.4932436729
 10
326.6196523078
 20
53.5711542108
 10
326.3844736274
 20
53.6526466074
 10
326.1530707866
 20
53.737665012
 10
325.9256023773
 20
53.8261511571
 10
325.702224295
 20
53.9180443989
 10
325.4830896319
 20
54.0132817581
 10
325.2683485719
 20
54.111797964
 10
325.0581482879
 20
54.2135254984
 10
324.8526328406
 20
54.3183946424
 10
324.65194308
 20
54.4263335238
 10
324.4562165489
 20
54.5372681668
 10
324.2655873885
 20
54.6511225424
 10
324.0801862464
 20
54.7678186203
 10
323.9001401874
 20
54.887276423
 10
323.7255726059
 20
55.00941408
 10
323.556603142
 20
55.1341478842
 10
323.3933475989
 20
55.2613923495
 10
323.2359178637
 20
55.3910602687
 10
323.0844218309
 20
55.5230627739
 10
322.9389633284
 20
55.6573093973
 10
322.7996420461
 20
55.7937081328
 10
322.6665534679
 20
55.9321654997
 10
322.539788806
 20
56.0725866061
 10
322.4194349386
 20
56.2148752145
 10
322.3055743502
 20
56.3589338073
 10
322.1982850753
 20
56.504663654
 10
322.0976406444
 20
56.6519648785
 10
322.0037100343
 20
56.8007365281
 10
321.9165576204
 20
56.9508766421
 10
321.8362431324
 20
57.1022823218
 10
321.7628216141
 20
57.2548498015
 10
321.6963433847
 20
57.408474519
 10
321.6368540052
 20
57.5630511875
 10
321.5843942467
 20
57.7184738681
 10
321.5390000623
 20
57.8746360416
 10
321.5007025631
 20
58.0314306825
 10
321.4695279962
 20
58.1887503313
 10
321.4454977271
 20
58.3464871692
 10
321.4286282249
 20
58.5045330912
 10
321.4189310512
 20
58.6627797805
 10
321.4163327971
 20
58.7974743338
  0
ARC
  5
146
330
1F
100
AcDbEntity
  8
0
  6
Continuous
 62
     7
370
    30
100
AcDbCircle
 10
338.4127015239
 20
58.8656149508
 30
0.0
 40
3.959217687901934
100
AcDbArc
 50
322.6016873093
 51
359.0138550483
  0
SPLINE
  5
147
330
1F
100
AcDbEntity
  8
0
  6
Continuous
 62
     8
370
     0
100
AcDbSpline
210
0.0
220
0.0
230
1.0
 70
     8
 71
     3
 72
    19
 73
    15
 74
     0
 42
0.000000001
 43
0.00000001
 40
0.0
 40
0.0
 40
0.0
 40
0.0
 40
0.0833349513557333
 40
0.1666690201605216
 40
0.2500023829178288
 40
0.333335216135595
 40
0.4166676963251393
 40
0.5000000000000006
 40
0.5833323036748664
 40
0.6666647838644034
 40
0.7499976170821745
 40
0.8333309798394781
 40
0.9166650486442665
 40
1.0
 40
1.0
 40
1.0
 40
1.0
 10
380.8896448156402
 20
108.7993884939922
 30
0.0
 10
380.9508155130652
 20
108.7607648177777
 30
0.0
 10
381.0731562600923
 20
108.683517874389
 30
0.0
 10
381.2537452180726
 20
108.5343417471106
 30
0.0
 10
381.4282918439596
 20
108.3638834871238
 30
0.0
 10
381.5938407090742
 20
108.1725335763974
 30
0.0
 10
381.7475691396048
 20
107.9642502177822
 30
0.0
 10
381.886852804808
 20
107.7424196761418
 30
0.0
 10
382.0093227948078
 20
107.5108795892345
 30
0.0
 10
382.1128400595141
 20
107.2736003349785
 30
0.0
 10
382.1957841158627
 20
107.0345478816727
 30
0.0
 10
382.2561383493821
 20
106.7981459196199
 30
0.0
 10
382.2950420773669
 20
106.5671495640329
 30
0.0
 10
382.3007760066268
 20
106.4225646615805
 30
0.0
 10
382.3036429864379
 20
106.3502718275492
 30
0.0
  0
ARC
  5
148
330
1F
100
AcDbEntity
  8
0
  6
Continuous
 62
     8
370
     0
100
AcDbCircle
 10
381.6096739856
 20
107.7261119845
 30
0.0
 40
1.540950716824683
100
AcDbArc
 50
242.6564838576
 51
296.7662186596
  0
SPLINE
  5
149
330
1F
100
AcDbEntity
  8
0
  6
Continuous
 62
     8
370
     0
100
AcDbSpline
210
0.0
220
0.0
230
1.0
 70
     8
 71
     3
 72
    33
 73
    29
 74
     0
 42
0.000000001
 43
0.00000001
 40
0.0
 40
0.0
 40
0.0
 40
0.0
 40
0.0483271078106483
 40
0.0962122205149045
 40
0.1439305772538387
 40
0.1917602960784043
 40
0.2399775680628026
 40
0.2663056819422399
 40
0.2924456669452168
 40
0.3184402234274161
 40
0.3443327712491308
 40
0.3701672446119713
 40
0.413210349312248
 40
0.4564198341603343
 40
0.4999981737625061
 40
0.5437641157391683
 40
0.5870872528900216
 40
0.6301684330558919
 40
0.6732118912438987
 40
0.716422397344659
 40
0.7600023665804604
 40
0.794577070458056
 40
0.8288890377504263
 40
0.8630371419105418
 40
0.8971216824383533
 40
0.9312435193651615
 40
0.9655031833234532
 40
1.0
 40
1.0
 40
1.0
 40
1.0
 10
380.1948787493936
 20
107.5818921324089
 30
0.0
 10
380.212772063193
 20
107.5711264961813
 30
0.0
 10
380.248395040255
 20
107.5496936852056
 30
0.0
 10
380.3013902822746
 20
107.5119633390262
 30
0.0
 10
380.3535952233105
 20
107.4703970812771
 30
0.0
 10
380.4050043499426
 20
107.4245953068297
 30
0.0
 10
380.4477410441675
 20
107.3824279832273
 30
0.0
 10
380.4821163700504
 20
107.3459285674695
 30
0.0
 10
380.5084350435487
 20
107.3165282574452
 30
0.0
 10
380.5340874375362
 20
107.2863724644916
 30
0.0
 10
380.5590746817141
 20
107.2554616669429
 30
0.0
 10
380.5887964487902
 20
107.2167657097974
 30
0.0
 10
380.6226960989807
 20
107.1695004351485
 30
0.0
 10
380.6599521173084
 20
107.112868257342
 30
0.0
 10
380.6952416465606
 20
107.0543089227195
 30
0.0
 10
380.7283065455134
 20
106.994399698693
 30
0.0
 10
380.75879692799
 20
106.9336575091573
 30
0.0
 10
380.7864945193639
 20
106.8724620700344
 30
0.0
 10
380.811398711793
 20
106.8108178201234
 30
0.0
 10
380.8335081916503
 20
106.7487292523209
 30
0.0
 10
380.8514081544167
 20
106.6907699398847
 30
0.0
 10
380.8657008421789
 20
106.6373445655465
 30
0.0
 10
380.8768672428214
 20
106.5887631562402
 30
0.0
 10
380.8859987577385
 20
106.5409245928393
 30
0.0
 10
380.8931087745636
 20
106.4938219586578
 30
0.0
 10
380.8981486137868
 20
106.4474845627899
 30
0.0
 10
380.9012992097747
 20
106.4018089838629
 30
0.0
 10
380.9016845167902
 20
106.3721929110255
 30
0.0
 10
380.9018778347924
 20
106.3573337991874
 30
0.0
  0
ARC
  5
14A
330
1F
100
AcDbEntity
  8
0
  6
Continuous
 62
     8
370
     0
100
AcDbCircle
 10
381.7339626261
 20
107.5105944968
 30
0.0
 40
1.540734413294017
100
AcDbArc
 50
123.2297058793
 51
177.3476850206
  0
LINE
  5
14B
330
1F
100
AcDbEntity
  8
0
  6
Continuous
 62
     8
370
     0
100
AcDbLine
 10
388.8161440742
 20
113.3752846354
 30
0.0
 11
380.8896448156
 21
108.799388494
 31
0.0
  0
LINE
  5
14C
330
1F
100
AcDbEntity
  8
0
  6
Continuous
 62
     8
370
     0
100
AcDbLine
 10
382.3036429864
 20
106.3502718275
 30
0.0
 11
390.230142245
 21
110.9261679689
 31
0.0
  0
LINE
  5
14D
330
1F
100
AcDbEntity
  8
0
  6
Continuous
 62
     8
370
     0
100
AcDbLine
 10
380.9018778348
 20
48.6964971967
 30
0.0
 11
380.9018778348
 21
106.3573337992
 31
0.0
  0
LINE
  5
14E
330
1F
100
AcDbEntity
  8
0
  6
Continuous
 62
     8
370
     0
100
AcDbLine
 10
382.3036429864
 20
48.6894352251
 30
0.0
 11
382.3036429864
 21
106.3502718275
 31
0.0
  0
ARC
  5
14F
330
1F
100
AcDbEntity
  8
0
  6
Continuous
 62
     8
370
     0
100
AcDbCircle
 10
381.6096739856
 20
50.0652753821
 30
0.0
 40
1.540950716824716
100
AcDbArc
 50
242.6564838576
 51
296.7662186596
  0
LINE
  5
150
330
1F
100
AcDbEntity
  8
0
  6
Continuous
 62
     8
370
     0
100
AcDbLine
 10
380.8896448156
 20
108.799388494
 30
0.0
 11
330.9566004693
 21
137.6251214222
 31
0.0
  0
LINE
  5
151
330
1F
100
AcDbEntity
  8
0
  6
Continuous
 62
     8
370
     0
100
AcDbLine
 10
380.1948787494
 20
107.5818921324
 30
0.0
 11
330.261834403
 21
136.4076250606
 31
0.0
  0
ARC
  5
152
330
1F
100
AcDbEntity
  8
0
  6
Continuous
 62
     8
370
     0
100
AcDbCircle
 10
331.8009182797
 20
136.3363274249
 30
0.0
 40
1.540734413293802
100
AcDbArc
 50
123.2297058793
 51
177.3476850206
  0
LINE
  5
153
330
1F
100
AcDbEntity
  8
0
  6
Continuous
 62
     8
370
     0
100
AcDbLine
 10
329.5548353176
 20
135.9993504963
 30
0.0
 11
329.5548353176
 21
94.8469544144
 31
0.0
  0
SPLINE
  5
154
330
1F
100
AcDbEntity
  8
0
  6
Continuous
 62
     8
370
     0
100
AcDbSpline
210
0.0
220
0.0
230
1.0
 70
     8
 71
     3
 72
    33
 73
    29
 74
     0
 42
0.000000001
 43
0.00000001
 40
0.0
 40
0.0
 40
0.0
 40
0.0
 40
0.0483271078103943
 40
0.0962122205145108
 40
0.1439305772534424
 40
0.1917602960781419
 40
0.2399775680627803
 40
0.2663056819423384
 40
0.2924456669454102
 40
0.3184402234276745
 40
0.3443327712494295
 40
0.370167244612276
 40
0.4132103493125195
 40
0.4564198341605064
 40
0.4999981737625391
 40
0.5437641157417648
 40
0.5870872528941704
 40
0.630168433060547
 40
0.6732118912480374
 40
0.7164223973473
 40
0.7600023665806381
 40
0.7945770704600249
 40
0.82888903775362
 40
0.8630371419143469
 40
0.8971216824421582
 40
0.9312435193683422
 40
0.9655031833253541
 40
1.0
 40
1.0
 40
1.0
 40
1.0
 10
329.5548353176496
 20
135.9993504962679
 30
0.0
 10
329.5552129241442
 20
136.019795047019
 30
0.0
 10
329.5559646835806
 20
136.0604971646151
 30
0.0
 10
329.5621450371282
 20
136.1181262719066
 30
0.0
 10
329.5720422938676
 20
136.1726970462523
 30
0.0
 10
329.5860052595078
 20
136.2240017597087
 30
0.0
 10
329.6011563803884
 20
136.2646059608968
 30
0.0
 10
329.6155792197267
 20
136.2959751905238
 30
0.0
 10
329.6278820577144
 20
136.3192647460739
 30
0.0
 10
329.6411722132853
 20
136.3412149403283
 30
0.0
 10
329.6554487074537
 20
136.3618276429808
 30
0.0
 10
329.6741001056583
 20
136.385382019585
 30
0.0
 10
329.6980837464415
 20
136.4106826232872
 30
0.0
 10
329.7285010125601
 20
136.4361449841817
 30
0.0
 10
329.7615702397794
 20
136.4578055715184
 30
0.0
 10
329.7969205765717
 20
136.4755803813696
 30
0.0
 10
329.8342792926194
 20
136.4892228219535
 30
0.0
 10
329.8734266816767
 20
136.4986076715025
 30
0.0
 10
329.9143592037106
 20
136.5037362717206
 30
0.0
 10
329.9570736246761
 20
136.5046089726544
 30
0.0
 10
329.9983166157969
 20
136.5014701169915
 30
0.0
 10
330.0374366584243
 20
136.4953912653758
 30
0.0
 10
330.0739248210431
 20
136.4872216447742
 30
0.0
 10
330.1107869725972
 20
136.4764863140267
 30
0.0
 10
330.1480224100589
 20
136.4632011385277
 30
0.0
 10
330.1856300881823
 20
136.4473105083834
 30
0.0
 10
330.223609115171
 20
136.4290238747455
 30
0.0
 10
330.249063375075
 20
136.4147743816026
 30
0.0
 10
330.2618344030484
 20
136.4076250605766
 30
0.0
  0
SPLINE
  5
155
330
1F
100
AcDbEntity
  8
0
  6
Continuous
 62
     8
370
     0
100
AcDbSpline
210
0.0
220
0.0
230
1.0
 70
     8
 71
     3
 72
    33
 73
    29
 74
     0
 42
0.000000001
 43
0.00000001
 40
0.0
 40
0.0
 40
0.0
 40
0.0
 40
0.0483271078080147
 40
0.0962122205109605
 40
0.1439305772498909
 40
0.1917602960757263
 40
0.2399775680626063
 40
0.2663056819409276
 40
0.2924456669430208
 40
0.3184402234245768
 40
0.3443327712458918
 40
0.3701672446086023
 40
0.413210349309249
 40
0.4564198341584769
 40
0.4999981737625679
 40
0.5437641157401955
 40
0.5870872528916283
 40
0.6301684330576965
 40
0.6732118912454961
 40
0.7164223973456861
 40
0.7600023665805228
 40
0.7945770704585858
 40
0.8288890377512842
 40
0.8630371419115568
 40
0.8971216824393624
 40
0.9312435193660114
 40
0.9655031833239581
 40
0.9999999999999999
 40
0.9999999999999999
 40
0.9999999999999999
 40
0.9999999999999999
 10
380.9018778347924
 20
48.69649719672323
 30
0.0
 10
380.9015002282978
 20
48.67605264597319
 30
0.0
 10
380.9007484688614
 20
48.63535052837857
 30
0.0
 10
380.8945681153136
 20
48.57772142108874
 30
0.0
 10
380.8846708585742
 20
48.52315064674302
 30
0.0
 10
380.870707892934
 20
48.47184593328528
 30
0.0
 10
380.8555567720538
 20
48.43124173209568
 30
0.0
 10
380.8411339327163
 20
48.39987250246789
 30
0.0
 10
380.8288310947295
 20
48.37658294691825
 30
0.0
 10
380.8155409391591
 20
48.3546327526642
 30
0.0
 10
380.801264444991
 20
48.33402005001193
 30
0.0
 10
380.7826130467865
 20
48.3104656734077
 30
0.0
 10
380.7586294060029
 20
48.28516506970524
 30
0.0
 10
380.7282121398833
 20
48.25970270881033
 30
0.0
 10
380.6951429126635
 20
48.23804212147331
 30
0.0
 10
380.6597925758713
 20
48.22026731162216
 30
0.0
 10
380.6224338598244
 20
48.20662487103881
 30
0.0
 10
380.5832864707673
 20
48.19724002148993
 30
0.0
 10
380.5423539487331
 20
48.19211142127173
 30
0.0
 10
380.4996395277669
 20
48.19123872033765
 30
0.0
 10
380.458396536646
 20
48.19437757599966
 30
0.0
 10
380.4192764940191
 20
48.20045642761438
 30
0.0
 10
380.3827883314013
 20
48.20862604821556
 30
0.0
 10
380.3459261798478
 20
48.21936137896268
 30
0.0
 10
380.308690742386
 20
48.23264655446177
 30
0.0
 10
380.2710830642621
 20
48.24853718460631
 30
0.0
 10
380.2331040372724
 20
48.26682381824484
 30
0.0
 10
380.2076497773675
 20
48.28107331138823
 30
0.0
 10
380.1948787493936
 20
48.28822263241459
 30
0.0
  0
LINE
  5
156
330
1F
100
AcDbEntity
  8
0
  6
Continuous
 62
     8
370
     0
100
AcDbLine
 10
344.5518814188
 20
68.8644870133
 30
0.0
 11
380.1948787494
 21
48.2882226324
 31
0.0
  0
LINE
  5
157
330
1F
100
AcDbEntity
  8
0
  6
Continuous
 62
     8
370
     0
100
AcDbLine
 10
390.230142245
 20
52.9512728726
 30
0.0
 11
382.3036429864
 21
48.6894352251
 31
0.0
  0
LINE
  5
158
330
1F
100
AcDbEntity
  8
0
  6
Continuous
 62
     8
370
     0
100
AcDbLine
 10
330.9566004693
 20
137.6251214222
 30
0.0
 11
338.6111318268
 21
142.3580212909
 31
0.0
  0
SPLINE
  5
159
330
1F
100
AcDbEntity
  8
0
  6
Continuous
 62
     8
370
     0
100
AcDbSpline
210
0.0
220
0.0
230
1.0
 70
     8
 71
     3
 72
    14
 73
    10
 74
     0
 42
0.000000001
 43
0.00000001
 40
0.0
 40
0.0
 40
0.0
 40
0.0
 40
0.1625767992649556
 40
0.3251518767756469
 40
0.4877255768698057
 40
0.6502982438939042
 40
0.8128702222009861
 40
0.9754418561484582
 40
0.9999999999999999
 40
0.9999999999999999
 40
0.9999999999999999
 40
0.9999999999999999
 10
382.3036429864379
 20
48.68943522508498
 30
0.0
 10
382.3007745012225
 20
48.61924689959412
 30
0.0
 10
382.29503756117
 20
48.47887099193527
 30
0.0
 10
382.2561564138826
 20
48.28969430473582
 30
0.0
 10
382.1957163747846
 20
48.12063445290707
 30
0.0
 10
382.1130929573746
 20
47.97489584237056
 30
0.0
 10
382.0083789489399
 20
47.85827971062754
 30
0.0
 10
381.9237679199275
 20
47.78728867821096
 30
0.0
 10
381.8701115776495
 20
47.76476969026429
 30
0.0
 10
381.8630699395537
 20
47.76181439072891
 30
0.0
  0
ARC
  5
15A
330
1F
100
AcDbEntity
  8
0
  6
Continuous
 62
     8
370
     0
100
AcDbCircle
 10
380.6870255551
 20
48.23510584
 30
0.0
 40
0.495004921165244
100
AcDbArc
 50
173.8399825112
 51
234.8471587742
  0
SPLINE
  5
15B
330
1F
100
AcDbEntity
  8
0
  6
Continuous
 62
     8
370
     0
100
AcDbSpline
210
0.0
220
0.0
230
1.0
 70
     8
 71
     3
 72
    14
 73
    10
 74
     0
 42
0.000000001
 43
0.00000001
 40
0.0
 40
0.0
 40
0.0
 40
0.0
 40
0.0243808397840823
 40
0.1869820240443435
 40
0.3495835527268047
 40
0.5121857702514653
 40
0.6747890210339719
 40
0.8373936494833785
 40
1.0
 40
1.0
 40
1.0
 40
1.0
 10
329.9331853258862
 20
137.7073492085013
 30
0.0
 10
329.9392201387935
 20
137.7119362887302
 30
0.0
 10
329.9855024466272
 20
137.7471156161553
 30
0.0
 10
330.0892308399486
 20
137.7848820696206
 30
0.0
 10
330.2425638752209
 20
137.8172873075381
 30
0.0
 10
330.4100761990539
 20
137.8159940917553
 30
0.0
 10
330.5866934927242
 20
137.7838290172575
 30
0.0
 10
330.7699541134203
 20
137.7229331267598
 30
0.0
 10
330.8943847977071
 20
137.6577254387898
 30
0.0
 10
330.9566004692952
 20
137.6251214221599
 30
0.0
  0
ARC
  5
15C
330
1F
100
AcDbEntity
  8
0
  6
Continuous
 62
     8
370
     0
100
AcDbCircle
 10
329.7639129169
 20
136.458547124
 30
0.0
 40
0.5045542442664505
100
AcDbArc
 50
185.8005237994
 51
245.5196704604
  0
SPLINE
  5
15D
330
1F
100
AcDbEntity
  8
0
  6
Continuous
 62
     8
370
     0
100
AcDbSpline
210
0.0
220
0.0
230
1.0
 70
     8
 71
     3
 72
   201
 73
   197
 74
     0
 42
0.000000001
 43
0.00000001
 40
0.0
 40
0.0
 40
0.0
 40
0.0
 40
0.0060994574261095
 40
0.0121907398082527
 40
0.0182760707444762
 40
0.0243576803608505
 40
0.0304378028782724
 40
0.036518674156799
 40
0.0406155334860538
 40
0.0447144281404957
 40
0.0488160390627645
 40
0.0529210458437688
 40
0.0570301263895189
 40
0.0613147199871101
 40
0.0656675117497229
 40
0.0717545850726329
 40
0.0778357482413888
 40
0.0839132303140534
 40
0.0899892644000386
 40
0.0960660852050751
 40
0.1027541412822026
 40
0.1094488206456772
 40
0.1115547373364169
 40
0.1136616922759945
 40
0.1157697769714461
 40
0.1178790827827728
 40
0.1199897009114043
 40
0.1260059964738666
 40
0.1320133861553747
 40
0.1380140006583513
 40
0.1440099779080108
 40
0.1500034607920101
 40
0.1559965948736412
 40
0.1600337012471455
 40
0.164072277835128
 40
0.1681129790065078
 40
0.1721564580987205
 40
0.1762033671037896
 40
0.1802543563576434
 40
0.1843100742334018
 40
0.1904551606110644
 40
0.1965907407720797
 40
0.2027190841951248
 40
0.2088424684052273
 40
0.2149631764634104
 40
0.2210834944255511
 40
0.2268557869722752
 40
0.2326316802007554
 40
0.2384130853482749
 40
0.2442019081926748
 40
0.2500000471974808
 40
0.2561451337890974
 40
0.2622807140852367
 40
0.2684090575825024
 40
0.2745324418239808
 40
0.2806531498888449
 40
0.2867734678511731
 40
0.2908962781536877
 40
0.2950206465976981
 40
0.2991472703751354
 40
0.303276845535634
 40
0.3074100666377572
 40
0.3115476264039719
 40
0.3156902153802154
 40
0.3217065115325637
 40
0.3277139015865962
 40
0.3337145162941855
 40
0.3397104936303422
 40
0.3457039765327614
 40
0.3516971106149088
 40
0.3569725019906761
 40
0.362250746375991
 40
0.3675333026720542
 40
0.3696101102110781
 40
0.3716878959253966
 40
0.3737667477426339
 40
0.375846753455213
 40
0.3779280007095337
 40
0.380010576995243
 40
0.3864770651981951
 40
0.3929340137715445
 40
0.3993840731163407
 40
0.4058299021317942
 40
0.4122741649534121
 40
0.4187195276588204
 40
0.4237862821370689
 40
0.4288566513731696
 40
0.4339319232587034
 40
0.4390133819575351
 40
0.4439652639143105
 40
0.4487550615189129
 40
0.4551627748898393
 40
0.4615646813755304
 40
0.4679633826727977
 40
0.474361484388486
 40
0.4807615928617439
 40
0.487166311981828
 40
0.493578240020835
 40
0.4999999665005418
 40
0.5060983030259593
 40
0.5121887234900497
 40
0.518273453360562
 40
0.5243547243527413
 40
0.5304347719906353
 40
0.5365158331474834
 40
0.5406129699303572
 40
0.544712262597513
 40
0.548814392176638
 40
0.5529200382836935
 40
0.5570298787901298
 40
0.5613147199936005
 40
0.5656675117561933
 40
0.5717545850790808
 40
0.577835748247821
 40
0.5839132303204765
 40
0.5899892644064593
 40
0.5960660852115003
 40
0.6027541412886401
 40
0.6094488206521351
 40
0.6115547373428828
 40
0.6136616922824691
 40
0.6157697769779303
 40
0.6178790827892673
 40
0.6199897009179102
 40
0.6260059964802127
 40
0.6320133861615937
 40
0.6380140006644764
 40
0.6440099779140748
 40
0.6500034607980458
 40
0.6559965948796815
 40
0.6600337012532074
 40
0.6640722778412262
 40
0.6681129790126574
 40
0.6721564581049361
 40
0.6762033671100859
 40
0.6802543563640351
 40
0.6843100742399036
 40
0.690455160617544
 40
0.6965907407785413
 40
0.7027190842015727
 40
0.7088424684116662
 40
0.714963176469845
 40
0.7210834944319863
 40
0.7268557869787158
 40
0.7326316802072061
 40
0.7384130853547407
 40
0.7442019081991608
 40
0.7500000472039923
 40
0.7561451337957708
 40
0.7622807140920389
 40
0.7684090575894003
 40
0.7745324418309409
 40
0.7806531498958337
 40
0.7867734678581573
 40
0.7908962781606496
 40
0.7950206466046227
 40
0.7991472703820074
 40
0.8032768455424382
 40
0.8074100666444783
 40
0.8115476264105949
 40
0.8156902153867254
 40
0.8217065115391488
 40
0.827713901593241
 40
0.8337145163008747
 40
0.8397104936370603
 40
0.8457039765394929
 40
0.851697110621638
 40
0.8569725019973904
 40
0.8622507463826782
 40
0.8675333026787022
 40
0.8696101102177075
 40
0.8716878959320055
 40
0.8737667477492204
 40
0.875846753461775
 40
0.8779280007160696
 40
0.8800105770017508
 40
0.8864770652046917
 40
0.8929340137780325
 40
0.8993840731228228
 40
0.9058299021382731
 40
0.9122741649598903
 40
0.9187195276653003
 40
0.9237862821435522
 40
0.9288566513796576
 40
0.9339319232651977
 40
0.939013381964037
 40
0.94396570702011
 40
0.948756345756802
 40
0.9551649282747905
 40
0.9615674092479608
 40
0.9679663907567466
 40
0.9743644791512432
 40
0.9807642818727208
 40
0.9871684042684835
 40
0.9935794464194928
 40
1.0
 40
1.0
 40
1.0
 40
1.0
 10
326.0333017711621
 20
80.04642855781678
 30
0.0
 10
326.0886266613679
 20
79.97913186735893
 30
0.0
 10
326.1992022903626
 20
79.84462868354844
 30
0.0
 10
326.3627181751889
 20
79.63968325688555
 30
0.0
 10
326.5243421686827
 20
79.43260912269213
 30
0.0
 10
326.6839172446507
 20
79.22316498208504
 30
0.0
 10
326.8414851290955
 20
79.01141584558053
 30
0.0
 10
326.9800948058827
 20
78.8206572200931
 30
0.0
 10
327.100442781788
 20
78.65169961976174
 30
0.0
 10
327.2031407418729
 20
78.50518586910725
 30
0.0
 10
327.30492442603
 20
78.35762078767871
 30
0.0
 10
327.4057939753264
 20
78.20900420687218
 30
0.0
 10
327.5071336741634
 20
78.05726296454372
 30
0.0
 10
327.609397628236
 20
77.90158755804285
 30
0.0
 10
327.7262160074374
 20
77.72068397823544
 30
0.0
 10
327.8554713287958
 20
77.5162930387932
 30
0.0
 10
327.9958189963892
 20
77.2888242623972
 30
0.0
 10
328.1336275577362
 20
77.05983299290413
 30
0.0
 10
328.2688967876728
 20
76.82931957671347
 30
0.0
 10
328.4060542469403
 20
76.5895438692229
 30
0.0
 10
328.5447972744388
 20
76.34031877210671
 30
0.0
 10
328.6527507895021
 20
76.1407244994277
 30
0.0
 10
328.7276068552305
 20
75.999644581059
 30
0.0
 10
328.7706615471883
 20
75.91774650304825
 30
0.0
 10
328.8134127884608
 20
75.83566666962844
 30
0.0
 10
328.8558606462385
 20
75.75340488014345
 30
0.0
 10
328.9239912967827
 20
75.62012702186975
 30
0.0
 10
329.0166445356359
 20
75.43554502697386
 30
0.0
 10
329.1320523244139
 20
75.19921214793973
 30
0.0
 10
329.2445415056264
 20
74.96227485516341
 30
0.0
 10
329.3541116121665
 20
74.72473379869564
 30
0.0
 10
329.4607625707401
 20
74.48658925873396
 30
0.0
 10
329.5532005213236
 20
74.27383493879358
 30
0.0
 10
329.6324291939863
 20
74.08669129652445
 30
0.0
 10
329.6993143695918
 20
73.9253034218912
 30
0.0
 10
329.7648757356336
 20
73.76364199253625
 30
0.0
 10
329.8291133599483
 20
73.60170684215653
 30
0.0
 10
329.8920272389249
 20
73.43949807792954
 30
0.0
 10
329.9536172984487
 20
73.27701551323176
 30
0.0
 10
330.0242057416499
 20
73.08638450667344
 30
0.0
 10
330.1027524492389
 20
72.86776896907283
 30
0.0
 10
330.1879995079647
 20
72.62137546796808
 30
0.0
 10
330.2698457901606
 20
72.3753202969043
 30
0.0
 10
330.3482908946171
 20
72.12960392525727
 30
0.0
 10
330.4233348618075
 20
71.88422642035191
 30
0.0
 10
330.4936124989231
 20
71.64385700910883
 30
0.0
 10
330.5593459585893
 20
71.40847719804563
 30
0.0
 10
330.6207549085971
 20
71.17805751495271
 30
0.0
 10
330.6791404021657
 20
70.9479394076663
 30
0.0
 10
330.7345021405804
 20
70.71812289178655
 30
0.0
 10
330.7878513990185
 20
70.48417848693103
 30
0.0
 10
330.8389055747227
 20
70.24645445801198
 30
0.0
 10
330.8873545132703
 20
70.0053165487083
 30
0.0
 10
330.9321865150408
 20
69.7654812056557
 30
0.0
 10
330.9734012030854
 20
69.52694856832028
 30
0.0
 10
331.0109986082766
 20
69.28971907348429
 30
0.0
 10
331.041279041947
 20
69.07947942968984
 30
0.0
 10
331.0654909312212
 20
68.89579164012977
 30
0.0
 10
331.0846949601219
 20
68.73824326702908
 30
0.0
 10
331.1022586364522
 20
68.58128593252788
 30
0.0
 10
331.1181819745913
 20
68.42491947221588
 30
0.0
 10
331.1324650292869
 20
68.26914395568902
 30
0.0
 10
331.1451075707709
 20
68.11395934254311
 30
0.0
 10
331.1577642021331
 20
67.93613047106605
 30
0.0
 10
331.1694371641171
 20
67.73632277443771
 30
0.0
 10
331.1789420857367
 20
67.51533295021692
 30
0.0
 10
331.1849194642567
 20
67.29645372432968
 30
0.0
 10
331.1873689103804
 20
67.07968564347692
 30
0.0
 10
331.1862905243387
 20
66.86502877085047
 30
0.0
 10
331.1818685702416
 20
66.66098794981723
 30
0.0
 10
331.174580506509
 20
66.4672832010681
 30
0.0
 10
331.1648774713628
 20
66.28363192576715
 30
0.0
 10
331.1549622721736
 20
66.13849679495405
 30
0.0
 10
331.1464326977961
 20
66.03087800524354
 30
0.0
 10
331.1403798629738
 20
65.96007896007164
 30
0.0
 10
331.1339055135046
 20
65.8895322216754
 30
0.0
 10
331.12700967448
 20
65.81923773152687
 30
0.0
 10
331.1196922454693
 20
65.74919549055885
 30
0.0
 10
331.106525377745
 20
65.63045179754242
 30
0.0
 10
331.0858833139484
 20
65.46430539651477
 30
0.0
 10
331.0552098964889
 20
65.25279726932516
 30
0.0
 10
331.0205530581326
 20
65.04459733872689
 30
0.0
 10
330.9819125899617
 20
64.8397066441334
 30
0.0
 10
330.9392886256044
 20
64.63812524996011
 30
0.0
 10
330.8960125299974
 20
64.45402545285614
 30
0.0
 10
330.853021215038
 20
64.2866340451557
 30
0.0
 10
330.8111511258996
 20
64.13522473574668
 30
0.0
 10
330.7668224300478
 20
63.98585810509675
 30
0.0
 10
330.7204548571813
 20
63.83985913493741
 30
0.0
 10
330.6726766177803
 20
63.69878025958685
 30
0.0
 10
330.6182093749468
 20
63.54740904890752
 30
0.0
 10
330.5558299449914
 20
63.3854177354029
 30
0.0
 10
330.4839919406742
 20
63.2124142539669
 30
0.0
 10
330.4084592543174
 20
63.04336711989502
 30
0.0
 10
330.3292320483333
 20
62.87827662259138
 30
0.0
 10
330.2463103049714
 20
62.71714282133782
 30
0.0
 10
330.1596941781185
 20
62.5599656723079
 30
0.0
 10
330.069383357014
 20
62.4067457248527
 30
0.0
 10
329.9770174063004
 20
62.26008233229486
 30
0.0
 10
329.8829178874889
 20
62.11989958370918
 30
0.0
 10
329.7873799085097
 20
61.98614194822746
 30
0.0
 10
329.6888210533891
 20
61.85644842723944
 30
0.0
 10
329.5872409164722
 20
61.73081943358785
 30
0.0
 10
329.4826398194655
 20
61.60925508616285
 30
0.0
 10
329.3867386773886
 20
61.50455220385936
 30
0.0
 10
329.3005833350836
 20
61.41530733247642
 30
0.0
 10
329.2250384076024
 20
61.34031556872589
 30
0.0
 10
329.1481235778123
 20
61.267167076856
 30
0.0
 10
329.0698388237254
 20
61.19586167371689
 30
0.0
 10
328.9890849469034
 20
61.12544131733546
 30
0.0
 10
328.905390559375
 20
61.05565697760142
 30
0.0
 10
328.80712997256
 20
60.97748180667877
 30
0.0
 10
328.6947489809349
 20
60.89309869026284
 30
0.0
 10
328.567928339971
 20
60.80424238382055
 30
0.0
 10
328.4385199090156
 20
60.71981204006423
 30
0.0
 10
328.3065238715658
 20
60.63980781669144
 30
0.0
 10
328.1674508505157
 20
60.56170859124641
 30
0.0
 10
328.0209875164984
 20
60.48604474705235
 30
0.0
 10
327.9021111546768
 20
60.4300098753116
 30
0.0
 10
327.8173609299228
 20
60.39249411686244
 30
0.0
 10
327.7679628032679
 20
60.37129307923853
 30
0.0
 10
327.7182555796529
 20
60.35062089314275
 30
0.0
 10
327.6682391189036
 20
60.33047756190675
 30
0.0
 10
327.5868831492874
 20
60.29876860289829
 30
0.0
 10
327.4733582023022
 20
60.25731261937599
 30
0.0
 10
327.3263935286815
 20
60.20888486474478
 30
0.0
 10
327.1774463791349
 20
60.1649718693963
 30
0.0
 10
327.0265170830766
 20
60.1255739825618
 30
0.0
 10
326.8736058465105
 20
60.09069116995483
 30
0.0
 10
326.735576645315
 20
60.06362979822764
 30
0.0
 10
326.6131221745478
 20
60.0428309125985
 30
0.0
 10
326.5068008990783
 20
60.02697234637505
 30
0.0
 10
326.3995809338905
 20
60.01316126910545
 30
0.0
 10
326.2914621688824
 20
60.00139766601522
 30
0.0
 10
326.1824446950621
 20
59.99168148873623
 30
0.0
 10
326.0725283137664
 20
59.98401293753913
 30
0.0
 10
325.9427344478813
 20
59.97742841259919
 30
0.0
 10
325.7926850655228
 20
59.97334723844294
 30
0.0
 10
325.6219301953256
 20
59.97348176980402
 30
0.0
 10
325.4497681997404
 20
59.97835570857654
 30
0.0
 10
325.2761992846646
 20
59.98796939920025
 30
0.0
 10
325.1012235286332
 20
60.00232274960079
 30
0.0
 10
324.9282018962632
 20
60.02105199047096
 30
0.0
 10
324.7572294308575
 20
60.0438457208274
 30
0.0
 10
324.5883904261626
 20
60.0704016146691
 30
0.0
 10
324.4183010970884
 20
60.10117068131261
 30
0.0
 10
324.2469613078114
 20
60.13615334411167
 30
0.0
 10
324.071040779002
 20
60.17610434915206
 30
0.0
 10
323.890699822169
 20
60.22125748980265
 30
0.0
 10
323.7061001114637
 20
60.27187758844235
 30
0.0
 10
323.5208202206322
 20
60.32706705180158
 30
0.0
 10
323.3348600820053
 20
60.38682635423149
 30
0.0
 10
323.148220089261
 20
60.45115523281631
 30
0.0
 10
322.9812948358282
 20
60.51255240329556
 30
0.0
 10
322.8343291380103
 20
60.5694348986608
 30
0.0
 10
322.7074960893877
 20
60.62047795535543
 30
0.0
 10
322.5803548244864
 20
60.67359316012393
 30
0.0
 10
322.4529052081192
 20
60.7287805744039
 30
0.0
 10
322.3251473279241
 20
60.78604008438196
 30
0.0
 10
322.1970810340466
 20
60.84537204189551
 30
0.0
 10
322.0494123432724
 20
60.91600395179338
 30
0.0
 10
321.8822187078708
 20
60.99904327739488
 30
0.0
 10
321.6955979615383
 20
61.09580120840903
 30
0.0
 10
321.5090414630585
 20
61.19659552649868
 30
0.0
 10
321.3225494912459
 20
61.30142652025272
 30
0.0
 10
321.1361221509305
 20
61.41029401341129
 30
0.0
 10
320.9572165706306
 20
61.51868031592029
 30
0.0
 10
320.7858289846992
 20
61.62603625028088
 30
0.0
 10
320.6219402010749
 20
61.73185193806696
 30
0.0
 10
320.4912995054023
 20
61.81871891243432
 30
0.0
 10
320.3938398540481
 20
61.88483080925292
 30
0.0
 10
320.3295034780806
 20
61.92896099878391
 30
0.0
 10
320.2651748712821
 20
61.97357345282541
 30
0.0
 10
320.2008539955124
 20
62.01866816442055
 30
0.0
 10
320.136540801372
 20
62.06424527806065
 30
0.0
 10
320.0271289531671
 20
62.14261200644977
 30
0.0
 10
319.8729303887262
 20
62.25546563630461
 30
0.0
 10
319.6744346833453
 20
62.40547529826001
 30
0.0
 10
319.4768124182963
 20
62.55958064127411
 30
0.0
 10
319.280064389241
 20
62.71778144725136
 30
0.0
 10
319.0841907187871
 20
62.88007749117738
 30
0.0
 10
318.9031297227105
 20
63.03457541709371
 30
0.0
 10
318.736680199872
 20
63.18030946550927
 30
0.0
 10
318.5846313515729
 20
63.31643542911679
 30
0.0
 10
318.4331223179564
 20
63.45508888060373
 30
0.0
 10
318.2835059364331
 20
63.59500568789422
 30
0.0
 10
318.1374368307433
 20
63.73450711576126
 30
0.0
 10
317.9791021662663
 20
63.8888164095328
 30
0.0
 10
317.8076139328649
 20
64.05985624967866
 30
0.0
 10
317.6218665847927
 20
64.2500484439994
 30
0.0
 10
317.4377062922833
 20
64.44358615112455
 30
0.0
 10
317.2551367276993
 20
64.64047412124556
 30
0.0
 10
317.0741454647699
 20
64.84069320137624
 30
0.0
 10
316.8947791161387
 20
65.04431471777863
 30
0.0
 10
316.7168639415969
 20
65.25107152565607
 30
0.0
 10
316.5997571739382
 20
65.39154231231798
 30
0.0
 10
316.5411603873712
 20
65.46182976768439
 30
0.0
  0
SPLINE
  5
15E
330
1F
100
AcDbEntity
  8
0
  6
Continuous
 62
     8
370
     0
100
AcDbSpline
210
0.0
220
0.0
230
1.0
 70
     8
 71
     3
 72
   201
 73
   197
 74
     0
 42
0.000000001
 43
0.00000001
 40
0.0
 40
0.0
 40
0.0
 40
0.0
 40
0.0060994574261477
 40
0.0121907398083201
 40
0.018276070744564
 40
0.0243576803609498
 40
0.0304378028783742
 40
0.0365186741568944
 40
0.04061553348614
 40
0.0447144281405686
 40
0.0488160390628201
 40
0.0529210458438032
 40
0.0570301263895282
 40
0.0613147199870586
 40
0.0656675117496061
 40
0.0717545850724433
 40
0.0778357482411483
 40
0.0839132303137835
 40
0.0899892643997612
 40
0.0960660852048115
 40
0.1027541412819787
 40
0.1094488206455188
 40
0.1115547373362843
 40
0.1136616922758901
 40
0.1157697769713725
 40
0.1178790827827323
 40
0.1199897009113995
 40
0.1260059964737668
 40
0.1320133861551991
 40
0.1380140006581193
 40
0.144009977907742
 40
0.1500034607917242
 40
0.1559965948733581
 40
0.1600337012468756
 40
0.1640722778348804
 40
0.1681129790062918
 40
0.172156458098545
 40
0.176203367103664
 40
0.1802543563575768
 40
0.1843100742334035
 40
0.1904551606111809
 40
0.1965907407722876
 40
0.2027190841954003
 40
0.2088424684055468
 40
0.2149631764637502
 40
0.2210834944258876
 40
0.2268557869725869
 40
0.2326316802010213
 40
0.2384130853484741
 40
0.2442019081927867
 40
0.2500000471974846
 40
0.256145133789228
 40
0.2622807140854682
 40
0.2684090575828088
 40
0.2745324418243359
 40
0.2806531498892225
 40
0.286773467851547
 40
0.2908962781540442
 40
0.2950206465980254
 40
0.2991472703754215
 40
0.303276845535867
 40
0.3074100666379252
 40
0.3115476264040631
 40
0.3156902153802177
 40
0.3217065115326094
 40
0.3277139015866765
 40
0.3337145162942914
 40
0.3397104936304648
 40
0.3457039765328918
 40
0.3516971106150379
 40
0.3569725019907967
 40
0.3622507463760958
 40
0.3675333026721363
 40
0.3696101102111494
 40
0.371687895925456
 40
0.3737667477426803
 40
0.3758467534552453
 40
0.3779280007095507
 40
0.3800105769952437
 40
0.3864770651981491
 40
0.3929340137714625
 40
0.3993840731162338
 40
0.4058299021316733
 40
0.4122741649532882
 40
0.4187195276587042
 40
0.4237862821369666
 40
0.4288566513730877
 40
0.4339319232586485
 40
0.4390133819575137
 40
0.4439652639142921
 40
0.4487550615188603
 40
0.4551627748897513
 40
0.461564681375419
 40
0.4679633826726747
 40
0.4743614843883636
 40
0.4807615928616341
 40
0.4871663119817429
 40
0.4935782400207867
 40
0.4999999665005425
 40
0.5060983030259911
 40
0.5121887234901054
 40
0.5182734533606342
 40
0.5243547243528227
 40
0.5304347719907188
 40
0.5365158331475616
 40
0.5406129699304278
 40
0.5447122625975729
 40
0.5488143921766838
 40
0.552920038283722
 40
0.5570298787901378
 40
0.5613147199935815
 40
0.5656675117561492
 40
0.5717545850790087
 40
0.5778357482477292
 40
0.5839132303203733
 40
0.5899892644063532
 40
0.5960660852113995
 40
0.6027541412885545
 40
0.6094488206520744
 40
0.6115547373428319
 40
0.613661692282429
 40
0.6157697769779018
 40
0.6178790827892514
 40
0.6199897009179078
 40
0.6260059964803347
 40
0.6320133861618145
 40
0.6380140006647699
 40
0.6440099779144155
 40
0.6500034607984084
 40
0.6559965948800405
 40
0.6600337012535498
 40
0.6640722778415408
 40
0.6681129790129329
 40
0.6721564581051611
 40
0.6762033671102496
 40
0.6802543563641263
 40
0.6843100742399116
 40
0.6904551606176939
 40
0.6965907407788045
 40
0.7027190842019202
 40
0.7088424684120687
 40
0.7149631764702729
 40
0.7210834944324099
 40
0.726855786979108
 40
0.7326316802075402
 40
0.7384130853549897
 40
0.744201908199298
 40
0.7500000472039906
 40
0.7561451337956403
 40
0.762280714091806
 40
0.7684090575890915
 40
0.7745324418305828
 40
0.7806531498954529
 40
0.7867734678577801
 40
0.7908962781602901
 40
0.7950206466042924
 40
0.7991472703817186
 40
0.8032768455422028
 40
0.8074100666443083
 40
0.8115476264105022
 40
0.8156902153867216
 40
0.8217065115389686
 40
0.8277139015929206
 40
0.8337145163004501
 40
0.839710493636568
 40
0.8457039765389694
 40
0.8516971106211199
 40
0.8569725019969071
 40
0.8622507463822578
 40
0.8675333026783731
 40
0.8696101102174219
 40
0.8716878959317675
 40
0.8737667477490347
 40
0.8758467534616459
 40
0.8779280007160012
 40
0.8800105770017476
 40
0.8864770652046766
 40
0.892934013778008
 40
0.8993840731227914
 40
0.9058299021382378
 40
0.9122741649598541
 40
0.9187195276652663
 40
0.9237862821435222
 40
0.928856651379634
 40
0.9339319232651825
 40
0.9390133819640326
 40
0.9439657070201455
 40
0.9487563457569009
 40
0.955164928274955
 40
0.9615674092481689
 40
0.967966390756976
 40
0.9743644791514715
 40
0.9807642818729257
 40
0.9871684042686425
 40
0.9935794464195835
 40
1.0
 40
1.0
 40
1.0
 40
1.0
 10
316.5411603873712
 20
65.46182976768439
 30
0.0
 10
316.4858354971651
 20
65.52912645814267
 30
0.0
 10
316.3752598681697
 20
65.66362964195389
 30
0.0
 10
316.2117439833426
 20
65.86857506861774
 30
0.0
 10
316.0501199898483
 20
66.07564920281183
 30
0.0
 10
315.89054491388
 20
66.28509334341932
 30
0.0
 10
315.7329770294351
 20
66.4968424799239
 30
0.0
 10
315.594367352648
 20
66.68760110541119
 30
0.0
 10
315.4740193767429
 20
66.8565587057422
 30
0.0
 10
315.3713214166585
 20
67.00307245639628
 30
0.0
 10
315.2695377325018
 20
67.15063753782422
 30
0.0
 10
315.168668183206
 20
67.29925411863006
 30
0.0
 10
315.06732848437
 20
67.45099536095728
 30
0.0
 10
314.9650645302987
 20
67.6066707674564
 30
0.0
 10
314.848246151099
 20
67.78757434726147
 30
0.0
 10
314.7189908297422
 20
67.99196528670149
 30
0.0
 10
314.5786431621501
 20
68.21943406309566
 30
0.0
 10
314.4408346008038
 20
68.4484253325877
 30
0.0
 10
314.3055653708675
 20
68.67893874877807
 30
0.0
 10
314.1684079115996
 20
68.9187144562692
 30
0.0
 10
314.0296648841
 20
69.16793955338683
 30
0.0
 10
313.9217113690356
 20
69.36753382606737
 30
0.0
 10
313.8468553033061
 20
69.50861374443755
 30
0.0
 10
313.8038006113475
 20
69.59051182244932
 30
0.0
 10
313.7610493700743
 20
69.67259165587025
 30
0.0
 10
313.7186015122958
 20
69.75485344535645
 30
0.0
 10
313.6504708617513
 20
69.88813130362966
 30
0.0
 10
313.5578176228985
 20
70.07271329852361
 30
0.0
 10
313.4424098341216
 20
70.30904617755462
 30
0.0
 10
313.3299206529098
 20
70.54598347032862
 30
0.0
 10
313.2203505463701
 20
70.7835245267949
 30
0.0
 10
313.1136995877967
 20
71.02166906675588
 30
0.0
 10
313.0212616372133
 20
71.23442338669625
 30
0.0
 10
312.9420329645505
 20
71.4215670289659
 30
0.0
 10
312.8751477889447
 20
71.58295490360004
 30
0.0
 10
312.8095864229024
 20
71.74461633295628
 30
0.0
 10
312.7453487985873
 20
71.90655148333764
 30
0.0
 10
312.68243491961
 20
72.06876024756662
 30
0.0
 10
312.6208448600854
 20
72.23124281226679
 30
0.0
 10
312.5502564168833
 20
72.42187381882836
 30
0.0
 10
312.4717097092931
 20
72.64048935643265
 30
0.0
 10
312.386462650566
 20
72.88688285754107
 30
0.0
 10
312.3046163683692
 20
73.13293802860754
 30
0.0
 10
312.2261712639122
 20
73.37865440025634
 30
0.0
 10
312.1511272967214
 20
73.62403190516255
 30
0.0
 10
312.0808496596059
 20
73.8644013164055
 30
0.0
 10
312.01511619994
 20
74.09978112746771
 30
0.0
 10
311.9537072499328
 20
74.33020081055878
 30
0.0
 10
311.8953217563651
 20
74.56031891784252
 30
0.0
 10
311.8399600179515
 20
74.79013543371873
 30
0.0
 10
311.7866107595141
 20
75.02407983857323
 30
0.0
 10
311.7355565838101
 20
75.26180386749373
 30
0.0
 10
311.687107645262
 20
75.50294177680128
 30
0.0
 10
311.6422756434912
 20
75.74277711985674
 30
0.0
 10
311.6010609554463
 20
75.98130975719403
 30
0.0
 10
311.5634635502551
 20
76.21853925203091
 30
0.0
 10
311.5331831165846
 20
76.42877889582536
 30
0.0
 10
311.5089712273105
 20
76.6124666853848
 30
0.0
 10
311.4897671984099
 20
76.77001505848436
 30
0.0
 10
311.4722035220798
 20
76.92697239298398
 30
0.0
 10
311.456280183941
 20
77.08333885329397
 30
0.0
 10
311.4419971292456
 20
77.23911436981835
 30
0.0
 10
311.429354587762
 20
77.39429898296132
 30
0.0
 10
311.4166979564
 20
77.57212785443674
 30
0.0
 10
311.4050249944164
 20
77.77193555106481
 30
0.0
 10
311.3955200727969
 20
77.99292537528679
 30
0.0
 10
311.3895426942771
 20
78.21180460117489
 30
0.0
 10
311.3870932481535
 20
78.42857268202822
 30
0.0
 10
311.3881716341951
 20
78.64322955465491
 30
0.0
 10
311.3925935882922
 20
78.84727037568815
 30
0.0
 10
311.3998816520248
 20
79.040975124437
 30
0.0
 10
311.4095846871709
 20
79.22462639973743
 30
0.0
 10
311.4194998863601
 20
79.36976153054998
 30
0.0
 10
311.4280294607375
 20
79.47738032025997
 30
0.0
 10
311.4340822955598
 20
79.5481793654315
 30
0.0
 10
311.4405566450289
 20
79.6187261038273
 30
0.0
 10
311.4474524840534
 20
79.68902059397533
 30
0.0
 10
311.454769913064
 20
79.75906283494285
 30
0.0
 10
311.4679367807882
 20
79.8778065279584
 30
0.0
 10
311.4885788445848
 20
80.04395292898495
 30
0.0
 10
311.5192522620441
 20
80.25546105617336
 30
0.0
 10
311.5539091004003
 20
80.46366098677079
 30
0.0
 10
311.5925495685711
 20
80.66855168136382
 30
0.0
 10
311.6351735329284
 20
80.87013307553698
 30
0.0
 10
311.6784496285355
 20
81.05423287264115
 30
0.0
 10
311.7214409434948
 20
81.22162428034208
 30
0.0
 10
311.7633110326333
 20
81.37303358975178
 30
0.0
 10
311.8076397284854
 20
81.52240022040264
 30
0.0
 10
311.8540073013519
 20
81.66839919056275
 30
0.0
 10
311.9017855407525
 20
81.80947806591355
 30
0.0
 10
311.9562527835856
 20
81.96084927659246
 30
0.0
 10
312.0186322135406
 20
82.12284059009633
 30
0.0
 10
312.0904702178574
 20
82.29584407153183
 30
0.0
 10
312.1660029042141
 20
82.46489120560344
 30
0.0
 10
312.2452301101982
 20
82.62998170290706
 30
0.0
 10
312.3281518535603
 20
82.79111550416091
 30
0.0
 10
312.4147679804135
 20
82.9482926531914
 30
0.0
 10
312.5050788015186
 20
83.10151260064742
 30
0.0
 10
312.5974447522328
 20
83.24817599320613
 30
0.0
 10
312.6915442710449
 20
83.38835874179264
 30
0.0
 10
312.7870822500244
 20
83.52211637727491
 30
0.0
 10
312.8856411051452
 20
83.65180989826331
 30
0.0
 10
312.9872212420622
 20
83.77743889191512
 30
0.0
 10
313.091822339069
 20
83.89900323934016
 30
0.0
 10
313.1877234811459
 20
84.00370612164357
 30
0.0
 10
313.2738788234507
 20
84.0929509930263
 30
0.0
 10
313.3494237509317
 20
84.16794275677661
 30
0.0
 10
313.4263385807216
 20
84.24109124864617
 30
0.0
 10
313.5046233348083
 20
84.31239665178488
 30
0.0
 10
313.58537721163
 20
84.38281700816583
 30
0.0
 10
313.669071599158
 20
84.45260134789929
 30
0.0
 10
313.7673321859726
 20
84.53077651882134
 30
0.0
 10
313.8797131775973
 20
84.61515963523674
 30
0.0
 10
314.0065338185608
 20
84.70401594167858
 30
0.0
 10
314.1359422495161
 20
84.78844628543466
 30
0.0
 10
314.2679382869658
 20
84.86845050880737
 30
0.0
 10
314.4070113080161
 20
84.94654973425253
 30
0.0
 10
314.5534746420336
 20
85.02221357844691
 30
0.0
 10
314.6723510038555
 20
85.07824845018807
 30
0.0
 10
314.7571012286097
 20
85.11576420863759
 30
0.0
 10
314.8064993552647
 20
85.13696524626178
 30
0.0
 10
314.8562065788799
 20
85.15763743235782
 30
0.0
 10
314.9062230396294
 20
85.1777807635941
 30
0.0
 10
314.9875790092468
 20
85.20948972260334
 30
0.0
 10
315.1011039562337
 20
85.25094570612677
 30
0.0
 10
315.2480686298564
 20
85.29937346075928
 30
0.0
 10
315.3970157794047
 20
85.34328645610876
 30
0.0
 10
315.5479450754641
 20
85.38268434294389
 30
0.0
 10
315.7008563120306
 20
85.41756715555117
 30
0.0
 10
315.8388855132261
 20
85.44462852727834
 30
0.0
 10
315.961339983993
 20
85.46542741290725
 30
0.0
 10
316.0676612594618
 20
85.4812859791303
 30
0.0
 10
316.1748812246487
 20
85.49509705639937
 30
0.0
 10
316.2829999896558
 20
85.50686065948895
 30
0.0
 10
316.3920174634746
 20
85.51657683676707
 30
0.0
 10
316.5019338447687
 20
85.52424538796322
 30
0.0
 10
316.6317277106542
 20
85.53082991290188
 30
0.0
 10
316.7817770930147
 20
85.53491108705677
 30
0.0
 10
316.9525319632154
 20
85.53477655569463
 30
0.0
 10
317.1246939588032
 20
85.5299026169213
 30
0.0
 10
317.2982628738808
 20
85.5202889262971
 30
0.0
 10
317.4732386299129
 20
85.50593557589629
 30
0.0
 10
317.6462602622828
 20
85.48720633502619
 30
0.0
 10
317.8172327276875
 20
85.46441260467006
 30
0.0
 10
317.9860717323807
 20
85.43785671082891
 30
0.0
 10
318.1561610614523
 20
85.40708764418623
 30
0.0
 10
318.3275008507258
 20
85.37210498138822
 30
0.0
 10
318.5034213795314
 20
85.33215397634908
 30
0.0
 10
318.6837623363606
 20
85.28700083569973
 30
0.0
 10
318.8683620470628
 20
85.236380737061
 30
0.0
 10
319.0536419378921
 20
85.18119127370251
 30
0.0
 10
319.2396020765174
 20
85.12143197127304
 30
0.0
 10
319.4262420692611
 20
85.05710309268846
 30
0.0
 10
319.5931673226939
 20
84.9957059222092
 30
0.0
 10
319.7401330205122
 20
84.93882342684381
 30
0.0
 10
319.8669660691358
 20
84.88778037014889
 30
0.0
 10
319.9941073340383
 20
84.83466516537997
 30
0.0
 10
320.1215569504072
 20
84.77947775109948
 30
0.0
 10
320.2493148306042
 20
84.72221824112077
 30
0.0
 10
320.3773811244841
 20
84.66288628360645
 30
0.0
 10
320.5250498152582
 20
84.59225437370921
 30
0.0
 10
320.6922434506574
 20
84.50921504810944
 30
0.0
 10
320.8788641969854
 20
84.41245711709789
 30
0.0
 10
321.0654206954621
 20
84.31166279901018
 30
0.0
 10
321.2519126672726
 20
84.20683180525738
 30
0.0
 10
321.438340007587
 20
84.09796431209938
 30
0.0
 10
321.617245587887
 20
83.98957800959032
 30
0.0
 10
321.7886331738194
 20
83.8822220752291
 30
0.0
 10
321.9525219574457
 20
83.7764063874418
 30
0.0
 10
322.0831626531204
 20
83.68953941307322
 30
0.0
 10
322.1806223044765
 20
83.6234275162535
 30
0.0
 10
322.2449586804454
 20
83.57929732672162
 30
0.0
 10
322.3092872872456
 20
83.53468487267914
 30
0.0
 10
322.3736081630171
 20
83.48959016108296
 30
0.0
 10
322.4379213571594
 20
83.44401304744169
 30
0.0
 10
322.5473332053655
 20
83.36564631905213
 30
0.0
 10
322.7015317698069
 20
83.25279268919745
 30
0.0
 10
322.9000274751875
 20
83.10278302724274
 30
0.0
 10
323.0976497402364
 20
82.94867768422914
 30
0.0
 10
323.2943977692916
 20
82.79047687825215
 30
0.0
 10
323.4902714397455
 20
82.6281808343262
 30
0.0
 10
323.6713324358221
 20
82.47368290840976
 30
0.0
 10
323.8377819586606
 20
82.32794885999387
 30
0.0
 10
323.98983080696
 20
82.19182289638597
 30
0.0
 10
324.1413398405766
 20
82.05316944489849
 30
0.0
 10
324.2909562221004
 20
81.91325263760713
 30
0.0
 10
324.4370253277912
 20
81.77375120973856
 30
0.0
 10
324.5953599922696
 20
81.6194419159651
 30
0.0
 10
324.7668482256726
 20
81.4484020758173
 30
0.0
 10
324.9525955737462
 20
81.25820988149512
 30
0.0
 10
325.136755866256
 20
81.06467217436928
 30
0.0
 10
325.31932543084
 20
80.86778420424831
 30
0.0
 10
325.5003166937688
 20
80.6675651241184
 30
0.0
 10
325.6796830423987
 20
80.46394360771754
 30
0.0
 10
325.8575982169386
 20
80.25718679984234
 30
0.0
 10
325.974704984596
 20
80.1167160131822
 30
0.0
 10
326.0333017711621
 20
80.04642855781678
 30
0.0
  0
LWPOLYLINE
  5
15F
330
1F
100
AcDbEntity
  8
0
  6
Continuous
 62
     8
370
     0
100
AcDbPolyline
 90
       92
 70
   128
 43
0.0
 10
321.9943378605
 20
85.4104453969
 10
322.2719863253
 20
85.2459652277
 10
322.5494445038
 20
85.0732035408
 10
322.82652224
 20
84.8922787382
 10
323.1030296385
 20
84.7033148169
 10
323.3787771951
 20
84.5064412834
 10
323.6535759261
 20
84.3017930648
 10
323.9272374982
 20
84.0895104168
 10
324.1995743574
 20
83.8697388274
 10
324.4703998577
 20
83.6426289171
 10
324.7395283888
 20
83.4083363356
 10
325.0067755035
 20
83.1670216553
 10
325.2719580438
 20
82.9188502614
 10
325.534894267
 20
82.663992238
 10
325.7954039697
 20
82.4026222522
 10
326.0533086115
 20
82.1349194338
 10
326.3084314376
 20
81.861067253
 10
326.5605975994
 20
81.5812533944
 10
326.8096342749
 20
81.2956696284
 10
327.0553707867
 20
81.00451168
 10
327.2976387194
 20
80.7079790941
 10
327.5362720345
 20
80.4062750995
 10
327.7711071848
 20
80.099606469
 10
328.001983226
 20
79.7881833779
 10
328.2287419271
 20
79.47221926
 10
328.4512278791
 20
79.1519306615
 10
328.6692886012
 20
78.8275370921
 10
328.8827746455
 20
78.4992608749
 10
329.0915396993
 20
78.1673269941
 10
329.2954406855
 20
77.8319629405
 10
329.4943378605
 20
77.493398556
 10
329.6880949101
 20
77.1518658757
 10
329.8765790429
 20
76.8075989689
 10
330.0596610814
 20
76.4608337791
 10
330.2372155502
 20
76.1118079618
 10
330.4091207624
 20
75.7607607218
 10
330.5752589027
 20
75.4079326494
 10
330.7355161084
 20
75.0535655553
 10
330.8897825471
 20
74.6979023051
 10
331.0379524924
 20
74.3411866525
 10
331.1799243959
 20
73.9836630726
 10
331.3156009572
 20
73.6255765943
 10
331.4448891905
 20
73.2671726321
 10
331.5677004879
 20
72.9086968182
 10
331.6839506808
 20
72.550394834
 10
331.793560097
 20
72.1925122419
 10
331.8964536158
 20
71.8352943166
 10
331.9925607191
 20
71.4789858774
 10
332.0818155399
 20
71.1238311205
 10
332.1641569074
 20
70.770073451
 10
332.2395283888
 20
70.4179553169
 10
332.3078783285
 20
70.0677180424
 10
332.3691598827
 20
69.7196016625
 10
332.4233310521
 20
69.3738447588
 10
332.4703547105
 20
69.0306842959
 10
332.5101986302
 20
68.6903554588
 10
332.5428355043
 20
68.3530914919
 10
332.5682429649
 20
68.019123539
 10
332.5864035992
 20
67.6886804851
 10
332.5973049607
 20
67.3619887994
 10
332.6009395783
 20
67.03927238
 10
332.5973049607
 20
66.7207524007
 10
332.5864035992
 20
66.406647159
 10
332.5682429649
 20
66.0971719272
 10
332.5428355043
 20
65.792538804
 10
332.5101986302
 20
65.4929565698
 10
332.4703547105
 20
65.1986305432
 10
332.4233310521
 20
64.9097624406
 10
332.3691598827
 20
64.6265502379
 10
332.3078783285
 20
64.3491880344
 10
332.2395283888
 20
64.0778659204
 10
332.1641569074
 20
63.8127698465
 10
332.0818155399
 20
63.5540814963
 10
331.9925607191
 20
63.3019781619
 10
331.8964536158
 20
63.0566326223
 10
331.793560097
 20
62.8182130251
 10
331.6839506808
 20
62.5868827712
 10
331.5677004879
 20
62.3628004028
 10
331.4448891905
 20
62.1461194947
 10
331.3156009572
 20
61.9369885493
 10
331.1799243959
 20
61.7355508943
 10
331.0379524924
 20
61.5419445852
 10
330.8897825471
 20
61.35630231
 10
330.7355161084
 20
61.1787512987
 10
330.5752589027
 20
61.0094132358
 10
330.4091207624
 20
60.8484041772
 10
330.2372155502
 20
60.6958344705
 10
330.0596610814
 20
60.5518086793
 10
329.8765790429
 20
60.4164255117
 10
329.6880949101
 20
60.2897777526
 10
329.4943378605
 20
60.1719522
 10
329.4934902531
 20
60.1714628383
  0
ARC
  5
160
330
1F
100
AcDbEntity
  8
0
  6
Continuous
 62
     8
370
     0
100
AcDbCircle
 10
317.5998434591
 20
79.2701989809
 30
0.0
 40
7.550775264430184
100
AcDbArc
 50
54.4091947557
 51
114.2805423284
  0
ENDSEC
  0
SECTION
  2
OBJECTS
  0
DICTIONARY
  5
C
330
0
100
AcDbDictionary
281
     1
  3
ACAD_GROUP
350
D
  3
ACAD_LAYOUT
350
1A
  3
ACAD_MLINESTYLE
350
17
  3
ACAD_PLOTSETTINGS
350
19
  3
ACAD_PLOTSTYLENAME
350
E
  3
ACAD_SCALELIST
350
47
  0
DICTIONARY
  5
D
102
{ACAD_REACTORS
330
C
102
}
330
C
100
AcDbDictionary
281
     1
  0
DICTIONARY
  5
1A
102
{ACAD_REACTORS
330
C
102
}
330
C
100
AcDbDictionary
281
     1
  3
Layout1
350
1E
  3
Layout2
350
26
  3
Model
350
22
  0
DICTIONARY
  5
17
102
{ACAD_REACTORS
330
C
102
}
330
C
100
AcDbDictionary
281
     1
  3
Standard
350
18
  0
DICTIONARY
  5
19
102
{ACAD_REACTORS
330
C
102
}
330
C
100
AcDbDictionary
281
     1
  0
ACDBDICTIONARYWDFLT
  5
E
102
{ACAD_REACTORS
330
C
102
}
330
C
100
AcDbDictionary
281
     1
  3
Normal
350
F
100
AcDbDictionaryWithDefault
340
F
  0
DICTIONARY
  5
47
102
{ACAD_REACTORS
330
C
102
}
330
C
100
AcDbDictionary
281
     1
  3
A0
350
48
  3
A1
350
49
  3
A2
350
4A
  3
A3
350
4B
  3
A4
350
4C
  3
A5
350
4D
  3
A6
350
4E
  3
A7
350
4F
  3
A8
350
50
  3
A9
350
51
  3
B0
350
52
  3
B1
350
53
  3
B2
350
54
  3
B3
350
55
  3
B4
350
56
  3
B5
350
57
  3
B6
350
58
  3
B7
350
59
  3
B8
350
5A
  3
B9
350
5B
  3
C0
350
5C
  3
C1
350
5D
  3
C2
350
5E
  3
C3
350
5F
  3
C4
350
60
  3
C5
350
61
  3
C6
350
62
  3
C7
350
63
  3
C8
350
64
  3
C9
350
65
  3
D0
350
66
  3
D1
350
67
  3
D2
350
68
  0
LAYOUT
  5
1E
102
{ACAD_REACTORS
330
1A
102
}
330
1A
100
AcDbPlotSettings
  1

  2
none_device
  4

  6

 40
0.0
 41
0.0
 42
0.0
 43
0.0
 44
0.0
 45
0.0
 46
0.0
 47
0.0
 48
0.0
 49
0.0
140
0.0
141
0.0
142
1.0
143
1.0
 70
   688
 72
     1
 73
     0
 74
     5
  7

 75
    16
147
1.0
148
0.0
149
0.0
100
AcDbLayout
  1
Layout1
 70
     1
 71
     1
 10
0.0
 20
0.0
 11
420.0
 21
297.0
 12
0.0
 22
0.0
 32
0.0
 14
1.0000000000E+20
 24
1.0000000000E+20
 34
1.0000000000E+20
 15
-1.0000000000E+20
 25
-1.0000000000E+20
 35
-1.0000000000E+20
146
0.0
 13
0.0
 23
0.0
 33
0.0
 16
1.0
 26
0.0
 36
0.0
 17
0.0
 27
1.0
 37
0.0
 76
     0
330
1B
  0
LAYOUT
  5
26
102
{ACAD_REACTORS
330
1A
102
}
330
1A
100
AcDbPlotSettings
  1

  2
none_device
  4

  6

 40
0.0
 41
0.0
 42
0.0
 43
0.0
 44
0.0
 45
0.0
 46
0.0
 47
0.0
 48
0.0
 49
0.0
140
0.0
141
0.0
142
1.0
143
1.0
 70
   688
 72
     1
 73
     0
 74
     5
  7

 75
    16
147
1.0
148
0.0
149
0.0
100
AcDbLayout
  1
Layout2
 70
     1
 71
     2
 10
0.0
 20
0.0
 11
0.0
 21
0.0
 12
0.0
 22
0.0
 32
0.0
 14
0.0
 24
0.0
 34
0.0
 15
0.0
 25
0.0
 35
0.0
146
0.0
 13
0.0
 23
0.0
 33
0.0
 16
1.0
 26
0.0
 36
0.0
 17
0.0
 27
1.0
 37
0.0
 76
     0
330
23
  0
LAYOUT
  5
22
102
{ACAD_REACTORS
330
1A
102
}
330
1A
100
AcDbPlotSettings
  1

  2
none_device
  4
Letter_(8.50_x_11.00_Inches)
  6

 40
6.35
 41
6.35
 42
6.35000508
 43
6.35000508
 44
215.9
 45
279.4
 46
0.0
 47
0.0
 48
0.0
 49
0.0
140
0.0
141
0.0
142
1.0
143
1.0
 70
  1712
 72
     1
 73
     0
 74
     0
  7

 75
     0
147
1.0
148
0.0
149
0.0
100
AcDbLayout
  1
Model
 70
     1
 71
     0
 10
0.0
 20
0.0
 11
417.0
 21
284.0
 12
0.0
 22
0.0
 32
0.0
 14
0.0
 24
0.0
 34
0.0
 15
417.0
 25
284.0
 35
0.0
146
0.0
 13
0.0
 23
0.0
 33
0.0
 16
1.0
 26
0.0
 36
0.0
 17
0.0
 27
1.0
 37
0.0
 76
     0
330
1F
331
29
  0
MLINESTYLE
  5
18
102
{ACAD_REACTORS
330
17
102
}
330
17
100
AcDbMlineStyle
  2
Standard
 70
     0
  3

 62
   256
 51
90.0
 52
90.0
 71
     2
 49
0.5
 62
   256
  6
BYLAYER
 49
-0.5
 62
   256
  6
BYLAYER
  0
ACDBPLACEHOLDER
  5
F
102
{ACAD_REACTORS
330
E
102
}
330
E
  0
SCALE
  5
48
102
{ACAD_REACTORS
330
47
102
}
330
47
100
AcDbScale
 70
     0
300
1:1
140
1.0
141
1.0
290
     1
  0
SCALE
  5
49
102
{ACAD_REACTORS
330
47
102
}
330
47
100
AcDbScale
 70
     0
300
1:2
140
1.0
141
2.0
290
     0
  0
SCALE
  5
4A
102
{ACAD_REACTORS
330
47
102
}
330
47
100
AcDbScale
 70
     0
300
1:4
140
1.0
141
4.0
290
     0
  0
SCALE
  5
4B
102
{ACAD_REACTORS
330
47
102
}
330
47
100
AcDbScale
 70
     0
300
1:5
140
1.0
141
5.0
290
     0
  0
SCALE
  5
4C
102
{ACAD_REACTORS
330
47
102
}
330
47
100
AcDbScale
 70
     0
300
1:8
140
1.0
141
8.0
290
     0
  0
SCALE
  5
4D
102
{ACAD_REACTORS
330
47
102
}
330
47
100
AcDbScale
 70
     0
300
1:10
140
1.0
141
10.0
290
     0
  0
SCALE
  5
4E
102
{ACAD_REACTORS
330
47
102
}
330
47
100
AcDbScale
 70
     0
300
1:16
140
1.0
141
16.0
290
     0
  0
SCALE
  5
4F
102
{ACAD_REACTORS
330
47
102
}
330
47
100
AcDbScale
 70
     0
300
1:20
140
1.0
141
20.0
290
     0
  0
SCALE
  5
50
102
{ACAD_REACTORS
330
47
102
}
330
47
100
AcDbScale
 70
     0
300
1:30
140
1.0
141
30.0
290
     0
  0
SCALE
  5
51
102
{ACAD_REACTORS
330
47
102
}
330
47
100
AcDbScale
 70
     0
300
1:40
140
1.0
141
40.0
290
     0
  0
SCALE
  5
52
102
{ACAD_REACTORS
330
47
102
}
330
47
100
AcDbScale
 70
     0
300
1:50
140
1.0
141
50.0
290
     0
  0
SCALE
  5
53
102
{ACAD_REACTORS
330
47
102
}
330
47
100
AcDbScale
 70
     0
300
1:100
140
1.0
141
100.0
290
     0
  0
SCALE
  5
54
102
{ACAD_REACTORS
330
47
102
}
330
47
100
AcDbScale
 70
     0
300
2:1
140
2.0
141
1.0
290
     0
  0
SCALE
  5
55
102
{ACAD_REACTORS
330
47
102
}
330
47
100
AcDbScale
 70
     0
300
4:1
140
4.0
141
1.0
290
     0
  0
SCALE
  5
56
102
{ACAD_REACTORS
330
47
102
}
330
47
100
AcDbScale
 70
     0
300
8:1
140
8.0
141
1.0
290
     0
  0
SCALE
  5
57
102
{ACAD_REACTORS
330
47
102
}
330
47
100
AcDbScale
 70
     0
300
10:1
140
10.0
141
1.0
290
     0
  0
SCALE
  5
58
102
{ACAD_REACTORS
330
47
102
}
330
47
100
AcDbScale
 70
     0
300
100:1
140
100.0
141
1.0
290
     0
  0
SCALE
  5
59
102
{ACAD_REACTORS
330
47
102
}
330
47
100
AcDbScale
 70
     0
300
1/128" = 1'-0"
140
0.0078125
141
12.0
290
     0
  0
SCALE
  5
5A
102
{ACAD_REACTORS
330
47
102
}
330
47
100
AcDbScale
 70
     0
300
1/64" = 1'-0"
140
0.015625
141
12.0
290
     0
  0
SCALE
  5
5B
102
{ACAD_REACTORS
330
47
102
}
330
47
100
AcDbScale
 70
     0
300
1/32" = 1'-0"
140
0.03125
141
12.0
290
     0
  0
SCALE
  5
5C
102
{ACAD_REACTORS
330
47
102
}
330
47
100
AcDbScale
 70
     0
300
1/16" = 1'-0"
140
0.0625
141
12.0
290
     0
  0
SCALE
  5
5D
102
{ACAD_REACTORS
330
47
102
}
330
47
100
AcDbScale
 70
     0
300
3/32" = 1'-0"
140
0.09375
141
12.0
290
     0
  0
SCALE
  5
5E
102
{ACAD_REACTORS
330
47
102
}
330
47
100
AcDbScale
 70
     0
300
1/8" = 1'-0"
140
0.125
141
12.0
290
     0
  0
SCALE
  5
5F
102
{ACAD_REACTORS
330
47
102
}
330
47
100
AcDbScale
 70
     0
300
3/16" = 1'-0"
140
0.1875
141
12.0
290
     0
  0
SCALE
  5
60
102
{ACAD_REACTORS
330
47
102
}
330
47
100
AcDbScale
 70
     0
300
1/4" = 1'-0"
140
0.25
141
12.0
290
     0
  0
SCALE
  5
61
102
{ACAD_REACTORS
330
47
102
}
330
47
100
AcDbScale
 70
     0
300
3/8" = 1'-0"
140
0.375
141
12.0
290
     0
  0
SCALE
  5
62
102
{ACAD_REACTORS
330
47
102
}
330
47
100
AcDbScale
 70
     0
300
1/2" = 1'-0"
140
0.5
141
12.0
290
     0
  0
SCALE
  5
63
102
{ACAD_REACTORS
330
47
102
}
330
47
100
AcDbScale
 70
     0
300
3/4" = 1'-0"
140
0.75
141
12.0
290
     0
  0
SCALE
  5
64
102
{ACAD_REACTORS
330
47
102
}
330
47
100
AcDbScale
 70
     0
300
1" = 1'-0"
140
1.0
141
12.0
290
     0
  0
SCALE
  5
65
102
{ACAD_REACTORS
330
47
102
}
330
47
100
AcDbScale
 70
     0
300
1-1/2" = 1'-0"
140
1.5
141
12.0
290
     0
  0
SCALE
  5
66
102
{ACAD_REACTORS
330
47
102
}
330
47
100
AcDbScale
 70
     0
300
3" = 1'-0"
140
3.0
141
12.0
290
     0
  0
SCALE
  5
67
102
{ACAD_REACTORS
330
47
102
}
330
47
100
AcDbScale
 70
     0
300
6" = 1'-0"
140
6.0
141
12.0
290
     0
  0
SCALE
  5
68
102
{ACAD_REACTORS
330
47
102
}
330
47
100
AcDbScale
 70
     0
300
1'-0" = 1'-0"
140
12.0
141
12.0
290
     0
  0
ENDSEC
  0
EOF
