  0
SECTION
  2
HEADER
  9
$ACADVER
  1
AC1015
  9
$ACADMAINTVER
 70
     6
  9
$DWGCODEPAGE
  3
ANSI_1252
  9
$INSBASE
 10
0.0
 20
0.0
 30
0.0
  9
$EXTMIN
 10
0.0
 20
0.0
 30
0.0
  9
$EXTMAX
 10
355.0
 20
224.0
 30
0.0
  9
$LIMMIN
 10
0.0
 20
0.0
  9
$LIMMAX
 10
355.0
 20
224.0
  9
$ORTHOMODE
 70
     0
  9
$REGENMODE
 70
     1
  9
$FILLMODE
 70
     1
  9
$QTEXTMODE
 70
     0
  9
$MIRRTEXT
 70
     1
  9
$LTSCALE
 40
1.0
  9
$ATTMODE
 70
     1
  9
$TEXTSIZE
 40
3.5
  9
$TRACEWID
 40
1.0
  9
$TEXTSTYLE
  7
Standard
  9
$CLAYER
  8
0
  9
$CELTYPE
  6
ByLayer
  9
$CECOLOR
 62
   256
  9
$CELTSCALE
 40
1.0
  9
$DISPSILH
 70
     0
  9
$DIMSCALE
 40
1.0
  9
$DIMASZ
 40
3.302
  9
$DIMEXO
 40
1.0
  9
$DIMDLI
 40
3.75
  9
$DIMRND
 40
0.0
  9
$DIMDLE
 40
0.0
  9
$DIMEXE
 40
1.0
  9
$DIMTP
 40
0.0
  9
$DIMTM
 40
0.0
  9
$DIMTXT
 40
2.8
  9
$DIMCEN
 40
2.5
  9
$DIMTSZ
 40
0.0
  9
$DIMTOL
 70
     0
  9
$DIMLIM
 70
     0
  9
$DIMTIH
 70
     1
  9
$DIMTOH
 70
     1
  9
$DIMSE1
 70
     0
  9
$DIMSE2
 70
     0
  9
$DIMTAD
 70
     1
  9
$DIMZIN
 70
     0
  9
$DIMBLK
  1

  9
$DIMASO
 70
     1
  9
$DIMSHO
 70
     1
  9
$DIMPOST
  1

  9
$DIMAPOST
  1

  9
$DIMALT
 70
     0
  9
$DIMALTD
 70
     3
  9
$DIMALTF
 40
0.0393700787
  9
$DIMLFAC
 40
1.0
  9
$DIMTOFL
 70
     1
  9
$DIMTVP
 40
0.0
  9
$DIMTIX
 70
     0
  9
$DIMSOXD
 70
     0
  9
$DIMSAH
 70
     0
  9
$DIMBLK1
  1

  9
$DIMBLK2
  1

  9
$DIMSTYLE
  2
ISO-25
  9
$DIMCLRD
 70
     0
  9
$DIMCLRE
 70
     0
  9
$DIMCLRT
 70
     0
  9
$DIMTFAC
 40
1.0
  9
$DIMGAP
 40
1.524
  9
$DIMJUST
 70
     0
  9
$DIMSD1
 70
     0
  9
$DIMSD2
 70
     0
  9
$DIMTOLJ
 70
     0
  9
$DIMTZIN
 70
     0
  9
$DIMALTZ
 70
     0
  9
$DIMALTTZ
 70
     0
  9
$DIMUPT
 70
     0
  9
$DIMDEC
 70
     2
  9
$DIMTDEC
 70
     2
  9
$DIMALTU
 70
     2
  9
$DIMALTTD
 70
     3
  9
$DIMTXSTY
  7
Standard
  9
$DIMAUNIT
 70
     0
  9
$DIMADEC
 70
     2
  9
$DIMALTRND
 40
0.0
  9
$DIMAZIN
 70
     0
  9
$DIMDSEP
 70
    44
  9
$DIMATFIT
 70
     3
  9
$DIMFRAC
 70
     0
  9
$DIMLDRBLK
  1

  9
$DIMLUNIT
 70
     2
  9
$DIMLWD
 70
    -2
  9
$DIMLWE
 70
    -2
  9
$DIMTMOVE
 70
     0
  9
$LUNITS
 70
     2
  9
$LUPREC
 70
     2
  9
$SKETCHINC
 40
1.0
  9
$FILLETRAD
 40
10.0
  9
$AUNITS
 70
     0
  9
$AUPREC
 70
     2
  9
$MENU
  1
.
  9
$ELEVATION
 40
0.0
  9
$PELEVATION
 40
0.0
  9
$THICKNESS
 40
0.0
  9
$LIMCHECK
 70
     0
  9
$CHAMFERA
 40
0.0
  9
$CHAMFERB
 40
0.0
  9
$CHAMFERC
 40
0.0
  9
$CHAMFERD
 40
0.0
  9
$SKPOLY
 70
     0
  9
$TDCREATE
 40
2457625.342772488
  9
$TDUCREATE
 40
2457625.217772488
  9
$TDUPDATE
 40
2457625.342772859
  9
$TDUUPDATE
 40
2457625.217772859
  9
$TDINDWG
 40
0.0000000116
  9
$TDUSRTIMER
 40
0.0000000116
  9
$USRTIMER
 70
     1
  9
$ANGBASE
 50
0.0
  9
$ANGDIR
 70
     0
  9
$PDMODE
 70
     0
  9
$PDSIZE
 40
-1.0
  9
$PLINEWID
 40
0.0
  9
$SPLFRAME
 70
     0
  9
$SPLINETYPE
 70
     6
  9
$SPLINESEGS
 70
     8
  9
$HANDSEED
  5
19E
  9
$SURFTAB1
 70
     6
  9
$SURFTAB2
 70
     6
  9
$SURFTYPE
 70
     6
  9
$SURFU
 70
     6
  9
$SURFV
 70
     6
  9
$UCSBASE
  2

  9
$UCSNAME
  2

  9
$UCSORG
 10
0.0
 20
0.0
 30
0.0
  9
$UCSXDIR
 10
1.0
 20
0.0
 30
0.0
  9
$UCSYDIR
 10
0.0
 20
1.0
 30
0.0
  9
$UCSORTHOREF
  2

  9
$UCSORTHOVIEW
 70
     0
  9
$UCSORGTOP
 10
0.0
 20
0.0
 30
0.0
  9
$UCSORGBOTTOM
 10
0.0
 20
0.0
 30
0.0
  9
$UCSORGLEFT
 10
0.0
 20
0.0
 30
0.0
  9
$UCSORGRIGHT
 10
0.0
 20
0.0
 30
0.0
  9
$UCSORGFRONT
 10
0.0
 20
0.0
 30
0.0
  9
$UCSORGBACK
 10
0.0
 20
0.0
 30
0.0
  9
$PUCSBASE
  2

  9
$PUCSNAME
  2

  9
$PUCSORG
 10
0.0
 20
0.0
 30
0.0
  9
$PUCSXDIR
 10
1.0
 20
0.0
 30
0.0
  9
$PUCSYDIR
 10
0.0
 20
1.0
 30
0.0
  9
$PUCSORTHOREF
  2

  9
$PUCSORTHOVIEW
 70
     0
  9
$PUCSORGTOP
 10
0.0
 20
0.0
 30
0.0
  9
$PUCSORGBOTTOM
 10
0.0
 20
0.0
 30
0.0
  9
$PUCSORGLEFT
 10
0.0
 20
0.0
 30
0.0
  9
$PUCSORGRIGHT
 10
0.0
 20
0.0
 30
0.0
  9
$PUCSORGFRONT
 10
0.0
 20
0.0
 30
0.0
  9
$PUCSORGBACK
 10
0.0
 20
0.0
 30
0.0
  9
$USERI1
 70
     0
  9
$USERI2
 70
     0
  9
$USERI3
 70
     0
  9
$USERI4
 70
     0
  9
$USERI5
 70
     0
  9
$USERR1
 40
0.0
  9
$USERR2
 40
0.0
  9
$USERR3
 40
0.0
  9
$USERR4
 40
0.0
  9
$USERR5
 40
0.0
  9
$WORLDVIEW
 70
     1
  9
$SHADEDGE
 70
     3
  9
$SHADEDIF
 70
    70
  9
$TILEMODE
 70
     1
  9
$MAXACTVP
 70
    64
  9
$PINSBASE
 10
0.0
 20
0.0
 30
0.0
  9
$PLIMCHECK
 70
     0
  9
$PEXTMIN
 10
1.0000000000E+20
 20
1.0000000000E+20
 30
1.0000000000E+20
  9
$PEXTMAX
 10
-1.0000000000E+20
 20
-1.0000000000E+20
 30
-1.0000000000E+20
  9
$PLIMMIN
 10
0.0
 20
0.0
  9
$PLIMMAX
 10
420.0
 20
297.0
  9
$UNITMODE
 70
     0
  9
$VISRETAIN
 70
     1
  9
$PLINEGEN
 70
     0
  9
$PSLTSCALE
 70
     1
  9
$TREEDEPTH
 70
  3020
  9
$CMLSTYLE
  2
Standard
  9
$CMLJUST
 70
     0
  9
$CMLSCALE
 40
20.0
  9
$PROXYGRAPHICS
 70
     1
  9
$MEASUREMENT
 70
     1
  9
$CELWEIGHT
370
    -1
  9
$ENDCAPS
280
     0
  9
$JOINSTYLE
280
     0
  9
$LWDISPLAY
290
     1
  9
$INSUNITS
 70
     4
  9
$HYPERLINKBASE
  1

  9
$STYLESHEET
  1

  9
$XEDIT
290
     1
  9
$CEPSNTYPE
380
     0
  9
$PSTYLEMODE
290
     1
  9
$FINGERPRINTGUID
  2
{5B2642BA-8561-4783-B87D-4A1D98248B3F}
  9
$VERSIONGUID
  2
{FAEB1C32-E019-11D5-929B-00C0DF256EC4}
  9
$EXTNAMES
290
     1
  9
$PSVPSCALE
 40
0.0
  9
$OLESTARTUP
290
     0
  0
ENDSEC
  0
SECTION
  2
CLASSES
  0
CLASS
  1
ACDBDICTIONARYWDFLT
  2
AcDbDictionaryWithDefault
  3
ObjectDBX Classes
 90
        0
280
     0
281
     0
  0
CLASS
  1
VISUALSTYLE
  2
AcDbVisualStyle
  3
ObjectDBX Classes
 90
     4095
280
     0
281
     0
  0
CLASS
  1
MATERIAL
  2
AcDbMaterial
  3
ObjectDBX Classes
 90
     1153
280
     0
281
     0
  0
CLASS
  1
SCALE
  2
AcDbScale
  3
ObjectDBX Classes
 90
     1153
280
     0
281
     0
  0
CLASS
  1
TABLESTYLE
  2
AcDbTableStyle
  3
ObjectDBX Classes
 90
     4095
280
     0
281
     0
  0
CLASS
  1
MLEADERSTYLE
  2
AcDbMLeaderStyle
  3
ACDB_MLEADERSTYLE_CLASS
 90
     4095
280
     0
281
     0
  0
CLASS
  1
SUN
  2
AcDbSun
  3
SCENEOE
 90
     1153
280
     0
281
     0
  0
CLASS
  1
ACDBPLACEHOLDER
  2
AcDbPlaceHolder
  3
ObjectDBX Classes
 90
        0
280
     0
281
     0
  0
CLASS
  1
LAYOUT
  2
AcDbLayout
  3
ObjectDBX Classes
 90
        0
280
     0
281
     0
  0
ENDSEC
  0
SECTION
  2
TABLES
  0
TABLE
  2
VPORT
  5
8
330
0
100
AcDbSymbolTable
 70
     1
  0
VPORT
  5
29
330
8
100
AcDbSymbolTableRecord
100
AcDbViewportTableRecord
  2
*Active
 70
     0
 10
0.0
 20
0.0
 11
1.0
 21
1.0
 12
177.5
 22
112.0
 13
0.0
 23
0.0
 14
10.0
 24
10.0
 15
10.0
 25
10.0
 16
0.0
 26
0.0
 36
1.0
 17
0.0
 27
0.0
 37
0.0
 40
224.0
 41
1.5848214286
 42
50.0
 43
0.0
 44
0.0
 50
0.0
 51
0.0
 71
     0
 72
  2000
 73
     1
 74
     3
 75
     0
 76
     0
 77
     0
 78
     0
281
     0
 65
     1
110
0.0
120
0.0
130
0.0
111
1.0
121
0.0
131
0.0
112
0.0
122
1.0
132
0.0
 79
     0
146
0.0
  0
ENDTAB
  0
TABLE
  2
LTYPE
  5
5
330
0
100
AcDbSymbolTable
 70
     6
  0
LTYPE
  5
14
330
5
100
AcDbSymbolTableRecord
100
AcDbLinetypeTableRecord
  2
ByBlock
 70
     0
  3

 72
    65
 73
     0
 40
0.0
  0
LTYPE
  5
15
330
5
100
AcDbSymbolTableRecord
100
AcDbLinetypeTableRecord
  2
ByLayer
 70
     0
  3

 72
    65
 73
     0
 40
0.0
  0
LTYPE
  5
16
330
5
100
AcDbSymbolTableRecord
100
AcDbLinetypeTableRecord
  2
Continuous
 70
     0
  3
Solid line
 72
    65
 73
     0
 40
0.0
  0
LTYPE
  5
6E
330
5
100
AcDbSymbolTableRecord
100
AcDbLinetypeTableRecord
  2
HIDDEN
 70
     0
  3
Hidden __ __ __ __ __ __ __ __ __ __ __ __ __ __
 72
    65
 73
     2
 40
1.905
 49
1.27
 74
     0
 49
-0.635
 74
     0
  0
LTYPE
  5
6F
330
5
100
AcDbSymbolTableRecord
100
AcDbLinetypeTableRecord
  2
PHANTOM
 70
     0
  3
Phantom ______  __  __  ______  __  __  ______
 72
    65
 73
     6
 40
12.7
 49
6.35
 74
     0
 49
-1.27
 74
     0
 49
1.27
 74
     0
 49
-1.27
 74
     0
 49
1.27
 74
     0
 49
-1.27
 74
     0
  0
LTYPE
  5
70
330
5
100
AcDbSymbolTableRecord
100
AcDbLinetypeTableRecord
  2
CENTER
 70
     0
  3
Center ____ _ ____ _ ____ _ ____ _ ____ _ ____
 72
    65
 73
     4
 40
10.16
 49
6.35
 74
     0
 49
-1.27
 74
     0
 49
1.27
 74
     0
 49
-1.27
 74
     0
  0
LTYPE
  5
71
330
5
100
AcDbSymbolTableRecord
100
AcDbLinetypeTableRecord
  2
CENTERX2
 70
     0
  3
Center (2x) ________  __  ________  __  _____
 72
    65
 73
     4
 40
20.32
 49
12.7
 74
     0
 49
-2.54
 74
     0
 49
2.54
 74
     0
 49
-2.54
 74
     0
  0
LTYPE
  5
72
330
5
100
AcDbSymbolTableRecord
100
AcDbLinetypeTableRecord
  2
DOT2
 70
     0
  3
Dot (.5x) ........................................
 72
    65
 73
     2
 40
0.635
 49
0.0
 74
     0
 49
-0.635
 74
     0
  0
ENDTAB
  0
TABLE
  2
LAYER
  5
2
330
0
100
AcDbSymbolTable
 70
     2
  0
LAYER
  5
10
330
2
100
AcDbSymbolTableRecord
100
AcDbLayerTableRecord
  2
0
 70
     0
 62
     7
  6
Continuous
370
    -3
390
F
  0
LAYER
  5
73
330
2
100
AcDbSymbolTableRecord
100
AcDbLayerTableRecord
  2
FORMAT
 70
     0
 62
     7
  6
Continuous
370
    -3
390
F
  0
ENDTAB
  0
TABLE
  2
STYLE
  5
3
330
0
100
AcDbSymbolTable
 70
     2
  0
STYLE
  5
11
330
3
100
AcDbSymbolTableRecord
100
AcDbTextStyleTableRecord
  2
Standard
 70
     0
 40
0.0
 41
1.0
 50
0.0
 71
     0
 42
3.5
  3
txt
  4

  0
STYLE
  5
74
330
3
100
AcDbSymbolTableRecord
100
AcDbTextStyleTableRecord
  2
SLDTEXTSTYLE0
 70
     0
 40
0.0
 41
0.605
 50
0.0
 71
     0
 42
3.5
  3
TXT
  4

  0
ENDTAB
  0
TABLE
  2
VIEW
  5
6
330
0
100
AcDbSymbolTable
 70
     0
  0
ENDTAB
  0
TABLE
  2
UCS
  5
7
330
0
100
AcDbSymbolTable
 70
     0
  0
ENDTAB
  0
TABLE
  2
APPID
  5
9
330
0
100
AcDbSymbolTable
 70
     1
  0
APPID
  5
12
330
9
100
AcDbSymbolTableRecord
100
AcDbRegAppTableRecord
  2
ACAD
 70
     0
  0
ENDTAB
  0
TABLE
  2
DIMSTYLE
  5
A
330
0
100
AcDbSymbolTable
 70
     1
100
AcDbDimStyleTable
  0
DIMSTYLE
105
27
330
A
100
AcDbSymbolTableRecord
100
AcDbDimStyleTableRecord
  2
ISO-25
 70
     0
 41
2.5
 42
0.625
 43
3.75
 44
1.25
 73
     0
 74
     0
 77
     1
 78
     8
140
2.5
141
2.5
143
0.0393700787
147
0.625
171
     3
172
     1
178
     0
271
     2
272
     2
274
     3
278
    44
283
     0
284
     8
340
11
  0
ENDTAB
  0
TABLE
  2
BLOCK_RECORD
  5
1
330
0
100
AcDbSymbolTable
 70
     1
  0
BLOCK_RECORD
  5
1F
330
1
100
AcDbSymbolTableRecord
100
AcDbBlockTableRecord
  2
*Model_Space
340
22
  0
BLOCK_RECORD
  5
1B
330
1
100
AcDbSymbolTableRecord
100
AcDbBlockTableRecord
  2
*Paper_Space
340
1E
  0
BLOCK_RECORD
  5
23
330
1
100
AcDbSymbolTableRecord
100
AcDbBlockTableRecord
  2
*Paper_Space0
340
26
  0
ENDTAB
  0
ENDSEC
  0
SECTION
  2
BLOCKS
  0
BLOCK
  5
20
330
1F
100
AcDbEntity
  8
0
100
AcDbBlockBegin
  2
*Model_Space
 70
     0
 10
0.0
 20
0.0
 30
0.0
  3
*Model_Space
  1

  0
ENDBLK
  5
21
330
1F
100
AcDbEntity
  8
0
100
AcDbBlockEnd
  0
BLOCK
  5
1C
330
1B
100
AcDbEntity
 67
     1
  8
0
100
AcDbBlockBegin
  2
*Paper_Space
 70
     0
 10
0.0
 20
0.0
 30
0.0
  3
*Paper_Space
  1

  0
ENDBLK
  5
1D
330
1B
100
AcDbEntity
 67
     1
  8
0
100
AcDbBlockEnd
  0
BLOCK
  5
24
330
23
100
AcDbEntity
  8
0
100
AcDbBlockBegin
  2
*Paper_Space0
 70
     0
 10
0.0
 20
0.0
 30
0.0
  3
*Paper_Space0
  1

  0
ENDBLK
  5
25
330
23
100
AcDbEntity
  8
0
100
AcDbBlockEnd
  0
ENDSEC
  0
SECTION
  2
ENTITIES
  0
MTEXT
  5
75
330
1F
100
AcDbEntity
  8
0
  6
Continuous
 62
     7
370
     0
100
AcDbMText
 10
7.2782978723
 20
22.1884790273
 30
0.0
 40
10.0
 41
0.0
 71
     1
 72
     1
  1
1:1
  7
SLDTEXTSTYLE0
 73
     1
 44
1.0
  0
ARC
  5
76
330
1F
100
AcDbEntity
  8
0
  6
Continuous
 62
     7
370
    30
100
AcDbCircle
 10
167.4617045108
 20
176.7099408602
 30
0.0
 40
2.000000000000008
100
AcDbArc
 50
0.0
 51
57.8681430701
  0
ARC
  5
77
330
1F
100
AcDbEntity
  8
0
  6
Continuous
 62
     7
370
    30
100
AcDbCircle
 10
187.5382954892
 20
176.7099408602
 30
0.0
 40
2.000000000000028
100
AcDbArc
 50
122.1318569299
 51
180.0
  0
LINE
  5
78
330
1F
100
AcDbEntity
  8
0
  6
Continuous
 62
     7
370
    30
100
AcDbLine
 10
169.4617045108
 20
145.15
 30
0.0
 11
169.4617045108
 21
176.7099408602
 31
0.0
  0
ARC
  5
79
330
1F
100
AcDbEntity
  8
0
  6
Continuous
 62
     7
370
    30
100
AcDbCircle
 10
168.4617045108
 20
145.15
 30
0.0
 40
1.0
100
AcDbArc
 50
270.0
 51
0.0
  0
LINE
  5
7A
330
1F
100
AcDbEntity
  8
0
  6
Continuous
 62
     7
370
    30
100
AcDbLine
 10
185.5382954892
 20
176.7099408602
 30
0.0
 11
185.5382954892
 21
145.15
 31
0.0
  0
ARC
  5
7B
330
1F
100
AcDbEntity
  8
0
  6
Continuous
 62
     7
370
    30
100
AcDbCircle
 10
186.5382954892
 20
145.15
 30
0.0
 40
1.0
100
AcDbArc
 50
180.0
 51
270.0
  0
SPLINE
  5
7C
330
1F
100
AcDbEntity
  8
0
  6
Continuous
 62
     7
370
    30
100
AcDbSpline
210
0.0
220
0.0
230
1.0
 70
     8
 71
     3
 72
    76
 73
    72
 74
     0
 42
0.000000001
 43
0.00000001
 40
0.0
 40
0.0
 40
0.0
 40
0.0
 40
0.0163466512766135
 40
0.037763271243525
 40
0.0579104437240742
 40
0.0770628735614027
 40
0.0973343891719003
 40
0.1166837163870006
 40
0.1352626638730319
 40
0.1532074422597248
 40
0.1706197469015336
 40
0.1875779024578915
 40
0.2041439157732462
 40
0.2203679750535006
 40
0.2362914487142983
 40
0.2519489582569633
 40
0.2673698550047987
 40
0.2825792993011217
 40
0.2975990665965043
 40
0.3124481610460819
 40
0.3271432903918537
 40
0.3416992389177286
 40
0.356129164204408
 40
0.3704448360376654
 40
0.3846568307939698
 40
0.3987746911291289
 40
0.4128070583220287
 40
0.4267617828450412
 40
0.4406460174336154
 40
0.4544662959689221
 40
0.4682286007662979
 40
0.4819384203199486
 40
0.4956007991387018
 40
0.5092203809828495
 40
0.5228014465669514
 40
0.5363479465913796
 40
0.5498635308140306
 40
0.5633515737461114
 40
0.5768151974580846
 40
0.5902572919003618
 40
0.6036805330770635
 40
0.617087399360541
 40
0.630480186184929
 40
0.643861019326492
 40
0.6572318669429903
 40
0.6705945505238367
 40
0.6839507548768712
 40
0.6973020372643488
 40
0.7106498357817221
 40
0.7239954770634551
 40
0.7373401833868919
 40
0.7506849310657806
 40
0.7640305640182936
 40
0.7773780570709219
 40
0.7907283024358743
 40
0.8040821147655057
 40
0.8174402358398584
 40
0.830803338947354
 40
0.8441720329847376
 40
0.8575468663012791
 40
0.8709283303079923
 40
0.884316862871199
 40
0.8977128515074941
 40
0.9111166363958603
 40
0.924528513219192
 40
0.9379487358499803
 40
0.9513775188883771
 40
0.9648150400653986
 40
0.9782614425185826
 40
0.9917168369484876
 40
0.9999999999999999
 40
0.9999999999999999
 40
0.9999999999999999
 40
0.9999999999999999
 10
187.4398064867015
 20
179.3286693817738
 30
0.0
 10
187.4398062906457
 20
179.3286663972892
 30
0.0
 10
187.4398058377268
 20
179.3286595026721
 30
0.0
 10
187.4397003020082
 20
179.3280180380038
 30
0.0
 10
187.4394699408755
 20
179.3268419131125
 30
0.0
 10
187.4390817966661
 20
179.3250854393285
 30
0.0
 10
187.4385002135311
 20
179.3227244151041
 30
0.0
 10
187.4376795186051
 20
179.3197055205414
 30
0.0
 10
187.4366238963471
 20
179.3161427069738
 30
0.0
 10
187.4353159994412
 20
179.3120529544159
 30
0.0
 10
187.4337388566895
 20
179.3074493434377
 30
0.0
 10
187.4318762456405
 20
179.3023432877138
 30
0.0
 10
187.42971264165
 20
179.2967451863169
 30
0.0
 10
187.4272331466024
 20
179.2906646847052
 30
0.0
 10
187.4244234362267
 20
179.2841108847834
 30
0.0
 10
187.4212697152357
 20
179.277092481128
 30
0.0
 10
187.4177586803575
 20
179.2696178605631
 30
0.0
 10
187.4138774891864
 20
179.2616951741531
 30
0.0
 10
187.4096137338391
 20
179.2533323909321
 30
0.0
 10
187.4049554184917
 20
179.2445373384838
 30
0.0
 10
187.3998909401177
 20
179.2353177340562
 30
0.0
 10
187.3944090718818
 20
179.2256812086701
 30
0.0
 10
187.388498948753
 20
179.2156353259645
 30
0.0
 10
187.3821500549877
 20
179.205187597021
 30
0.0
 10
187.3753522131931
 20
179.1943454920686
 30
0.0
 10
187.3680955747347
 20
179.1831164497376
 30
0.0
 10
187.3603706112863
 20
179.1715078843598
 30
0.0
 10
187.352168107357
 20
179.1595271916952
 30
0.0
 10
187.3434791536522
 20
179.1471817533755
 30
0.0
 10
187.3342951411444
 20
179.1344789402914
 30
0.0
 10
187.3246077557525
 20
179.1214261151019
 30
0.0
 10
187.3144089735343
 20
179.1080306340065
 30
0.0
 10
187.3036910563167
 20
179.0942998478966
 30
0.0
 10
187.2924465476912
 20
179.0802411029774
 30
0.0
 10
187.2806682693177
 20
179.0658617409378
 30
0.0
 10
187.2683493174797
 20
179.0511690987329
 30
0.0
 10
187.2554830598478
 20
179.0361705080319
 30
0.0
 10
187.2420631324082
 20
179.0208732943783
 30
0.0
 10
187.228083436522
 20
179.0052847761015
 30
0.0
 10
187.2135381360829
 20
178.9894122630153
 30
0.0
 10
187.1984216547461
 20
178.9732630549322
 30
0.0
 10
187.1827286732057
 20
178.9568444400211
 30
0.0
 10
187.1664541264975
 20
178.940163693033
 30
0.0
 10
187.1495932013128
 20
178.9232280734155
 30
0.0
 10
187.1321413333054
 20
178.9060448233352
 30
0.0
 10
187.1140942043797
 20
178.8886211656277
 30
0.0
 10
187.0954477399503
 20
178.8709643016882
 30
0.0
 10
187.0761981061628
 20
178.853081409321
 30
0.0
 10
187.0563417070701
 20
178.8349796405586
 30
0.0
 10
187.035875181758
 20
178.8166661194645
 30
0.0
 10
187.0147954794314
 20
178.7981480084652
 30
0.0
 10
186.9930998910145
 20
178.7794325291904
 30
0.0
 10
186.9707859412275
 20
178.7605268623087
 30
0.0
 10
186.9478512958812
 20
178.741438073035
 30
0.0
 10
186.9242937199839
 20
178.7221730853366
 30
0.0
 10
186.9001111932522
 20
178.7027387822796
 30
0.0
 10
186.8753019069217
 20
178.6831420040701
 30
0.0
 10
186.8498642605302
 20
178.6633895461489
 30
0.0
 10
186.8237968586024
 20
178.6434881573304
 30
0.0
 10
186.7970985074487
 20
178.6234445380062
 30
0.0
 10
186.7697682112999
 20
178.6032653383499
 30
0.0
 10
186.7418051706991
 20
178.5829571567857
 30
0.0
 10
186.7132087722568
 20
178.5625265377581
 30
0.0
 10
186.6839786104734
 20
178.5419799724093
 30
0.0
 10
186.6541143896135
 20
178.5213238887091
 30
0.0
 10
186.6236162734818
 20
178.5005646813065
 30
0.0
 10
186.5924835619204
 20
178.4797085933316
 30
0.0
 10
186.5607196179178
 20
178.4587621515914
 30
0.0
 10
186.5283134442921
 20
178.4377305348035
 30
0.0
 10
186.4995449174022
 20
178.4193328842978
 30
0.0
 10
186.4814509322646
 20
178.4079360977714
 30
0.0
 10
186.4745564808148
 20
178.4035935170302
 30
0.0
  0
SPLINE
  5
7D
330
1F
100
AcDbEntity
  8
0
  6
Continuous
 62
     7
370
    30
100
AcDbSpline
210
0.0
220
0.0
230
1.0
 70
     8
 71
     3
 72
    77
 73
    73
 74
     0
 42
0.000000001
 43
0.00000001
 40
0.0
 40
0.0
 40
0.0
 40
0.0
 40
0.0075385455521224
 40
0.0210161504054773
 40
0.0344865769347033
 40
0.0479478931936038
 40
0.0614001859904644
 40
0.0748435737397145
 40
0.0882782078537876
 40
0.1017042749089821
 40
0.1151219989303962
 40
0.1285316437998207
 40
0.1419335157966686
 40
0.1553279662817861
 40
0.1687153945332115
 40
0.1820962507469129
 40
0.1954710392141506
 40
0.2088403216906236
 40
0.2222047209722636
 40
0.2355649246966447
 40
0.2489216893885131
 40
0.2622758447730331
 40
0.2756282983804704
 40
0.2889800404717283
 40
0.3023319408904758
 40
0.3156849813117438
 40
0.3290403994122664
 40
0.3423995368428461
 40
0.3557638460869749
 40
0.3691348979012576
 40
0.3825143893808669
 40
0.3959041527258468
 40
0.4093061647929003
 40
0.4227225575318591
 40
0.4361556294209008
 40
0.449607858032444
 40
0.4630819138838451
 40
0.4765806757521075
 40
0.4901072476638114
 40
0.5036649778061936
 40
0.5172574796519427
 40
0.5308886556430542
 40
0.5445627238459002
 40
0.5582842480681636
 40
0.5720581720298575
 40
0.5858898583023815
 40
0.599785132882834
 40
0.6137503364630666
 40
0.627792383698175
 40
0.6419188320866533
 40
0.6561379624769837
 40
0.6704588737283309
 40
0.6848915947361072
 40
0.6994472179223014
 40
0.714138059494434
 40
0.7289778533937714
 40
0.7439819880780288
 40
0.7591677983738023
 40
0.7745549289978696
 40
0.7901657926162663
 40
0.8060261544824385
 40
0.8221658894126705
 40
0.8386199778261892
 40
0.8554298405139205
 40
0.8726451650736267
 40
0.890326466084835
 40
0.9085487762135974
 40
0.92740714799308
 40
0.9470251894492743
 40
0.9675689725798023
 40
0.9892711376804292
 40
1.0
 40
1.0
 40
1.0
 40
1.0
 10
168.5254435191799
 20
178.4035935170293
 30
0.0
 10
168.5191670926806
 20
178.4075458766615
 30
0.0
 10
168.5016695101025
 20
178.4185643660918
 30
0.0
 10
168.473442354755
 20
178.4365997980145
 30
0.0
 10
168.4409479454379
 20
178.4576714551917
 30
0.0
 10
168.4090963335146
 20
178.4786587437131
 30
0.0
 10
168.3778788343669
 20
178.4995552812942
 30
0.0
 10
168.3472987583643
 20
178.5203544401384
 30
0.0
 10
168.3173555531814
 20
178.5410498537168
 30
0.0
 10
168.2880494722736
 20
178.5616350047589
 30
0.0
 10
168.2593803202102
 20
178.5821033373009
 30
0.0
 10
168.231347783402
 20
178.6024482286695
 30
0.0
 10
168.2039513364523
 20
178.622662999085
 30
0.0
 10
168.1771902621307
 20
178.6427409113168
 30
0.0
 10
168.1510636409556
 20
178.6626751731287
 30
0.0
 10
168.125570348945
 20
178.6824589391009
 30
0.0
 10
168.1007090532171
 20
178.7020853127421
 30
0.0
 10
168.0764782082109
 20
178.7215473486463
 30
0.0
 10
168.0528760517882
 20
178.740838054758
 30
0.0
 10
168.0299006014218
 20
178.7599503947251
 30
0.0
 10
168.0075496504188
 20
178.7788772903438
 30
0.0
 10
167.9858207641961
 20
178.7976116240894
 30
0.0
 10
167.9647112766098
 20
178.816146241731
 30
0.0
 10
167.9442183929681
 20
178.8344738596624
 30
0.0
 10
167.9243391598935
 20
178.8525870820219
 30
0.0
 10
167.9050703707971
 20
178.8704784797696
 30
0.0
 10
167.8864084686328
 20
178.8881406847667
 30
0.0
 10
167.8683495660866
 20
178.9055663790253
 30
0.0
 10
167.8508895207644
 20
178.9227482262914
 30
0.0
 10
167.8340239318249
 20
178.9396788753169
 30
0.0
 10
167.8177481366521
 20
178.9563509631966
 30
0.0
 10
167.8020572075755
 20
178.9727571187529
 30
0.0
 10
167.786945948629
 20
178.9888899659616
 30
0.0
 10
167.7724088923389
 20
179.0047421274119
 30
0.0
 10
167.758440296532
 20
179.0203062277913
 30
0.0
 10
167.745034141148
 20
179.0355748973896
 30
0.0
 10
167.7321841250414
 20
179.050540775612
 30
0.0
 10
167.7198836627535
 20
179.0651965144937
 30
0.0
 10
167.7081258812327
 20
179.0795347822066
 30
0.0
 10
167.6969036164768
 20
179.0935482665509
 30
0.0
 10
167.6862094100684
 20
179.1072296784201
 30
0.0
 10
167.6760355055691
 20
179.1205717552327
 30
0.0
 10
167.6663738447332
 20
179.1335672643187
 30
0.0
 10
167.6572160634965
 20
179.1462090062515
 30
0.0
 10
167.6485534876913
 20
179.1584898181148
 30
0.0
 10
167.6403771284252
 20
179.1704025766903
 30
0.0
 10
167.6326776770626
 20
179.1819402015541
 30
0.0
 10
167.6254454997294
 20
179.1930956580647
 30
0.0
 10
167.618670631255
 20
179.2038619602213
 30
0.0
 10
167.6123427684513
 20
179.2142321733695
 30
0.0
 10
167.6064512626131
 20
179.2241994167206
 30
0.0
 10
167.6009851111021
 20
179.2337568656436
 30
0.0
 10
167.5959329478587
 20
179.2428977536732
 30
0.0
 10
167.5912830326524
 20
179.2516153741579
 30
0.0
 10
167.5870232388468
 20
179.259903081447
 30
0.0
 10
167.5831410394106
 20
179.2677542914691
 30
0.0
 10
167.5796234908467
 20
179.2751624815091
 30
0.0
 10
167.5764572146361
 20
179.282121188889
 30
0.0
 10
167.5736283756881
 20
179.288624008183
 30
0.0
 10
167.5711226571739
 20
179.294664586273
 30
0.0
 10
167.5689252308657
 20
179.3002366147968
 30
0.0
 10
167.5670207221169
 20
179.3053338171647
 30
0.0
 10
167.5653931672325
 20
179.3099499341174
 30
0.0
 10
167.5640259643988
 20
179.3140786820517
 30
0.0
 10
167.5629018033539
 20
179.3177137668731
 30
0.0
 10
167.5620026165599
 20
179.320848606393
 30
0.0
 10
167.5613093645255
 20
179.3234770640386
 30
0.0
 10
167.5608023549368
 20
179.3255900268666
 30
0.0
 10
167.5604592951156
 20
179.3271879906225
 30
0.0
 10
167.5602620914076
 20
179.3282294659828
 30
0.0
 10
167.5601860512328
 20
179.3287201375112
 30
0.0
 10
167.5601923015199
 20
179.328674269801
 30
0.0
 10
167.5601943692456
 20
179.3286590958029
 30
0.0
  0
LINE
  5
7E
330
1F
100
AcDbEntity
  8
0
  6
Continuous
 62
     7
370
    30
100
AcDbLine
 10
166.787445607
 20
144.15
 30
0.0
 11
165.7013012129
 21
144.15
 31
0.0
  0
LINE
  5
7F
330
1F
100
AcDbEntity
  8
0
  6
Continuous
 62
     7
370
    30
100
AcDbLine
 10
190.2570860265
 20
144.15
 30
0.0
 11
189.3398055309
 21
144.15
 31
0.0
  0
LINE
  5
80
330
1F
100
AcDbEntity
  8
0
  6
Continuous
 62
     7
370
    30
100
AcDbLine
 10
189.2986987871
 20
144.15
 30
0.0
 11
188.212554393
 21
144.15
 31
0.0
  0
LINE
  5
81
330
1F
100
AcDbEntity
  8
0
  6
Continuous
 62
     7
370
    30
100
AcDbLine
 10
165.7013012129
 20
144.15
 30
0.0
 11
165.6601944691
 21
144.15
 31
0.0
  0
LINE
  5
82
330
1F
100
AcDbEntity
  8
0
  6
Continuous
 62
     7
370
    30
100
AcDbLine
 10
189.3398055309
 20
144.15
 30
0.0
 11
189.2986987871
 21
144.15
 31
0.0
  0
LINE
  5
83
330
1F
100
AcDbEntity
  8
0
  6
Continuous
 62
     7
370
    30
100
AcDbLine
 10
165.6601944691
 20
144.15
 30
0.0
 11
164.7429139735
 21
144.15
 31
0.0
  0
LINE
  5
84
330
1F
100
AcDbEntity
  8
0
  6
Continuous
 62
     7
370
    30
100
AcDbLine
 10
188.212554393
 20
144.15
 30
0.0
 11
186.9952232922
 21
144.15
 31
0.0
  0
LINE
  5
85
330
1F
100
AcDbEntity
  8
0
  6
Continuous
 62
     7
370
    30
100
AcDbLine
 10
168.0047767078
 20
144.15
 30
0.0
 11
166.787445607
 21
144.15
 31
0.0
  0
LINE
  5
86
330
1F
100
AcDbEntity
  8
0
  6
Continuous
 62
     7
370
    30
100
AcDbLine
 10
192.873798522
 20
144.15
 30
0.0
 11
190.2570860265
 21
144.15
 31
0.0
  0
LINE
  5
87
330
1F
100
AcDbEntity
  8
0
  6
Continuous
 62
     7
370
    30
100
AcDbLine
 10
164.7429139735
 20
144.15
 30
0.0
 11
162.126201478
 21
144.15
 31
0.0
  0
LINE
  5
88
330
1F
100
AcDbEntity
  8
0
  6
Continuous
 62
     7
370
    30
100
AcDbLine
 10
160.1481275722
 20
196.85
 30
0.0
 11
194.8518724278
 21
196.85
 31
0.0
  0
LINE
  5
89
330
1F
100
AcDbEntity
  8
0
  6
Continuous
 62
     7
370
    30
100
AcDbLine
 10
168.4617045108
 20
144.15
 30
0.0
 11
168.0047767078
 21
144.15
 31
0.0
  0
LINE
  5
8A
330
1F
100
AcDbEntity
  8
0
  6
Continuous
 62
     7
370
    30
100
AcDbLine
 10
186.9952232922
 20
144.15
 30
0.0
 11
186.5382954892
 21
144.15
 31
0.0
  0
LINE
  5
8B
330
1F
100
AcDbEntity
  8
0
  6
Continuous
 62
     7
370
    30
100
AcDbLine
 10
186.5382954892
 20
144.15
 30
0.0
 11
168.4617045108
 21
144.15
 31
0.0
  0
ELLIPSE
  5
8C
330
1F
100
AcDbEntity
  8
0
  6
Continuous
 62
     7
370
    30
100
AcDbEllipse
 10
194.7899976779
 20
194.6926101144
 30
0.0
 11
-0.4324994776978315
 21
-2.120025415904507
 31
3.552713678800501E-15
210
3.282123141225834E-16
220
1.608830723811530E-15
230
1.0
 40
0.9243459305
 41
1.788017926264761
 42
3.327976768700529
  0
ELLIPSE
  5
8D
330
1F
100
AcDbEntity
  8
0
  6
Continuous
 62
     7
370
    30
100
AcDbEllipse
 10
160.2100023221
 20
194.6926101144
 30
0.0
 11
-0.4324994776978598
 21
2.120025415904507
 31
-3.552713678800501E-15
210
-3.282123141226032E-16
220
1.608830723811521E-15
230
1.0
 40
0.9243459305
 41
6.096801192068876
 42
7.636760034504626
  0
LINE
  5
8E
330
1F
100
AcDbEntity
  8
0
  6
Continuous
 62
     7
370
    30
100
AcDbLine
 10
196.7967942406
 20
145.15
 30
0.0
 11
196.7967942406
 21
194.7591280475
 31
0.0
  0
ELLIPSE
  5
8F
330
1F
100
AcDbEntity
  8
0
  6
Continuous
 62
     7
370
    30
100
AcDbEllipse
 10
195.7933959593
 20
145.15
 30
0.0
 11
-1.00339828130555
 21
0.0
 31
0.0
210
0.0
220
0.0
230
1.0
 40
0.9966132279
 41
1.570796326794925
 42
3.141592653589793
  0
LINE
  5
90
330
1F
100
AcDbEntity
  8
0
  6
Continuous
 62
     7
370
    30
100
AcDbLine
 10
195.7933959593
 20
144.15
 30
0.0
 11
192.873798522
 21
144.15
 31
0.0
  0
ELLIPSE
  5
91
330
1F
100
AcDbEntity
  8
0
  6
Continuous
 62
     7
370
    30
100
AcDbEllipse
 10
159.2066040407
 20
145.15
 30
0.0
 11
-1.003398281305579
 21
0.0
 31
0.0
210
0.0
220
0.0
230
1.0
 40
0.9966132279
 41
0.0
 42
1.570796326794897
  0
LINE
  5
92
330
1F
100
AcDbEntity
  8
0
  6
Continuous
 62
     7
370
    30
100
AcDbLine
 10
162.126201478
 20
144.15
 30
0.0
 11
159.2066040407
 21
144.15
 31
0.0
  0
LINE
  5
93
330
1F
100
AcDbEntity
  8
0
  6
Continuous
 62
     7
370
    30
100
AcDbLine
 10
158.2032057594
 20
145.15
 30
0.0
 11
158.2032057594
 21
194.7591280475
 31
0.0
  0
ELLIPSE
  5
94
330
1F
100
AcDbEntity
  8
0
  6
Continuous
 62
   252
370
     0
100
AcDbEllipse
 10
189.2986987871
 20
176.7311218861
 30
0.0
 11
3.0
 21
2.842170943040401E-14
 31
0.0
210
0.0
220
0.0
230
1.0
 40
0.1348178935
 41
4.13829743645627
 42
4.71238898038469
  0
LINE
  5
95
330
1F
100
AcDbEntity
  8
0
  6
Continuous
 62
   252
370
     0
100
AcDbLine
 10
189.2986987871
 20
145.15
 30
0.0
 11
189.2986987871
 21
176.3266682057
 31
0.0
  0
LINE
  5
96
330
1F
100
AcDbEntity
  8
0
  6
Continuous
 62
   252
370
     0
100
AcDbLine
 10
187.669482196
 20
145.15
 30
0.0
 11
189.2986987871
 21
145.15
 31
0.0
  0
LINE
  5
97
330
1F
100
AcDbEntity
  8
0
  6
Continuous
 62
   252
370
     0
100
AcDbLine
 10
187.669482196
 20
145.15
 30
0.0
 11
187.669482196
 21
176.3915077905
 31
0.0
  0
LINE
  5
98
330
1F
100
AcDbEntity
  8
0
  6
Continuous
 62
   252
370
     0
100
AcDbLine
 10
191.174366522
 20
176.3266682057
 30
0.0
 11
189.3398055309
 21
176.3266682057
 31
0.0
  0
LINE
  5
99
330
1F
100
AcDbEntity
  8
0
  6
Continuous
 62
   252
370
     0
100
AcDbLine
 10
191.174366522
 20
176.3266682057
 30
0.0
 11
191.174366522
 21
145.15
 31
0.0
  0
LINE
  5
9A
330
1F
100
AcDbEntity
  8
0
  6
Continuous
 62
   252
370
     0
100
AcDbLine
 10
189.3398055309
 20
145.15
 30
0.0
 11
191.174366522
 21
145.15
 31
0.0
  0
LINE
  5
9B
330
1F
100
AcDbEntity
  8
0
  6
Continuous
 62
   252
370
     0
100
AcDbLine
 10
189.3398055309
 20
145.15
 30
0.0
 11
189.3398055309
 21
176.3266682057
 31
0.0
  0
LINE
  5
9C
330
1F
100
AcDbEntity
  8
0
  6
Continuous
 62
   252
370
     0
100
AcDbLine
 10
189.3398055309
 20
176.3266682057
 30
0.0
 11
189.2986987871
 21
176.3266682057
 31
0.0
  0
LINE
  5
9D
330
1F
100
AcDbEntity
  8
0
  6
Continuous
 62
   252
370
     0
100
AcDbLine
 10
189.2986987871
 20
145.15
 30
0.0
 11
189.3398055309
 21
145.15
 31
0.0
  0
ELLIPSE
  5
9E
330
1F
100
AcDbEntity
  8
0
  6
Continuous
 62
   252
370
     0
100
AcDbEllipse
 10
189.2986987871
 20
178.5852141977
 30
0.0
 11
1.0
 21
0.0
 31
0.0
210
0.0
220
0.0
230
1.0
 40
0.4044536805
 41
4.13829743645622
 42
4.712388980384695
  0
LINE
  5
9F
330
1F
100
AcDbEntity
  8
0
  6
Continuous
 62
   252
370
     0
100
AcDbLine
 10
189.2986987871
 20
178.1807605172
 30
0.0
 11
189.2986987871
 21
176.3266682057
 31
0.0
  0
ARC
  5
A0
330
1F
100
AcDbEntity
  8
0
  6
Continuous
 62
   252
370
     0
100
AcDbCircle
 10
190.3465499298
 20
176.0684396588
 30
0.0
 40
2.696491177233322
100
AcDbArc
 50
126.1568383294
 51
173.1188301155
  0
ARC
  5
A1
330
1F
100
AcDbEntity
  8
0
  6
Continuous
 62
   252
370
     0
100
AcDbCircle
 10
188.9615199244
 20
175.9717959708
 30
0.0
 40
2.241121230007959
100
AcDbArc
 50
9.1108961768
 51
80.2823502563
  0
LINE
  5
A2
330
1F
100
AcDbEntity
  8
0
  6
Continuous
 62
   252
370
     0
100
AcDbLine
 10
189.3398055309
 20
178.1807605172
 30
0.0
 11
189.3398055309
 21
176.3266682057
 31
0.0
  0
LINE
  5
A3
330
1F
100
AcDbEntity
  8
0
  6
Continuous
 62
   252
370
     0
100
AcDbLine
 10
189.2986987871
 20
178.1807605172
 30
0.0
 11
189.3398055309
 21
178.1807605172
 31
0.0
  0
LINE
  5
A4
330
1F
100
AcDbEntity
  8
0
  6
Continuous
 62
   252
370
     0
100
AcDbLine
 10
165.7013012129
 20
145.15
 30
0.0
 11
167.330517804
 21
145.15
 31
0.0
  0
LWPOLYLINE
  5
A5
330
1F
100
AcDbEntity
  8
0
  6
Continuous
 62
   252
370
     0
100
AcDbPolyline
 90
       58
 70
   128
 43
0.0
 10
167.330517804
 20
145.15
 10
167.3303116033
 20
145.1224456576
 10
167.3296931578
 20
145.0949122396
 10
167.3286629371
 20
145.0674206545
 10
167.3272217236
 20
145.039991779
 10
167.3253706117
 20
145.0126464422
 10
167.3231110071
 20
144.9854054097
 10
167.3204446257
 20
144.9582893681
 10
167.3173734923
 20
144.9313189088
 10
167.3138999392
 20
144.9045145129
 10
167.310026604
 20
144.8778965352
 10
167.3057564282
 20
144.851485189
 10
167.3010926544
 20
144.8253005308
 10
167.2960388243
 20
144.7993624448
 10
167.2905987756
 20
144.7736906281
 10
167.2847766395
 20
144.7483045753
 10
167.2785768371
 20
144.7232235645
 10
167.2720040766
 20
144.6984666417
 10
167.2650633493
 20
144.674052607
 10
167.2577599257
 20
144.65
 10
167.250099352
 20
144.626327086
 10
167.2420874456
 20
144.6030518419
 10
167.2337302906
 20
144.5801919425
 10
167.2250342332
 20
144.5577647473
 10
167.2160058772
 20
144.5357872873
 10
167.2066520785
 20
144.5142762518
 10
167.1969799403
 20
144.493247976
 10
167.1869968075
 20
144.4727184284
 10
167.1767102612
 20
144.4527031989
 10
167.1661281127
 20
144.4332174868
 10
167.1552583981
 20
144.4142760893
 10
167.1441093716
 20
144.3958933902
 10
167.1326894996
 20
144.3780833491
 10
167.1210074543
 20
144.3608594906
 10
167.1090721068
 20
144.3442348943
 10
167.0968925206
 20
144.3282221848
 10
167.0844779449
 20
144.3128335217
 10
167.0718378069
 20
144.2980805912
 10
167.0589817055
 20
144.2839745962
 10
167.0459194034
 20
144.2705262488
 10
167.0326608199
 20
144.2577457614
 10
167.0192160234
 20
144.2456428393
 10
167.0055952238
 20
144.2342266733
 10
166.9918087644
 20
144.2235059328
 10
166.9778671144
 20
144.2134887588
 10
166.9637808611
 20
144.2041827583
 10
166.9495607012
 20
144.1955949981
 10
166.9352174334
 20
144.1877319997
 10
166.9207619498
 20
144.1805997341
 10
166.9062052276
 20
144.1742036174
 10
166.891558321
 20
144.1685485067
 10
166.8768323527
 20
144.1636386966
 10
166.8620385054
 20
144.1594779154
 10
166.8471880132
 20
144.1560693227
 10
166.8322921535
 20
144.153415507
 10
166.817362238
 20
144.1515184836
 10
166.8024096042
 20
144.150379693
 10
166.787445607
 20
144.15
  0
LINE
  5
A6
330
1F
100
AcDbEntity
  8
0
  6
Continuous
 62
   252
370
     0
100
AcDbLine
 10
165.7013012129
 20
145.15
 30
0.0
 11
165.7013012129
 21
144.15
 31
0.0
  0
ARC
  5
A7
330
1F
100
AcDbEntity
  8
0
  6
Continuous
 62
   252
370
     0
100
AcDbCircle
 10
190.2141421365
 20
145.1100933464
 30
0.0
 40
0.9610532823445589
100
AcDbArc
 50
272.5610683999
 51
2.3798268511
  0
LINE
  5
A8
330
1F
100
AcDbEntity
  8
0
  6
Continuous
 62
   252
370
     0
100
AcDbLine
 10
189.3398055309
 20
145.15
 30
0.0
 11
189.3398055309
 21
144.15
 31
0.0
  0
LINE
  5
A9
330
1F
100
AcDbEntity
  8
0
  6
Continuous
 62
   252
370
     0
100
AcDbLine
 10
189.2986987871
 20
145.15
 30
0.0
 11
189.2986987871
 21
144.15
 31
0.0
  0
LWPOLYLINE
  5
AA
330
1F
100
AcDbEntity
  8
0
  6
Continuous
 62
   252
370
     0
100
AcDbPolyline
 90
       58
 70
   128
 43
0.0
 10
187.669482196
 20
145.15
 10
187.6696883967
 20
145.1224456576
 10
187.6703068422
 20
145.0949122396
 10
187.6713370629
 20
145.0674206545
 10
187.6727782764
 20
145.039991779
 10
187.6746293883
 20
145.0126464422
 10
187.6768889929
 20
144.9854054097
 10
187.6795553743
 20
144.9582893681
 10
187.6826265077
 20
144.9313189088
 10
187.6861000608
 20
144.9045145129
 10
187.689973396
 20
144.8778965352
 10
187.6942435718
 20
144.851485189
 10
187.6989073456
 20
144.8253005308
 10
187.7039611757
 20
144.7993624448
 10
187.7094012244
 20
144.7736906281
 10
187.7152233605
 20
144.7483045753
 10
187.7214231629
 20
144.7232235645
 10
187.7279959234
 20
144.6984666417
 10
187.7349366507
 20
144.674052607
 10
187.7422400743
 20
144.65
 10
187.749900648
 20
144.626327086
 10
187.7579125544
 20
144.6030518419
 10
187.7662697094
 20
144.5801919425
 10
187.7749657668
 20
144.5577647473
 10
187.7839941228
 20
144.5357872873
 10
187.7933479215
 20
144.5142762518
 10
187.8030200597
 20
144.493247976
 10
187.8130031925
 20
144.4727184284
 10
187.8232897388
 20
144.4527031989
 10
187.8338718873
 20
144.4332174868
 10
187.8447416019
 20
144.4142760893
 10
187.8558906284
 20
144.3958933902
 10
187.8673105004
 20
144.3780833491
 10
187.8789925457
 20
144.3608594906
 10
187.8909278932
 20
144.3442348943
 10
187.9031074794
 20
144.3282221848
 10
187.9155220551
 20
144.3128335217
 10
187.9281621931
 20
144.2980805912
 10
187.9410182945
 20
144.2839745962
 10
187.9540805966
 20
144.2705262488
 10
187.9673391801
 20
144.2577457614
 10
187.9807839766
 20
144.2456428393
 10
187.9944047762
 20
144.2342266733
 10
188.0081912356
 20
144.2235059328
 10
188.0221328856
 20
144.2134887588
 10
188.0362191389
 20
144.2041827583
 10
188.0504392988
 20
144.1955949981
 10
188.0647825666
 20
144.1877319997
 10
188.0792380502
 20
144.1805997341
 10
188.0937947724
 20
144.1742036174
 10
188.108441679
 20
144.1685485067
 10
188.1231676473
 20
144.1636386966
 10
188.1379614946
 20
144.1594779154
 10
188.1528119868
 20
144.1560693227
 10
188.1677078465
 20
144.153415507
 10
188.182637762
 20
144.1515184836
 10
188.1975903958
 20
144.150379693
 10
188.212554393
 20
144.15
  0
LINE
  5
AB
330
1F
100
AcDbEntity
  8
0
  6
Continuous
 62
   252
370
     0
100
AcDbLine
 10
165.6601944691
 20
145.15
 30
0.0
 11
165.7013012129
 21
145.15
 31
0.0
  0
LINE
  5
AC
330
1F
100
AcDbEntity
  8
0
  6
Continuous
 62
   252
370
     0
100
AcDbLine
 10
165.6601944691
 20
145.15
 30
0.0
 11
165.6601944691
 21
144.15
 31
0.0
  0
LINE
  5
AD
330
1F
100
AcDbEntity
  8
0
  6
Continuous
 62
   252
370
     0
100
AcDbLine
 10
165.6601944691
 20
176.3266682057
 30
0.0
 11
163.825633478
 21
176.3266682057
 31
0.0
  0
LINE
  5
AE
330
1F
100
AcDbEntity
  8
0
  6
Continuous
 62
   252
370
     0
100
AcDbLine
 10
165.6601944691
 20
176.3266682057
 30
0.0
 11
165.6601944691
 21
145.15
 31
0.0
  0
LINE
  5
AF
330
1F
100
AcDbEntity
  8
0
  6
Continuous
 62
   252
370
     0
100
AcDbLine
 10
163.825633478
 20
145.15
 30
0.0
 11
165.6601944691
 21
145.15
 31
0.0
  0
LINE
  5
B0
330
1F
100
AcDbEntity
  8
0
  6
Continuous
 62
   252
370
     0
100
AcDbLine
 10
163.825633478
 20
145.15
 30
0.0
 11
163.825633478
 21
176.3266682057
 31
0.0
  0
ELLIPSE
  5
B1
330
1F
100
AcDbEntity
  8
0
  6
Continuous
 62
   252
370
     0
100
AcDbEllipse
 10
165.7013012129
 20
176.7311218861
 30
0.0
 11
3.0
 21
0.0
 31
0.0
210
0.0
220
0.0
230
1.0
 40
0.1348178935
 41
4.712388980384691
 42
5.28648052431315
  0
LINE
  5
B2
330
1F
100
AcDbEntity
  8
0
  6
Continuous
 62
   252
370
     0
100
AcDbLine
 10
167.330517804
 20
145.15
 30
0.0
 11
167.330517804
 21
176.3915077905
 31
0.0
  0
LINE
  5
B3
330
1F
100
AcDbEntity
  8
0
  6
Continuous
 62
   252
370
     0
100
AcDbLine
 10
165.7013012129
 20
145.15
 30
0.0
 11
165.7013012129
 21
176.3266682057
 31
0.0
  0
ARC
  5
B4
330
1F
100
AcDbEntity
  8
0
  6
Continuous
 62
   252
370
     0
100
AcDbCircle
 10
164.7858578635
 20
145.1100933464
 30
0.0
 40
0.9610532823446182
100
AcDbArc
 50
177.6201731489
 51
267.4389316001
  0
LINE
  5
B5
330
1F
100
AcDbEntity
  8
0
  6
Continuous
 62
   252
370
     0
100
AcDbLine
 10
165.7013012129
 20
176.3266682057
 30
0.0
 11
165.6601944691
 21
176.3266682057
 31
0.0
  0
LINE
  5
B6
330
1F
100
AcDbEntity
  8
0
  6
Continuous
 62
   252
370
     0
100
AcDbLine
 10
165.6601944691
 20
178.1807605172
 30
0.0
 11
165.7013012129
 21
178.1807605172
 31
0.0
  0
LINE
  5
B7
330
1F
100
AcDbEntity
  8
0
  6
Continuous
 62
   252
370
     0
100
AcDbLine
 10
165.7013012129
 20
178.1807605172
 30
0.0
 11
165.7013012129
 21
176.3266682057
 31
0.0
  0
LINE
  5
B8
330
1F
100
AcDbEntity
  8
0
  6
Continuous
 62
   252
370
     0
100
AcDbLine
 10
165.6601944691
 20
178.1807605172
 30
0.0
 11
165.6601944691
 21
176.3266682057
 31
0.0
  0
ELLIPSE
  5
B9
330
1F
100
AcDbEntity
  8
0
  6
Continuous
 62
   252
370
     0
100
AcDbEllipse
 10
165.7013012129
 20
178.5852141977
 30
0.0
 11
1.0
 21
0.0
 31
0.0
210
0.0
220
0.0
230
1.0
 40
0.4044536805
 41
4.712388980384695
 42
5.286480524313226
  0
ARC
  5
BA
330
1F
100
AcDbEntity
  8
0
  6
Continuous
 62
   252
370
     0
100
AcDbCircle
 10
164.6534500702
 20
176.0684396588
 30
0.0
 40
2.696491177233526
100
AcDbArc
 50
6.8811698845
 51
53.8431616706
  0
ARC
  5
BB
330
1F
100
AcDbEntity
  8
0
  6
Continuous
 62
   252
370
     0
100
AcDbCircle
 10
166.0384800756
 20
175.9717959708
 30
0.0
 40
2.241121230008053
100
AcDbArc
 50
99.7176497437
 51
170.8891038232
  0
LINE
  5
BC
330
1F
100
AcDbEntity
  8
0
  6
Continuous
 62
   252
370
     0
100
AcDbLine
 10
187.5382954892
 20
178.5640331718
 30
0.0
 11
188.7556265901
 21
178.2456001021
 31
0.0
  0
LINE
  5
BD
330
1F
100
AcDbEntity
  8
0
  6
Continuous
 62
   252
370
     0
100
AcDbLine
 10
187.669482196
 20
176.3915077905
 30
0.0
 11
186.4521510951
 21
176.7099408602
 31
0.0
  0
ARC
  5
BE
330
1F
100
AcDbEntity
  8
0
  6
Continuous
 62
   252
370
     0
100
AcDbCircle
 10
189.1292188289
 20
176.3868727284
 30
0.0
 40
2.69649117723352
100
AcDbArc
 50
126.1568383294
 51
173.1188301155
  0
LINE
  5
BF
330
1F
100
AcDbEntity
  8
0
  6
Continuous
 62
   252
370
     0
100
AcDbLine
 10
166.2443734099
 20
178.2456001021
 30
0.0
 11
167.4617045108
 21
178.5640331718
 31
0.0
  0
ARC
  5
C0
330
1F
100
AcDbEntity
  8
0
  6
Continuous
 62
   252
370
     0
100
AcDbCircle
 10
165.8707811711
 20
176.3868727284
 30
0.0
 40
2.696491177233769
100
AcDbArc
 50
6.8811698845
 51
53.8431616706
  0
LINE
  5
C1
330
1F
100
AcDbEntity
  8
0
  6
Continuous
 62
   252
370
     0
100
AcDbLine
 10
168.5478489049
 20
176.7099408602
 30
0.0
 11
167.330517804
 21
176.3915077905
 31
0.0
  0
LINE
  5
C2
330
1F
100
AcDbEntity
  8
0
  6
Continuous
 62
   252
370
     0
100
AcDbLine
 10
186.4521510951
 20
145.15
 30
0.0
 11
187.669482196
 21
145.15
 31
0.0
  0
LINE
  5
C3
330
1F
100
AcDbEntity
  8
0
  6
Continuous
 62
   252
370
     0
100
AcDbLine
 10
186.4521510951
 20
176.7099408602
 30
0.0
 11
186.4521510951
 21
145.15
 31
0.0
  0
LWPOLYLINE
  5
C4
330
1F
100
AcDbEntity
  8
0
  6
Continuous
 62
   252
370
     0
100
AcDbPolyline
 90
       58
 70
   128
 43
0.0
 10
186.4521510951
 20
145.15
 10
186.4523572958
 20
145.1224456576
 10
186.4529757413
 20
145.0949122396
 10
186.454005962
 20
145.0674206545
 10
186.4554471755
 20
145.039991779
 10
186.4572982874
 20
145.0126464422
 10
186.459557892
 20
144.9854054097
 10
186.4622242734
 20
144.9582893681
 10
186.4652954068
 20
144.9313189088
 10
186.4687689599
 20
144.9045145129
 10
186.4726422951
 20
144.8778965352
 10
186.4769124709
 20
144.851485189
 10
186.4815762447
 20
144.8253005308
 10
186.4866300748
 20
144.7993624448
 10
186.4920701235
 20
144.7736906281
 10
186.4978922597
 20
144.7483045753
 10
186.504092062
 20
144.7232235645
 10
186.5106648225
 20
144.6984666417
 10
186.5176055499
 20
144.674052607
 10
186.5249089734
 20
144.65
 10
186.5325695471
 20
144.626327086
 10
186.5405814535
 20
144.6030518419
 10
186.5489386086
 20
144.5801919425
 10
186.5576346659
 20
144.5577647473
 10
186.5666630219
 20
144.5357872873
 10
186.5760168206
 20
144.5142762518
 10
186.5856889588
 20
144.493247976
 10
186.5956720916
 20
144.4727184284
 10
186.6059586379
 20
144.4527031989
 10
186.6165407864
 20
144.4332174868
 10
186.627410501
 20
144.4142760893
 10
186.6385595275
 20
144.3958933902
 10
186.6499793995
 20
144.3780833491
 10
186.6616614448
 20
144.3608594906
 10
186.6735967923
 20
144.3442348943
 10
186.6857763785
 20
144.3282221848
 10
186.6981909543
 20
144.3128335217
 10
186.7108310922
 20
144.2980805912
 10
186.7236871936
 20
144.2839745962
 10
186.7367494957
 20
144.2705262488
 10
186.7500080792
 20
144.2577457614
 10
186.7634528757
 20
144.2456428393
 10
186.7770736753
 20
144.2342266733
 10
186.7908601348
 20
144.2235059328
 10
186.8048017847
 20
144.2134887588
 10
186.818888038
 20
144.2041827583
 10
186.8331081979
 20
144.1955949981
 10
186.8474514657
 20
144.1877319997
 10
186.8619069493
 20
144.1805997341
 10
186.8764636715
 20
144.1742036174
 10
186.8911105781
 20
144.1685485067
 10
186.9058365464
 20
144.1636386966
 10
186.9206303937
 20
144.1594779154
 10
186.9354808859
 20
144.1560693227
 10
186.9503767456
 20
144.153415507
 10
186.9653066611
 20
144.1515184836
 10
186.9802592949
 20
144.150379693
 10
186.9952232922
 20
144.15
  0
LINE
  5
C5
330
1F
100
AcDbEntity
  8
0
  6
Continuous
 62
   252
370
     0
100
AcDbLine
 10
168.5478489049
 20
145.15
 30
0.0
 11
168.5478489049
 21
176.7099408602
 31
0.0
  0
LINE
  5
C6
330
1F
100
AcDbEntity
  8
0
  6
Continuous
 62
   252
370
     0
100
AcDbLine
 10
167.330517804
 20
145.15
 30
0.0
 11
168.5478489049
 21
145.15
 31
0.0
  0
LWPOLYLINE
  5
C7
330
1F
100
AcDbEntity
  8
0
  6
Continuous
 62
   252
370
     0
100
AcDbPolyline
 90
       58
 70
   128
 43
0.0
 10
168.5478489049
 20
145.15
 10
168.5476427042
 20
145.1224456576
 10
168.5470242587
 20
145.0949122396
 10
168.545994038
 20
145.0674206545
 10
168.5445528245
 20
145.039991779
 10
168.5427017126
 20
145.0126464422
 10
168.540442108
 20
144.9854054097
 10
168.5377757266
 20
144.9582893681
 10
168.5347045932
 20
144.9313189088
 10
168.5312310401
 20
144.9045145129
 10
168.5273577049
 20
144.8778965352
 10
168.5230875291
 20
144.851485189
 10
168.5184237553
 20
144.8253005308
 10
168.5133699251
 20
144.7993624448
 10
168.5079298765
 20
144.7736906281
 10
168.5021077403
 20
144.7483045753
 10
168.495907938
 20
144.7232235645
 10
168.4893351775
 20
144.6984666417
 10
168.4823944501
 20
144.674052607
 10
168.4750910266
 20
144.65
 10
168.4674304529
 20
144.626327086
 10
168.4594185465
 20
144.6030518419
 10
168.4510613914
 20
144.5801919425
 10
168.4423653341
 20
144.5577647473
 10
168.433336978
 20
144.5357872873
 10
168.4239831794
 20
144.5142762518
 10
168.4143110412
 20
144.493247976
 10
168.4043279084
 20
144.4727184284
 10
168.3940413621
 20
144.4527031989
 10
168.3834592136
 20
144.4332174868
 10
168.372589499
 20
144.4142760893
 10
168.3614404724
 20
144.3958933902
 10
168.3500206005
 20
144.3780833491
 10
168.3383385552
 20
144.3608594906
 10
168.3264032077
 20
144.3442348943
 10
168.3142236215
 20
144.3282221848
 10
168.3018090457
 20
144.3128335217
 10
168.2891689078
 20
144.2980805912
 10
168.2763128064
 20
144.2839745962
 10
168.2632505043
 20
144.2705262488
 10
168.2499919208
 20
144.2577457614
 10
168.2365471243
 20
144.2456428393
 10
168.2229263246
 20
144.2342266733
 10
168.2091398652
 20
144.2235059328
 10
168.1951982153
 20
144.2134887588
 10
168.181111962
 20
144.2041827583
 10
168.1668918021
 20
144.1955949981
 10
168.1525485343
 20
144.1877319997
 10
168.1380930507
 20
144.1805997341
 10
168.1235363285
 20
144.1742036174
 10
168.1088894219
 20
144.1685485067
 10
168.0941634536
 20
144.1636386966
 10
168.0793696063
 20
144.1594779154
 10
168.0645191141
 20
144.1560693227
 10
168.0496232544
 20
144.153415507
 10
168.0346933389
 20
144.1515184836
 10
168.0197407051
 20
144.150379693
 10
168.0047767078
 20
144.15
  0
ELLIPSE
  5
C8
330
1F
100
AcDbEntity
  8
0
  6
Continuous
 62
   252
370
     0
100
AcDbEllipse
 10
160.0014870666
 20
183.33243769
 30
0.0
 11
31.98402081687411
 21
8.526512829121202E-14
 31
0.0
210
0.0
220
0.0
230
1.0
 40
0.4044536805
 41
5.873586066438634
 42
6.200860517063109
  0
ARC
  5
C9
330
1F
100
AcDbEntity
  8
0
  6
Continuous
 62
   252
370
     0
100
AcDbCircle
 10
191.8765219586
 20
180.269522214
 30
0.0
 40
1.999160106907931
100
AcDbArc
 50
4.1612864314
 51
89.9809888544
  0
ELLIPSE
  5
CA
330
1F
100
AcDbEntity
  8
0
  6
Continuous
 62
   252
370
     0
100
AcDbEllipse
 10
160.0014870666
 20
181.4783453784
 30
0.0
 11
33.98402081687411
 21
8.526512829121203E-14
 31
0.0
210
0.0
220
0.0
230
1.0
 40
0.3806511009
 41
5.873586066438635
 42
6.200860517063115
  0
ELLIPSE
  5
CB
330
1F
100
AcDbEntity
  8
0
  6
Continuous
 62
   252
370
     0
100
AcDbEllipse
 10
194.9985129334
 20
183.33243769
 30
0.0
 11
31.98402081687411
 21
8.526512829121202E-14
 31
0.0
210
0.0
220
0.0
230
1.0
 40
0.4044536805
 41
3.223917443706287
 42
3.551191894330773
  0
ELLIPSE
  5
CC
330
1F
100
AcDbEntity
  8
0
  6
Continuous
 62
   252
370
     0
100
AcDbEllipse
 10
194.9985129334
 20
181.4783453784
 30
0.0
 11
33.98402081687411
 21
8.526512829121203E-14
 31
0.0
210
0.0
220
0.0
230
1.0
 40
0.3806511009
 41
3.223917443706295
 42
3.551191894330777
  0
ARC
  5
CD
330
1F
100
AcDbEntity
  8
0
  6
Continuous
 62
   252
370
     0
100
AcDbCircle
 10
163.1234780414
 20
180.269522214
 30
0.0
 40
1.999160106908264
100
AcDbArc
 50
90.0190111456
 51
175.8387135686
  0
LINE
  5
CE
330
1F
100
AcDbEntity
  8
0
  6
Continuous
 62
   252
370
     0
100
AcDbLine
 10
193.8704117499
 20
145.15
 30
0.0
 11
193.8704117499
 21
180.4145898993
 31
0.0
  0
LINE
  5
CF
330
1F
100
AcDbEntity
  8
0
  6
Continuous
 62
   252
370
     0
100
AcDbLine
 10
191.174366522
 20
145.15
 30
0.0
 11
193.8704117499
 21
145.15
 31
0.0
  0
ARC
  5
D0
330
1F
100
AcDbEntity
  8
0
  6
Continuous
 62
   252
370
     0
100
AcDbCircle
 10
192.8721132762
 20
145.1482985012
 30
0.0
 40
0.9982999236326537
100
AcDbArc
 50
270.0967219477
 51
0.0976547686
  0
LINE
  5
D1
330
1F
100
AcDbEntity
  8
0
  6
Continuous
 62
   252
370
     0
100
AcDbLine
 10
161.1295882501
 20
145.15
 30
0.0
 11
163.825633478
 21
145.15
 31
0.0
  0
LINE
  5
D2
330
1F
100
AcDbEntity
  8
0
  6
Continuous
 62
   252
370
     0
100
AcDbLine
 10
161.1295882501
 20
145.15
 30
0.0
 11
161.1295882501
 21
180.4145898993
 31
0.0
  0
ARC
  5
D3
330
1F
100
AcDbEntity
  8
0
  6
Continuous
 62
   252
370
     0
100
AcDbCircle
 10
162.1278867238
 20
145.1482985012
 30
0.0
 40
0.9982999236325397
100
AcDbArc
 50
179.9023452314
 51
269.9032780523
  0
ELLIPSE
  5
D4
330
1F
100
AcDbEntity
  8
0
  6
Continuous
 62
   252
370
     0
100
AcDbEllipse
 10
177.5
 20
181.1785221858
 30
0.0
 11
11.93959305570411
 21
2.842170943040400E-14
 31
0.0
210
0.0
220
0.0
230
1.0
 40
0.4044536805
 41
5.711068735819503
 42
9.99689453212981
  0
LINE
  5
D5
330
1F
100
AcDbEntity
  8
0
  6
Continuous
 62
   252
370
     0
100
AcDbLine
 10
160.1481275722
 20
196.85
 30
0.0
 11
163.1228147059
 21
182.2686822109
 31
0.0
  0
LINE
  5
D6
330
1F
100
AcDbEntity
  8
0
  6
Continuous
 62
   252
370
     0
100
AcDbLine
 10
191.8771852941
 20
182.2686822109
 30
0.0
 11
194.8518724278
 21
196.85
 31
0.0
  0
ARC
  5
D7
330
1F
100
AcDbEntity
  8
0
  6
Continuous
 62
   252
370
     0
100
AcDbCircle
 10
167.8007014793
 20
177.2050394637
 30
0.0
 40
1.400636584953977
100
AcDbArc
 50
58.8394724769
 51
104.0064214011
  0
LINE
  5
D8
330
1F
100
AcDbEntity
  8
0
  6
Continuous
 62
   252
370
     0
100
AcDbLine
 10
169.4617045108
 20
176.7099408602
 30
0.0
 11
168.5478489049
 21
176.7099408602
 31
0.0
  0
LINE
  5
D9
330
1F
100
AcDbEntity
  8
0
  6
Continuous
 62
   252
370
     0
100
AcDbLine
 10
186.4521510951
 20
176.7099408602
 30
0.0
 11
185.5382954892
 21
176.7099408602
 31
0.0
  0
ARC
  5
DA
330
1F
100
AcDbEntity
  8
0
  6
Continuous
 62
   252
370
     0
100
AcDbCircle
 10
187.1992985207
 20
177.2050394637
 30
0.0
 40
1.400636584954972
100
AcDbArc
 50
75.9935785989
 51
121.1605275231
  0
LINE
  5
DB
330
1F
100
AcDbEntity
  8
0
  6
Continuous
 62
   252
370
     0
100
AcDbLine
 10
168.5478489049
 20
145.15
 30
0.0
 11
169.4617045108
 21
145.15
 31
0.0
  0
LINE
  5
DC
330
1F
100
AcDbEntity
  8
0
  6
Continuous
 62
   252
370
     0
100
AcDbLine
 10
185.5382954892
 20
145.15
 30
0.0
 11
186.4521510951
 21
145.15
 31
0.0
  0
ELLIPSE
  5
DD
330
1F
100
AcDbEntity
  8
0
  6
Continuous
 62
   252
370
     0
100
AcDbEllipse
 10
177.5
 20
179.3244298742
 30
0.0
 11
9.939593055704137
 21
2.842170943040401E-14
 31
0.0
210
0.0
220
0.0
230
1.0
 40
0.4858360224
 41
0.0003033913211749
 42
3.141047711945558
  0
LINE
  5
DE
330
1F
100
AcDbEntity
  8
0
  6
Continuous
 62
   252
370
     0
100
AcDbLine
 10
169.4617045108
 20
145.15
 30
0.0
 11
185.5382954892
 21
145.15
 31
0.0
  0
LINE
  5
DF
330
1F
100
AcDbEntity
  8
0
  6
Continuous
 62
   252
370
     0
100
AcDbLine
 10
196.7967942406
 20
194.7591280475
 30
0.0
 11
193.8704117499
 21
180.4145898993
 31
0.0
  0
LINE
  5
E0
330
1F
100
AcDbEntity
  8
0
  6
Continuous
 62
   252
370
     0
100
AcDbLine
 10
161.1295882501
 20
180.4145898993
 30
0.0
 11
158.2032057594
 21
194.7591280475
 31
0.0
  0
LINE
  5
E1
330
1F
100
AcDbEntity
  8
0
  6
Continuous
 62
   252
370
     0
100
AcDbLine
 10
193.8704117499
 20
145.15
 30
0.0
 11
196.7967942406
 21
145.15
 31
0.0
  0
LINE
  5
E2
330
1F
100
AcDbEntity
  8
0
  6
Continuous
 62
   252
370
     0
100
AcDbLine
 10
158.2032057594
 20
145.15
 30
0.0
 11
161.1295882501
 21
145.15
 31
0.0
  0
LINE
  5
E3
330
1F
100
AcDbEntity
  8
0
  6
Continuous
 62
     7
370
    30
100
AcDbLine
 10
280.7953705263
 20
196.85
 30
0.0
 11
316.8472560529
 21
182.2686822109
 31
0.0
  0
LINE
  5
E4
330
1F
100
AcDbEntity
  8
0
  6
Continuous
 62
     7
370
    30
100
AcDbLine
 10
280.7953705263
 20
194.7591280475
 30
0.0
 11
280.7953705263
 21
196.85
 31
0.0
  0
LINE
  5
E5
330
1F
100
AcDbEntity
  8
0
  6
Continuous
 62
     7
370
    30
100
AcDbLine
 10
280.7953705263
 20
145.15
 30
0.0
 11
280.7953705263
 21
194.7591280475
 31
0.0
  0
LINE
  5
E6
330
1F
100
AcDbEntity
  8
0
  6
Continuous
 62
     7
370
    30
100
AcDbLine
 10
316.1795934243
 20
144.15
 30
0.0
 11
280.7953705263
 21
144.15
 31
0.0
  0
LINE
  5
E7
330
1F
100
AcDbEntity
  8
0
  6
Continuous
 62
     7
370
    30
100
AcDbLine
 10
280.7953705263
 20
144.15
 30
0.0
 11
280.7953705263
 21
145.15
 31
0.0
  0
LINE
  5
E8
330
1F
100
AcDbEntity
  8
0
  6
Continuous
 62
     7
370
    30
100
AcDbLine
 10
316.8472560529
 20
182.2686822109
 30
0.0
 11
326.9545239331
 21
178.1807605172
 31
0.0
  0
LINE
  5
E9
330
1F
100
AcDbEntity
  8
0
  6
Continuous
 62
     7
370
    30
100
AcDbLine
 10
326.6028712251
 20
144.15
 30
0.0
 11
316.1795934243
 21
144.15
 31
0.0
  0
ARC
  5
EA
330
1F
100
AcDbEntity
  8
0
  6
Continuous
 62
     7
370
    30
100
AcDbCircle
 10
326.2046294737
 20
176.3266682057
 30
0.0
 40
2.000000000000171
100
AcDbArc
 50
0.0
 51
67.978948653
  0
LINE
  5
EB
330
1F
100
AcDbEntity
  8
0
  6
Continuous
 62
     7
370
    30
100
AcDbLine
 10
328.2046294737
 20
176.3266682057
 30
0.0
 11
328.2046294737
 21
145.15
 31
0.0
  0
ARC
  5
EC
330
1F
100
AcDbEntity
  8
0
  6
Continuous
 62
     7
370
    30
100
AcDbCircle
 10
327.2046294737
 20
145.15
 30
0.0
 40
1.000000000000171
100
AcDbArc
 50
270.0
 51
0.0
  0
LINE
  5
ED
330
1F
100
AcDbEntity
  8
0
  6
Continuous
 62
     7
370
    30
100
AcDbLine
 10
327.2046294737
 20
144.15
 30
0.0
 11
326.6028712251
 21
144.15
 31
0.0
  0
ARC
  5
EE
330
1F
100
AcDbEntity
  8
0
  6
Continuous
 62
   252
370
     0
100
AcDbCircle
 10
310.4241290357
 20
183.2773173279
 30
0.0
 40
6.501838622920315
100
AcDbArc
 50
333.8772913416
 51
351.075620465
  0
LINE
  5
EF
330
1F
100
AcDbEntity
  8
0
  6
Continuous
 62
   252
370
     0
100
AcDbLine
 10
316.261825255
 20
180.4145898993
 30
0.0
 11
280.7953705263
 21
194.7591280475
 31
0.0
  0
LINE
  5
F0
330
1F
100
AcDbEntity
  8
0
  6
Continuous
 62
   252
370
     0
100
AcDbLine
 10
316.261825255
 20
145.15
 30
0.0
 11
316.261825255
 21
180.4145898993
 31
0.0
  0
LINE
  5
F1
330
1F
100
AcDbEntity
  8
0
  6
Continuous
 62
   252
370
     0
100
AcDbLine
 10
280.7953705263
 20
145.15
 30
0.0
 11
316.261825255
 21
145.15
 31
0.0
  0
ARC
  5
F2
330
1F
100
AcDbEntity
  8
0
  6
Continuous
 62
   252
370
     0
100
AcDbCircle
 10
313.1795793124
 20
144.9000776895
 30
0.0
 40
3.092361752997391
100
AcDbArc
 50
345.962423482
 51
4.635656918
  0
LWPOLYLINE
  5
F3
330
1F
100
AcDbEntity
  8
0
  6
Continuous
 62
   252
370
     0
100
AcDbPolyline
 90
       73
 70
   128
 43
0.0
 10
326.9545239331
 20
178.1807605172
 10
326.9680389442
 20
178.1748742176
 10
326.9812566414
 20
178.1682681239
 10
326.9941718769
 20
178.1609448091
 10
327.0067796207
 20
178.1529071253
 10
327.0190749628
 20
178.1441582026
 10
327.0310531146
 20
178.1347014485
 10
327.0427094112
 20
178.124540546
 10
327.054039313
 20
178.1136794522
 10
327.0650384074
 20
178.1021223971
 10
327.0757024109
 20
178.0898738816
 10
327.0860271702
 20
178.0769386761
 10
327.0960086644
 20
178.063321818
 10
327.1056430061
 20
178.0490286108
 10
327.1149264431
 20
178.0340646208
 10
327.12385536
 20
178.0184356759
 10
327.1324262793
 20
178.0021478629
 10
327.140635863
 20
177.9852075252
 10
327.148480914
 20
177.9676212603
 10
327.1559583768
 20
177.9493959172
 10
327.1630653394
 20
177.9305385938
 10
327.1697990338
 20
177.9110566344
 10
327.1761568377
 20
177.8909576262
 10
327.182136275
 20
177.870249397
 10
327.1877350168
 20
177.8489400115
 10
327.1929508828
 20
177.827037769
 10
327.1977818416
 20
177.8045511993
 10
327.2022260118
 20
177.78148906
 10
327.2062816626
 20
177.7578603328
 10
327.2099472144
 20
177.7336742199
 10
327.2132212397
 20
177.7089401408
 10
327.2161024634
 20
177.6836677283
 10
327.2185897634
 20
177.657866825
 10
327.2206821711
 20
177.631547479
 10
327.2223788714
 20
177.6047199407
 10
327.2236792037
 20
177.5773946581
 10
327.2245826614
 20
177.5495822732
 10
327.2250888928
 20
177.5212936177
 10
327.2251977007
 20
177.4925397088
 10
327.2249090427
 20
177.4633317449
 10
327.2242230312
 20
177.4336811012
 10
327.2231399334
 20
177.4035993251
 10
327.2216601711
 20
177.3730981324
 10
327.2197843207
 20
177.3421894018
 10
327.2175131126
 20
177.3108851709
 10
327.2148474315
 20
177.2791976313
 10
327.2117883154
 20
177.2471391239
 10
327.2083369558
 20
177.2147221341
 10
327.2044946968
 20
177.1819592867
 10
327.2002630349
 20
177.1488633416
 10
327.1956436179
 20
177.1154471881
 10
327.1906382451
 20
177.0817238403
 10
327.1852488658
 20
177.0477064319
 10
327.1794775789
 20
177.0134082113
 10
327.173326632
 20
176.978842536
 10
327.1667984207
 20
176.9440228678
 10
327.1598954875
 20
176.9089627674
 10
327.1526205207
 20
176.8736758893
 10
327.1449763535
 20
176.838175976
 10
327.1369659631
 20
176.8024768532
 10
327.1285924692
 20
176.7665924241
 10
327.1198591328
 20
176.7305366641
 10
327.1107693552
 20
176.6943236154
 10
327.1013266764
 20
176.6579673812
 10
327.091534774
 20
176.6214821207
 10
327.0813974615
 20
176.5848820434
 10
327.0709186869
 20
176.5481814032
 10
327.0601025312
 20
176.5113944936
 10
327.0489532068
 20
176.4745356412
 10
327.0374750559
 20
176.4376192011
 10
327.0256725488
 20
176.4006595505
 10
327.0135502819
 20
176.3636710836
 10
327.0011129764
 20
176.3266682057
  0
LINE
  5
F4
330
1F
100
AcDbEntity
  8
0
  6
Continuous
 62
   252
370
     0
100
AcDbLine
 10
327.0011129764
 20
176.3266682057
 30
0.0
 11
316.261825255
 21
180.4145898993
 31
0.0
  0
LINE
  5
F5
330
1F
100
AcDbEntity
  8
0
  6
Continuous
 62
   252
370
     0
100
AcDbLine
 10
327.0011129764
 20
145.15
 30
0.0
 11
327.0011129764
 21
176.3266682057
 31
0.0
  0
LINE
  5
F6
330
1F
100
AcDbEntity
  8
0
  6
Continuous
 62
   252
370
     0
100
AcDbLine
 10
316.261825255
 20
145.15
 30
0.0
 11
327.0011129764
 21
145.15
 31
0.0
  0
LWPOLYLINE
  5
F7
330
1F
100
AcDbEntity
  8
0
  6
Continuous
 62
   252
370
     0
100
AcDbPolyline
 90
       58
 70
   128
 43
0.0
 10
327.0011129764
 20
145.15
 10
327.0009617668
 20
145.1224456576
 10
327.0005082528
 20
145.0949122396
 10
326.9997527789
 20
145.0674206545
 10
326.9986959187
 20
145.039991779
 10
326.9973384748
 20
145.0126464422
 10
326.995681478
 20
144.9854054097
 10
326.9937261866
 20
144.9582893681
 10
326.9914740854
 20
144.9313189088
 10
326.9889268847
 20
144.9045145129
 10
326.9860865187
 20
144.8778965352
 10
326.9829551445
 20
144.851485189
 10
326.9795351398
 20
144.8253005308
 10
326.9758291019
 20
144.7993624448
 10
326.971839845
 20
144.7736906281
 10
326.9675703985
 20
144.7483045753
 10
326.9630240046
 20
144.7232235645
 10
326.9582041157
 20
144.6984666417
 10
326.953114392
 20
144.674052607
 10
326.9477586985
 20
144.65
 10
326.9421411024
 20
144.626327086
 10
326.9362658695
 20
144.6030518419
 10
326.9301374614
 20
144.5801919425
 10
326.9237605319
 20
144.5577647473
 10
326.9171399236
 20
144.5357872873
 10
326.910280664
 20
144.5142762518
 10
326.903187962
 20
144.493247976
 10
326.8958672037
 20
144.4727184284
 10
326.8883239484
 20
144.4527031989
 10
326.8805639243
 20
144.4332174868
 10
326.8725930243
 20
144.4142760893
 10
326.8644173013
 20
144.3958933902
 10
326.8560429639
 20
144.3780833491
 10
326.8474763714
 20
144.3608594906
 10
326.8387240293
 20
144.3442348943
 10
326.8297925838
 20
144.3282221848
 10
326.8206888174
 20
144.3128335217
 10
326.8114196434
 20
144.2980805912
 10
326.8019921007
 20
144.2839745962
 10
326.7924133484
 20
144.2705262488
 10
326.7826906605
 20
144.2577457614
 10
326.7728314202
 20
144.2456428393
 10
326.7628431145
 20
144.2342266733
 10
326.7527333284
 20
144.2235059328
 10
326.7425097391
 20
144.2134887588
 10
326.7321801103
 20
144.2041827583
 10
326.7217522862
 20
144.1955949981
 10
326.7112341854
 20
144.1877319997
 10
326.7006337954
 20
144.1805997341
 10
326.6899591658
 20
144.1742036174
 10
326.6792184029
 20
144.1685485067
 10
326.6684196629
 20
144.1636386966
 10
326.6575711465
 20
144.1594779154
 10
326.6466810916
 20
144.1560693227
 10
326.6357577682
 20
144.153415507
 10
326.6248094712
 20
144.1515184836
 10
326.6138445146
 20
144.150379693
 10
326.6028712251
 20
144.15
  0
LINE
  5
F8
330
1F
100
AcDbEntity
  8
0
  6
Continuous
 62
   252
370
     0
100
AcDbLine
 10
328.2046294737
 20
176.3266682057
 30
0.0
 11
327.0011129764
 21
176.3266682057
 31
0.0
  0
LINE
  5
F9
330
1F
100
AcDbEntity
  8
0
  6
Continuous
 62
   252
370
     0
100
AcDbLine
 10
327.0011129764
 20
145.15
 30
0.0
 11
328.2046294737
 21
145.15
 31
0.0
  0
LINE
  5
FA
330
1F
100
AcDbEntity
  8
0
  6
Continuous
 62
     7
370
    30
100
AcDbLine
 10
74.2046294737
 20
145.15
 30
0.0
 11
74.2046294737
 21
194.7591280475
 31
0.0
  0
LINE
  5
FB
330
1F
100
AcDbEntity
  8
0
  6
Continuous
 62
     7
370
    30
100
AcDbLine
 10
74.2046294737
 20
144.15
 30
0.0
 11
38.8204065757
 21
144.15
 31
0.0
  0
LINE
  5
FC
330
1F
100
AcDbEntity
  8
0
  6
Continuous
 62
     7
370
    30
100
AcDbLine
 10
74.2046294737
 20
145.15
 30
0.0
 11
74.2046294737
 21
144.15
 31
0.0
  0
LINE
  5
FD
330
1F
100
AcDbEntity
  8
0
  6
Continuous
 62
     7
370
    30
100
AcDbLine
 10
38.1527439471
 20
182.2686822109
 30
0.0
 11
74.2046294737
 21
196.85
 31
0.0
  0
LINE
  5
FE
330
1F
100
AcDbEntity
  8
0
  6
Continuous
 62
     7
370
    30
100
AcDbLine
 10
74.2046294737
 20
196.85
 30
0.0
 11
74.2046294737
 21
194.7591280475
 31
0.0
  0
LINE
  5
FF
330
1F
100
AcDbEntity
  8
0
  6
Continuous
 62
     7
370
    30
100
AcDbLine
 10
38.8204065757
 20
144.15
 30
0.0
 11
28.3971287749
 21
144.15
 31
0.0
  0
LINE
  5
100
330
1F
100
AcDbEntity
  8
0
  6
Continuous
 62
     7
370
    30
100
AcDbLine
 10
28.0454760669
 20
178.1807605172
 30
0.0
 11
38.1527439471
 21
182.2686822109
 31
0.0
  0
ARC
  5
101
330
1F
100
AcDbEntity
  8
0
  6
Continuous
 62
     7
370
    30
100
AcDbCircle
 10
27.7953705263
 20
145.15
 30
0.0
 40
1.000000000000195
100
AcDbArc
 50
180.0
 51
270.0
  0
LINE
  5
102
330
1F
100
AcDbEntity
  8
0
  6
Continuous
 62
     7
370
    30
100
AcDbLine
 10
28.3971287749
 20
144.15
 30
0.0
 11
27.7953705263
 21
144.15
 31
0.0
  0
LINE
  5
103
330
1F
100
AcDbEntity
  8
0
  6
Continuous
 62
     7
370
    30
100
AcDbLine
 10
26.7953705263
 20
145.15
 30
0.0
 11
26.7953705263
 21
176.3266682057
 31
0.0
  0
ARC
  5
104
330
1F
100
AcDbEntity
  8
0
  6
Continuous
 62
     7
370
    30
100
AcDbCircle
 10
28.7953705263
 20
176.3266682057
 30
0.0
 40
2.000000000000171
100
AcDbArc
 50
112.021051347
 51
180.0
  0
LINE
  5
105
330
1F
100
AcDbEntity
  8
0
  6
Continuous
 62
   252
370
     0
100
AcDbLine
 10
74.2046294737
 20
194.7591280475
 30
0.0
 11
38.738174745
 21
180.4145898993
 31
0.0
  0
LINE
  5
106
330
1F
100
AcDbEntity
  8
0
  6
Continuous
 62
   252
370
     0
100
AcDbLine
 10
38.738174745
 20
145.15
 30
0.0
 11
74.2046294737
 21
145.15
 31
0.0
  0
LINE
  5
107
330
1F
100
AcDbEntity
  8
0
  6
Continuous
 62
   252
370
     0
100
AcDbLine
 10
38.738174745
 20
145.15
 30
0.0
 11
38.738174745
 21
180.4145898993
 31
0.0
  0
ARC
  5
108
330
1F
100
AcDbEntity
  8
0
  6
Continuous
 62
   252
370
     0
100
AcDbCircle
 10
41.8204206876
 20
144.9000776895
 30
0.0
 40
3.092361753004711
100
AcDbArc
 50
175.3643430821
 51
194.037576518
  0
ARC
  5
109
330
1F
100
AcDbEntity
  8
0
  6
Continuous
 62
   252
370
     0
100
AcDbCircle
 10
44.5758709643
 20
183.2773173279
 30
0.0
 40
6.501838622922684
100
AcDbArc
 50
188.924379535
 51
206.1227086584
  0
LINE
  5
10A
330
1F
100
AcDbEntity
  8
0
  6
Continuous
 62
   252
370
     0
100
AcDbLine
 10
38.738174745
 20
180.4145898993
 30
0.0
 11
27.9988870236
 21
176.3266682057
 31
0.0
  0
LINE
  5
10B
330
1F
100
AcDbEntity
  8
0
  6
Continuous
 62
   252
370
     0
100
AcDbLine
 10
27.9988870236
 20
145.15
 30
0.0
 11
38.738174745
 21
145.15
 31
0.0
  0
LINE
  5
10C
330
1F
100
AcDbEntity
  8
0
  6
Continuous
 62
   252
370
     0
100
AcDbLine
 10
27.9988870236
 20
176.3266682057
 30
0.0
 11
27.9988870236
 21
145.15
 31
0.0
  0
LWPOLYLINE
  5
10D
330
1F
100
AcDbEntity
  8
0
  6
Continuous
 62
   252
370
     0
100
AcDbPolyline
 90
       58
 70
   128
 43
0.0
 10
27.9988870236
 20
145.15
 10
27.9990382332
 20
145.1224456576
 10
27.9994917472
 20
145.0949122396
 10
28.0002472211
 20
145.0674206545
 10
28.0013040813
 20
145.039991779
 10
28.0026615252
 20
145.0126464422
 10
28.004318522
 20
144.9854054097
 10
28.0062738134
 20
144.9582893681
 10
28.0085259146
 20
144.9313189088
 10
28.0110731153
 20
144.9045145129
 10
28.0139134813
 20
144.8778965352
 10
28.0170448555
 20
144.851485189
 10
28.0204648602
 20
144.8253005308
 10
28.0241708981
 20
144.7993624448
 10
28.028160155
 20
144.7736906281
 10
28.0324296015
 20
144.7483045753
 10
28.0369759954
 20
144.7232235645
 10
28.0417958843
 20
144.6984666417
 10
28.046885608
 20
144.674052607
 10
28.0522413014
 20
144.65
 10
28.0578588976
 20
144.626327086
 10
28.0637341305
 20
144.6030518419
 10
28.0698625386
 20
144.5801919425
 10
28.0762394681
 20
144.5577647473
 10
28.0828600764
 20
144.5357872873
 10
28.089719336
 20
144.5142762518
 10
28.096812038
 20
144.493247976
 10
28.1041327963
 20
144.4727184284
 10
28.1116760516
 20
144.4527031989
 10
28.1194360757
 20
144.4332174868
 10
28.1274069757
 20
144.4142760893
 10
28.1355826987
 20
144.3958933902
 10
28.1439570361
 20
144.3780833491
 10
28.1525236286
 20
144.3608594906
 10
28.1612759707
 20
144.3442348943
 10
28.1702074162
 20
144.3282221848
 10
28.1793111826
 20
144.3128335217
 10
28.1885803566
 20
144.2980805912
 10
28.1980078993
 20
144.2839745962
 10
28.2075866516
 20
144.2705262488
 10
28.2173093395
 20
144.2577457614
 10
28.2271685798
 20
144.2456428393
 10
28.2371568855
 20
144.2342266733
 10
28.2472666716
 20
144.2235059328
 10
28.2574902609
 20
144.2134887588
 10
28.2678198897
 20
144.2041827583
 10
28.2782477138
 20
144.1955949981
 10
28.2887658146
 20
144.1877319997
 10
28.2993662046
 20
144.1805997341
 10
28.3100408342
 20
144.1742036174
 10
28.3207815971
 20
144.1685485067
 10
28.3315803371
 20
144.1636386966
 10
28.3424288535
 20
144.1594779154
 10
28.3533189084
 20
144.1560693227
 10
28.3642422318
 20
144.153415507
 10
28.3751905288
 20
144.1515184836
 10
28.3861554854
 20
144.150379693
 10
28.3971287749
 20
144.15
  0
LWPOLYLINE
  5
10E
330
1F
100
AcDbEntity
  8
0
  6
Continuous
 62
   252
370
     0
100
AcDbPolyline
 90
       73
 70
   128
 43
0.0
 10
28.0454760669
 20
178.1807605172
 10
28.0319610558
 20
178.1748742176
 10
28.0187433586
 20
178.1682681239
 10
28.0058281231
 20
178.1609448091
 10
27.9932203793
 20
178.1529071253
 10
27.9809250372
 20
178.1441582026
 10
27.9689468854
 20
178.1347014485
 10
27.9572905888
 20
178.124540546
 10
27.945960687
 20
178.1136794522
 10
27.9349615926
 20
178.1021223971
 10
27.9242975891
 20
178.0898738816
 10
27.9139728298
 20
178.0769386761
 10
27.9039913356
 20
178.063321818
 10
27.8943569939
 20
178.0490286108
 10
27.8850735569
 20
178.0340646208
 10
27.87614464
 20
178.0184356759
 10
27.8675737207
 20
178.0021478629
 10
27.859364137
 20
177.9852075252
 10
27.851519086
 20
177.9676212603
 10
27.8440416232
 20
177.9493959172
 10
27.8369346606
 20
177.9305385938
 10
27.8302009662
 20
177.9110566344
 10
27.8238431623
 20
177.8909576262
 10
27.817863725
 20
177.870249397
 10
27.8122649832
 20
177.8489400115
 10
27.8070491172
 20
177.827037769
 10
27.8022181584
 20
177.8045511993
 10
27.7977739882
 20
177.78148906
 10
27.7937183374
 20
177.7578603328
 10
27.7900527856
 20
177.7336742199
 10
27.7867787603
 20
177.7089401408
 10
27.7838975366
 20
177.6836677283
 10
27.7814102366
 20
177.657866825
 10
27.7793178289
 20
177.631547479
 10
27.7776211286
 20
177.6047199407
 10
27.7763207963
 20
177.5773946581
 10
27.7754173386
 20
177.5495822732
 10
27.7749111072
 20
177.5212936177
 10
27.7748022993
 20
177.4925397088
 10
27.7750909573
 20
177.4633317449
 10
27.7757769688
 20
177.4336811012
 10
27.7768600666
 20
177.4035993251
 10
27.7783398289
 20
177.3730981324
 10
27.7802156793
 20
177.3421894018
 10
27.7824868874
 20
177.3108851709
 10
27.7851525685
 20
177.2791976313
 10
27.7882116846
 20
177.2471391239
 10
27.7916630442
 20
177.2147221341
 10
27.7955053032
 20
177.1819592867
 10
27.7997369651
 20
177.1488633416
 10
27.8043563821
 20
177.1154471881
 10
27.8093617549
 20
177.0817238403
 10
27.8147511342
 20
177.0477064319
 10
27.8205224211
 20
177.0134082113
 10
27.826673368
 20
176.978842536
 10
27.8332015793
 20
176.9440228678
 10
27.8401045125
 20
176.9089627674
 10
27.8473794793
 20
176.8736758893
 10
27.8550236465
 20
176.838175976
 10
27.8630340369
 20
176.8024768532
 10
27.8714075308
 20
176.7665924241
 10
27.8801408672
 20
176.7305366641
 10
27.8892306448
 20
176.6943236154
 10
27.8986733236
 20
176.6579673812
 10
27.908465226
 20
176.6214821207
 10
27.9186025385
 20
176.5848820434
 10
27.9290813131
 20
176.5481814032
 10
27.9398974688
 20
176.5113944936
 10
27.9510467932
 20
176.4745356412
 10
27.9625249441
 20
176.4376192011
 10
27.9743274512
 20
176.4006595505
 10
27.9864497181
 20
176.3636710836
 10
27.9988870236
 20
176.3266682057
  0
LINE
  5
10F
330
1F
100
AcDbEntity
  8
0
  6
Continuous
 62
   252
370
     0
100
AcDbLine
 10
26.7953705263
 20
145.15
 30
0.0
 11
27.9988870236
 21
145.15
 31
0.0
  0
LINE
  5
110
330
1F
100
AcDbEntity
  8
0
  6
Continuous
 62
   252
370
     0
100
AcDbLine
 10
27.9988870236
 20
176.3266682057
 30
0.0
 11
26.7953705263
 21
176.3266682057
 31
0.0
  0
LINE
  5
111
330
1F
100
AcDbEntity
  8
0
  6
Continuous
 62
     7
370
    30
100
AcDbLine
 10
161.1295882501
 20
54.738174745
 30
0.0
 11
158.2032057594
 21
90.2046294737
 31
0.0
  0
LINE
  5
112
330
1F
100
AcDbEntity
  8
0
  6
Continuous
 62
     7
370
    30
100
AcDbLine
 10
158.2032057594
 20
90.2046294737
 30
0.0
 11
160.1481275722
 21
90.2046294737
 31
0.0
  0
LINE
  5
113
330
1F
100
AcDbEntity
  8
0
  6
Continuous
 62
     7
370
    30
100
AcDbLine
 10
160.1481275722
 20
90.2046294737
 30
0.0
 11
194.8518724278
 21
90.2046294737
 31
0.0
  0
LINE
  5
114
330
1F
100
AcDbEntity
  8
0
  6
Continuous
 62
     7
370
    30
100
AcDbLine
 10
196.7967942406
 20
90.2046294737
 30
0.0
 11
193.8704117499
 21
54.738174745
 31
0.0
  0
LINE
  5
115
330
1F
100
AcDbEntity
  8
0
  6
Continuous
 62
     7
370
    30
100
AcDbLine
 10
194.8518724278
 20
90.2046294737
 30
0.0
 11
196.7967942406
 21
90.2046294737
 31
0.0
  0
ARC
  5
116
330
1F
100
AcDbEntity
  8
0
  6
Continuous
 62
     7
370
    30
100
AcDbCircle
 10
177.5
 20
52.2072493477
 30
0.0
 40
9.9395930557043
100
AcDbArc
 50
327.2201350716
 51
212.7798649284
  0
ARC
  5
117
330
1F
100
AcDbEntity
  8
0
  6
Continuous
 62
     7
370
    30
100
AcDbCircle
 10
194.9985129334
 20
57.5327429907
 30
0.0
 40
33.98402081687422
100
AcDbArc
 50
184.716863023
 51
203.4683077862
  0
ARC
  5
118
330
1F
100
AcDbEntity
  8
0
  6
Continuous
 62
     7
370
    30
100
AcDbCircle
 10
160.0014870666
 20
57.5327429907
 30
0.0
 40
33.98402081687438
100
AcDbArc
 50
336.5316922138
 51
355.283136977
  0
ARC
  5
119
330
1F
100
AcDbEntity
  8
0
  6
Continuous
 62
     7
370
    30
100
AcDbCircle
 10
187.5382954892
 20
45.7430010536
 30
0.0
 40
2.000000000000018
100
AcDbArc
 50
147.2201350716
 51
237.1069774788
  0
ARC
  5
11A
330
1F
100
AcDbEntity
  8
0
  6
Continuous
 62
     7
370
    30
100
AcDbCircle
 10
167.4617045108
 20
45.7430010536
 30
0.0
 40
1.999999999999996
100
AcDbArc
 50
302.8930225212
 51
32.7798649284
  0
LINE
  5
11B
330
1F
100
AcDbEntity
  8
0
  6
Continuous
 62
     7
370
    30
100
AcDbLine
 10
187.669482196
 20
43.276312508
 30
0.0
 11
186.4521510951
 21
44.0636290414
 31
0.0
  0
LINE
  5
11C
330
1F
100
AcDbEntity
  8
0
  6
Continuous
 62
     7
370
    30
100
AcDbLine
 10
168.5478489049
 20
44.0636290414
 30
0.0
 11
167.330517804
 21
43.276312508
 31
0.0
  0
ARC
  5
11D
330
1F
100
AcDbEntity
  8
0
  6
Continuous
 62
     7
370
    30
100
AcDbCircle
 10
165.7013012129
 20
45.7953705263
 30
0.0
 40
3.000000000000185
100
AcDbArc
 50
270.0
 51
302.8930225212
  0
ARC
  5
11E
330
1F
100
AcDbEntity
  8
0
  6
Continuous
 62
     7
370
    30
100
AcDbCircle
 10
189.2986987871
 20
45.7953705263
 30
0.0
 40
3.000000000000185
100
AcDbArc
 50
237.1069774788
 51
270.0
  0
LINE
  5
11F
330
1F
100
AcDbEntity
  8
0
  6
Continuous
 62
     7
370
    30
100
AcDbLine
 10
165.7013012129
 20
42.7953705263
 30
0.0
 11
165.6601944691
 21
42.7953705263
 31
0.0
  0
ARC
  5
120
330
1F
100
AcDbEntity
  8
0
  6
Continuous
 62
     7
370
    30
100
AcDbCircle
 10
165.6601944691
 20
44.7953705263
 30
0.0
 40
2.000000000000185
100
AcDbArc
 50
203.4683077862
 51
270.0
  0
ARC
  5
121
330
1F
100
AcDbEntity
  8
0
  6
Continuous
 62
     7
370
    30
100
AcDbCircle
 10
189.3398055309
 20
44.7953705263
 30
0.0
 40
2.000000000000178
100
AcDbArc
 50
270.0
 51
336.5316922138
  0
LINE
  5
122
330
1F
100
AcDbEntity
  8
0
  6
Continuous
 62
     7
370
    30
100
AcDbLine
 10
189.3398055309
 20
42.7953705263
 30
0.0
 11
189.2986987871
 21
42.7953705263
 31
0.0
  0
LINE
  5
123
330
1F
100
AcDbEntity
  8
0
  6
Continuous
 62
   252
370
     0
100
AcDbLine
 10
160.1481275722
 20
90.2046294737
 30
0.0
 11
163.1228147059
 21
54.1527439471
 31
0.0
  0
LWPOLYLINE
  5
124
330
1F
100
AcDbEntity
  8
0
  6
Continuous
 62
   252
370
     0
100
AcDbPolyline
 90
       80
 70
   128
 43
0.0
 10
163.1228147059
 20
54.1527439471
 10
163.0839444241
 20
54.1501300702
 10
163.0450889118
 20
54.1478021246
 10
163.006262933
 20
54.1457609947
 10
162.9674812405
 20
54.1440074562
 10
162.9287585702
 20
54.1425421754
 10
162.8901096356
 20
54.141365709
 10
162.8515491221
 20
54.1404785041
 10
162.8130916817
 20
54.1398808976
 10
162.7747519269
 20
54.1395731169
 10
162.7365444259
 20
54.1395552787
 10
162.6984836964
 20
54.1398273898
 10
162.6605842002
 20
54.1403893469
 10
162.6228603382
 20
54.1412409365
 10
162.5853264442
 20
54.1423818348
 10
162.5479967802
 20
54.1438116086
 10
162.5108855302
 20
54.1455297144
 10
162.4740067955
 20
54.1475354994
 10
162.4373745888
 20
54.1498282016
 10
162.4010028295
 20
54.1524069497
 10
162.3649053376
 20
54.1552707639
 10
162.3290958292
 20
54.158418556
 10
162.2935879108
 20
54.16184913
 10
162.2583950745
 20
54.1655611823
 10
162.2235306924
 20
54.1695533024
 10
162.189008012
 20
54.1738239736
 10
162.154840151
 20
54.178371573
 10
162.1210400921
 20
54.1831943727
 10
162.0876206784
 20
54.1882905402
 10
162.0545946082
 20
54.193658139
 10
162.0219744306
 20
54.1992951297
 10
161.9897725402
 20
54.2051993703
 10
161.9580011727
 20
54.2113686174
 10
161.9266724005
 20
54.217800527
 10
161.8957981275
 20
54.2244926549
 10
161.8653900851
 20
54.2314424585
 10
161.8354598273
 20
54.238647297
 10
161.8060187269
 20
54.2461044327
 10
161.7770779707
 20
54.2538110323
 10
161.7486485551
 20
54.2617641673
 10
161.7207412827
 20
54.2699608159
 10
161.6933667573
 20
54.2783978635
 10
161.6665353804
 20
54.2870721043
 10
161.6402573473
 20
54.2959802424
 10
161.6145426428
 20
54.305118893
 10
161.5894010377
 20
54.3144845835
 10
161.5648420851
 20
54.3240737553
 10
161.5408751167
 20
54.3338827649
 10
161.5175092393
 20
54.343907885
 10
161.4947533311
 20
54.3541453064
 10
161.4726160389
 20
54.3645911392
 10
161.451105774
 20
54.3752414144
 10
161.4302307099
 20
54.386092085
 10
161.4099987783
 20
54.3971390281
 10
161.3904176669
 20
54.4083780463
 10
161.3714948159
 20
54.419804869
 10
161.3532374154
 20
54.4314151544
 10
161.3356524027
 20
54.4432044909
 10
161.3187464596
 20
54.4551683989
 10
161.3025260098
 20
54.4673023325
 10
161.2869972168
 20
54.4796016811
 10
161.2721659809
 20
54.4920617713
 10
161.2580379375
 20
54.5046778687
 10
161.2446184551
 20
54.5174451794
 10
161.2319126324
 20
54.5303588524
 10
161.2199252975
 20
54.5434139808
 10
161.208661005
 20
54.556605604
 10
161.1981240352
 20
54.5699287095
 10
161.1883183918
 20
54.5833782351
 10
161.1792478006
 20
54.5969490702
 10
161.1709157082
 20
54.6106360584
 10
161.1633252805
 20
54.6244339989
 10
161.1564794018
 20
54.638337649
 10
161.1503806731
 20
54.6523417257
 10
161.1450314119
 20
54.6664409079
 10
161.1404336507
 20
54.6806298382
 10
161.1365891366
 20
54.6949031253
 10
161.1334993303
 20
54.7092553457
 10
161.1311654059
 20
54.7236810461
 10
161.1295882501
 20
54.738174745
  0
LINE
  5
125
330
1F
100
AcDbEntity
  8
0
  6
Continuous
 62
   252
370
     0
100
AcDbLine
 10
189.2986987871
 20
44.0454760669
 30
0.0
 11
189.3398055309
 21
44.0454760669
 31
0.0
  0
ARC
  5
126
330
1F
100
AcDbEntity
  8
0
  6
Continuous
 62
   252
370
     0
100
AcDbCircle
 10
189.2986987871
 20
45.0454760669
 30
0.0
 40
1.000000000000004
100
AcDbArc
 50
237.1069774788
 51
270.0
  0
LINE
  5
127
330
1F
100
AcDbEntity
  8
0
  6
Continuous
 62
   252
370
     0
100
AcDbLine
 10
187.5382954892
 20
44.9931065943
 30
0.0
 11
188.7556265901
 21
44.2057900608
 31
0.0
  0
ARC
  5
128
330
1F
100
AcDbEntity
  8
0
  6
Continuous
 62
   252
370
     0
100
AcDbCircle
 10
177.5
 20
51.4573548883
 30
0.0
 40
11.93959305570425
100
AcDbArc
 50
327.2201350716
 51
212.7798649284
  0
LINE
  5
129
330
1F
100
AcDbEntity
  8
0
  6
Continuous
 62
   252
370
     0
100
AcDbLine
 10
166.2443734099
 20
44.2057900608
 30
0.0
 11
167.4617045108
 21
44.9931065943
 31
0.0
  0
ARC
  5
12A
330
1F
100
AcDbEntity
  8
0
  6
Continuous
 62
   252
370
     0
100
AcDbCircle
 10
165.7013012129
 20
45.0454760669
 30
0.0
 40
1.00000000000002
100
AcDbArc
 50
270.0
 51
302.8930225213
  0
LINE
  5
12B
330
1F
100
AcDbEntity
  8
0
  6
Continuous
 62
   252
370
     0
100
AcDbLine
 10
165.6601944691
 20
44.0454760669
 30
0.0
 11
165.7013012129
 21
44.0454760669
 31
0.0
  0
ARC
  5
12C
330
1F
100
AcDbEntity
  8
0
  6
Continuous
 62
   252
370
     0
100
AcDbCircle
 10
194.9985129334
 20
56.7828485314
 30
0.0
 40
31.9840208168742
100
AcDbArc
 50
184.716863023
 51
203.4683077862
  0
LINE
  5
12D
330
1F
100
AcDbEntity
  8
0
  6
Continuous
 62
   252
370
     0
100
AcDbLine
 10
191.8771852941
 20
54.1527439471
 30
0.0
 11
194.8518724278
 21
90.2046294737
 31
0.0
  0
ARC
  5
12E
330
1F
100
AcDbEntity
  8
0
  6
Continuous
 62
   252
370
     0
100
AcDbCircle
 10
160.0014870666
 20
56.7828485314
 30
0.0
 40
31.98402081687421
100
AcDbArc
 50
336.5316922138
 51
355.283136977
  0
LWPOLYLINE
  5
12F
330
1F
100
AcDbEntity
  8
0
  6
Continuous
 62
   252
370
     0
100
AcDbPolyline
 90
       80
 70
   128
 43
0.0
 10
191.8771852941
 20
54.1527439471
 10
191.9160555759
 20
54.1501300702
 10
191.9549110882
 20
54.1478021246
 10
191.993737067
 20
54.1457609947
 10
192.0325187595
 20
54.1440074562
 10
192.0712414298
 20
54.1425421754
 10
192.1098903644
 20
54.141365709
 10
192.1484508779
 20
54.140478504
 10
192.1869083183
 20
54.1398808976
 10
192.2252480731
 20
54.1395731169
 10
192.2634555741
 20
54.1395552787
 10
192.3015163036
 20
54.1398273898
 10
192.3394157998
 20
54.1403893469
 10
192.3771396618
 20
54.1412409365
 10
192.4146735558
 20
54.1423818348
 10
192.4520032198
 20
54.1438116086
 10
192.4891144698
 20
54.1455297144
 10
192.5259932045
 20
54.1475354994
 10
192.5626254112
 20
54.1498282016
 10
192.5989971705
 20
54.1524069497
 10
192.6350946624
 20
54.1552707639
 10
192.6709041708
 20
54.158418556
 10
192.7064120892
 20
54.16184913
 10
192.7416049255
 20
54.1655611823
 10
192.7764693076
 20
54.1695533024
 10
192.810991988
 20
54.1738239736
 10
192.845159849
 20
54.178371573
 10
192.8789599079
 20
54.1831943727
 10
192.9123793216
 20
54.1882905402
 10
192.9454053918
 20
54.193658139
 10
192.9780255694
 20
54.1992951297
 10
193.0102274598
 20
54.2051993703
 10
193.0419988273
 20
54.2113686174
 10
193.0733275995
 20
54.217800527
 10
193.1042018725
 20
54.2244926549
 10
193.1346099149
 20
54.2314424585
 10
193.1645401727
 20
54.238647297
 10
193.1939812731
 20
54.2461044327
 10
193.2229220293
 20
54.2538110323
 10
193.2513514449
 20
54.2617641673
 10
193.2792587173
 20
54.2699608159
 10
193.3066332427
 20
54.2783978635
 10
193.3334646196
 20
54.2870721043
 10
193.3597426527
 20
54.2959802424
 10
193.3854573572
 20
54.305118893
 10
193.4105989623
 20
54.3144845835
 10
193.4351579149
 20
54.3240737553
 10
193.4591248833
 20
54.3338827649
 10
193.4824907607
 20
54.343907885
 10
193.5052466689
 20
54.3541453064
 10
193.5273839611
 20
54.3645911392
 10
193.548894226
 20
54.3752414144
 10
193.5697692901
 20
54.386092085
 10
193.5900012217
 20
54.3971390281
 10
193.6095823331
 20
54.4083780463
 10
193.6285051841
 20
54.419804869
 10
193.6467625846
 20
54.4314151544
 10
193.6643475973
 20
54.4432044909
 10
193.6812535404
 20
54.4551683989
 10
193.6974739902
 20
54.4673023325
 10
193.7130027832
 20
54.4796016811
 10
193.7278340191
 20
54.4920617713
 10
193.7419620625
 20
54.5046778687
 10
193.7553815449
 20
54.5174451794
 10
193.7680873676
 20
54.5303588524
 10
193.7800747025
 20
54.5434139808
 10
193.791338995
 20
54.556605604
 10
193.8018759648
 20
54.5699287095
 10
193.8116816082
 20
54.5833782351
 10
193.8207521994
 20
54.5969490702
 10
193.8290842918
 20
54.6106360584
 10
193.8366747195
 20
54.6244339989
 10
193.8435205982
 20
54.638337649
 10
193.8496193269
 20
54.6523417257
 10
193.8549685881
 20
54.6664409079
 10
193.8595663493
 20
54.6806298382
 10
193.8634108634
 20
54.6949031253
 10
193.8665006697
 20
54.7092553457
 10
193.8688345941
 20
54.7236810461
 10
193.8704117499
 20
54.738174745
  0
LWPOLYLINE
  5
130
330
1F
100
AcDbEntity
  8
0
  6
Continuous
 62
   252
370
     0
100
AcDbPolyline
 90
       92
 70
   128
 43
0.0
 10
187.5382954892
 20
44.9931065943
 10
187.5047972933
 20
45.0117881031
 10
187.4713118451
 20
45.0307478719
 10
187.4378518872
 20
45.0499786858
 10
187.4044301527
 20
45.0694732264
 10
187.37105936
 20
45.0892240753
 10
187.3377522084
 20
45.1092237162
 10
187.3045213728
 20
45.1294645385
 10
187.2713794988
 20
45.1499388396
 10
187.2383391987
 20
45.170638828
 10
187.2054130457
 20
45.1915566265
 10
187.1726135697
 20
45.2126842749
 10
187.1399532524
 20
45.2340137331
 10
187.1074445226
 20
45.2555368843
 10
187.0750997514
 20
45.2772455381
 10
187.0429312474
 20
45.2991314331
 10
187.0109512522
 20
45.3211862408
 10
186.9791719356
 20
45.3434015685
 10
186.9476053912
 20
45.3657689621
 10
186.9162636314
 20
45.3882799097
 10
186.8851585833
 20
45.4109258451
 10
186.8543020838
 20
45.4336981502
 10
186.823705875
 20
45.4565881593
 10
186.7933816004
 20
45.4795871617
 10
186.7633407997
 20
45.5026864051
 10
186.7335949048
 20
45.5258770992
 10
186.7041552353
 20
45.549150419
 10
186.6750329944
 20
45.5724975078
 10
186.6462392645
 20
45.5959094811
 10
186.6177850029
 20
45.6193774294
 10
186.5896810377
 20
45.6428924222
 10
186.5619380638
 20
45.6664455109
 10
186.5345666387
 20
45.6900277324
 10
186.5075771784
 20
45.7136301128
 10
186.4809799537
 20
45.7372436702
 10
186.454785086
 20
45.7608594185
 10
186.4290025437
 20
45.7844683709
 10
186.4036421382
 20
45.808061543
 10
186.3787135203
 20
45.8316299567
 10
186.3542261766
 20
45.855164643
 10
186.3301894255
 20
45.8786566459
 10
186.3066124141
 20
45.9020970257
 10
186.2835041147
 20
45.9254768621
 10
186.2608733208
 20
45.9487872582
 10
186.2387286447
 20
45.9720193431
 10
186.2170785133
 20
45.9951642761
 10
186.1959311656
 20
46.0182132494
 10
186.175294649
 20
46.0411574919
 10
186.1551768167
 20
46.0639882721
 10
186.1355853245
 20
46.086696902
 10
186.1165276279
 20
46.1092747399
 10
186.098010979
 20
46.1317131939
 10
186.0800424245
 20
46.154003725
 10
186.0626288021
 20
46.1761378509
 10
186.0457767385
 20
46.1981071482
 10
186.0294926468
 20
46.2199032569
 10
186.0137827237
 20
46.2415178824
 10
185.9986529476
 20
46.2629427994
 10
185.9841090761
 20
46.2841698548
 10
185.9701566437
 20
46.3051909706
 10
185.9568009601
 20
46.3259981473
 10
185.9440471076
 20
46.3465834669
 10
185.9318999398
 20
46.3669390958
 10
185.9203640791
 20
46.3870572876
 10
185.9094439155
 20
46.4069303865
 10
185.8991436045
 20
46.4265508299
 10
185.889467066
 20
46.4459111512
 10
185.8804179824
 20
46.465003983
 10
185.8719997971
 20
46.4838220596
 10
185.8642157137
 20
46.5023582198
 10
185.8570686944
 20
46.5206054098
 10
185.850561459
 20
46.5385566858
 10
185.8446964838
 20
46.5562052163
 10
185.8394760007
 20
46.5735442853
 10
185.8349019962
 20
46.5905672946
 10
185.830976211
 20
46.6072677661
 10
185.8277001392
 20
46.6236393444
 10
185.8250750272
 20
46.6396757996
 10
185.8231018742
 20
46.6553710288
 10
185.821781431
 20
46.6707190595
 10
185.8211142001
 20
46.6857140509
 10
185.8211004354
 20
46.7003502969
 10
185.8217401422
 20
46.7146222275
 10
185.8230330769
 20
46.7285244117
 10
185.8249787476
 20
46.7420515591
 10
185.8275764139
 20
46.755198522
 10
185.8308250873
 20
46.7679602974
 10
185.8347235314
 20
46.7803320288
 10
185.8392702627
 20
46.7923090082
 10
185.844463551
 20
46.8038866778
 10
185.8503014201
 20
46.8150606318
 10
185.8567816482
 20
46.8258266179
  0
LWPOLYLINE
  5
131
330
1F
100
AcDbEntity
  8
0
  6
Continuous
 62
   252
370
     0
100
AcDbPolyline
 90
       92
 70
   128
 43
0.0
 10
167.4617045108
 20
44.9931065943
 10
167.4952027067
 20
45.0117881031
 10
167.5286881549
 20
45.0307478719
 10
167.5621481128
 20
45.0499786858
 10
167.5955698473
 20
45.0694732264
 10
167.6289406399
 20
45.0892240753
 10
167.6622477915
 20
45.1092237162
 10
167.6954786272
 20
45.1294645385
 10
167.7286205012
 20
45.1499388396
 10
167.7616608013
 20
45.170638828
 10
167.7945869543
 20
45.1915566265
 10
167.8273864303
 20
45.2126842749
 10
167.8600467476
 20
45.2340137331
 10
167.8925554774
 20
45.2555368843
 10
167.9249002486
 20
45.277245538
 10
167.9570687526
 20
45.2991314331
 10
167.9890487478
 20
45.3211862408
 10
168.0208280644
 20
45.3434015685
 10
168.0523946088
 20
45.3657689621
 10
168.0837363686
 20
45.3882799097
 10
168.1148414167
 20
45.4109258451
 10
168.1456979162
 20
45.4336981502
 10
168.176294125
 20
45.4565881593
 10
168.2066183996
 20
45.4795871617
 10
168.2366592003
 20
45.5026864051
 10
168.2664050952
 20
45.5258770992
 10
168.2958447647
 20
45.549150419
 10
168.3249670056
 20
45.5724975078
 10
168.3537607355
 20
45.595909481
 10
168.3822149971
 20
45.6193774294
 10
168.4103189623
 20
45.6428924221
 10
168.4380619362
 20
45.6664455108
 10
168.4654333613
 20
45.6900277324
 10
168.4924228216
 20
45.7136301128
 10
168.5190200463
 20
45.7372436702
 10
168.545214914
 20
45.7608594185
 10
168.5709974563
 20
45.7844683709
 10
168.5963578618
 20
45.808061543
 10
168.6212864797
 20
45.8316299567
 10
168.6457738234
 20
45.855164643
 10
168.6698105745
 20
45.8786566459
 10
168.6933875859
 20
45.9020970257
 10
168.7164958853
 20
45.9254768621
 10
168.7391266792
 20
45.9487872582
 10
168.7612713553
 20
45.9720193431
 10
168.7829214867
 20
45.9951642761
 10
168.8040688344
 20
46.0182132494
 10
168.824705351
 20
46.0411574919
 10
168.8448231833
 20
46.0639882721
 10
168.8644146755
 20
46.086696902
 10
168.8834723721
 20
46.1092747399
 10
168.901989021
 20
46.1317131939
 10
168.9199575755
 20
46.154003725
 10
168.9373711979
 20
46.1761378508
 10
168.9542232615
 20
46.1981071482
 10
168.9705073532
 20
46.2199032569
 10
168.9862172763
 20
46.2415178824
 10
169.0013470524
 20
46.2629427994
 10
169.0158909239
 20
46.2841698548
 10
169.0298433563
 20
46.3051909706
 10
169.0431990399
 20
46.3259981473
 10
169.0559528924
 20
46.3465834669
 10
169.0681000602
 20
46.3669390958
 10
169.0796359209
 20
46.3870572876
 10
169.0905560845
 20
46.4069303865
 10
169.1008563955
 20
46.4265508299
 10
169.1105329339
 20
46.4459111512
 10
169.1195820176
 20
46.465003983
 10
169.1280002029
 20
46.4838220596
 10
169.1357842863
 20
46.5023582198
 10
169.1429313056
 20
46.5206054098
 10
169.149438541
 20
46.5385566858
 10
169.1553035162
 20
46.5562052163
 10
169.1605239993
 20
46.5735442853
 10
169.1650980038
 20
46.5905672946
 10
169.169023789
 20
46.6072677661
 10
169.1722998608
 20
46.6236393444
 10
169.1749249728
 20
46.6396757996
 10
169.1768981258
 20
46.6553710288
 10
169.178218569
 20
46.6707190595
 10
169.1788857999
 20
46.6857140509
 10
169.1788995646
 20
46.7003502968
 10
169.1782598578
 20
46.7146222275
 10
169.1769669231
 20
46.7285244117
 10
169.1750212524
 20
46.7420515591
 10
169.1724235861
 20
46.755198522
 10
169.1691749127
 20
46.7679602974
 10
169.1652764686
 20
46.7803320288
 10
169.1607297373
 20
46.7923090082
 10
169.155536449
 20
46.8038866778
 10
169.1496985799
 20
46.8150606318
 10
169.1432183517
 20
46.8258266179
  0
LWPOLYLINE
  5
132
330
1F
100
AcDbEntity
  8
0
  6
Continuous
 62
   252
370
     0
100
AcDbPolyline
 90
       73
 70
   128
 43
0.0
 10
165.6601944691
 20
44.0454760669
 10
165.6235813857
 20
44.0319610558
 10
165.5869825615
 20
44.0187433586
 10
165.5504122501
 20
44.0058281231
 10
165.513884694
 20
43.9932203793
 10
165.477414119
 20
43.9809250372
 10
165.4410147288
 20
43.9689468854
 10
165.4047006994
 20
43.9572905888
 10
165.3684861734
 20
43.945960687
 10
165.3323852548
 20
43.9349615926
 10
165.2964120033
 20
43.9242975891
 10
165.2605804289
 20
43.9139728298
 10
165.2249044864
 20
43.9039913356
 10
165.1893980699
 20
43.8943569939
 10
165.1540750077
 20
43.8850735569
 10
165.1189490565
 20
43.87614464
 10
165.0840338962
 20
43.8675737207
 10
165.0493431249
 20
43.859364137
 10
165.0148902529
 20
43.851519086
 10
164.9806886983
 20
43.8440416232
 10
164.9467517808
 20
43.8369346606
 10
164.9130927176
 20
43.8302009662
 10
164.8797246172
 20
43.8238431623
 10
164.846660475
 20
43.817863725
 10
164.8139131682
 20
43.8122649832
 10
164.7814954502
 20
43.8070491172
 10
164.7494199464
 20
43.8022181584
 10
164.7176991487
 20
43.7977739882
 10
164.686345411
 20
43.7937183374
 10
164.6553709441
 20
43.7900527856
 10
164.6247878113
 20
43.7867787603
 10
164.5946079233
 20
43.7838975366
 10
164.5648430338
 20
43.7814102366
 10
164.5355047349
 20
43.7793178289
 10
164.5066044525
 20
43.7776211286
 10
164.4781534422
 20
43.7763207963
 10
164.4501627842
 20
43.7754173386
 10
164.4226433796
 20
43.7749111072
 10
164.3956059462
 20
43.7748022993
 10
164.3690610136
 20
43.7750909573
 10
164.3430189201
 20
43.7757769688
 10
164.3174898078
 20
43.7768600666
 10
164.2924836191
 20
43.7783398289
 10
164.268010093
 20
43.7802156793
 10
164.2440787607
 20
43.7824868874
 10
164.2206989424
 20
43.7851525685
 10
164.1978797436
 20
43.7882116846
 10
164.1756300512
 20
43.7916630442
 10
164.1539585306
 20
43.7955053032
 10
164.1328736218
 20
43.7997369651
 10
164.1123835365
 20
43.8043563821
 10
164.0924962547
 20
43.8093617549
 10
164.0732195215
 20
43.8147511342
 10
164.0545608444
 20
43.8205224211
 10
164.0365274901
 20
43.826673368
 10
164.0191264819
 20
43.8332015793
 10
164.0023645965
 20
43.8401045125
 10
163.9862483621
 20
43.8473794793
 10
163.9707840552
 20
43.8550236465
 10
163.9559776984
 20
43.8630340369
 10
163.9418350582
 20
43.8714075308
 10
163.9283616424
 20
43.8801408672
 10
163.9155626985
 20
43.8892306448
 10
163.9034432109
 20
43.8986733236
 10
163.8920078998
 20
43.908465226
 10
163.8812612186
 20
43.9186025385
 10
163.8712073527
 20
43.9290813131
 10
163.8618502177
 20
43.9398974688
 10
163.8531934576
 20
43.9510467932
 10
163.8452404441
 20
43.9625249441
 10
163.8379942743
 20
43.9743274512
 10
163.8314577704
 20
43.9864497181
 10
163.825633478
 20
43.9988870236
  0
LWPOLYLINE
  5
133
330
1F
100
AcDbEntity
  8
0
  6
Continuous
 62
   252
370
     0
100
AcDbPolyline
 90
       73
 70
   128
 43
0.0
 10
189.3398055309
 20
44.0454760669
 10
189.3764186143
 20
44.0319610558
 10
189.4130174385
 20
44.0187433586
 10
189.4495877499
 20
44.0058281231
 10
189.486115306
 20
43.9932203793
 10
189.522585881
 20
43.9809250372
 10
189.5589852712
 20
43.9689468854
 10
189.5952993006
 20
43.9572905888
 10
189.6315138266
 20
43.945960687
 10
189.6676147452
 20
43.9349615926
 10
189.7035879967
 20
43.9242975891
 10
189.7394195711
 20
43.9139728298
 10
189.7750955136
 20
43.9039913356
 10
189.8106019301
 20
43.8943569939
 10
189.8459249923
 20
43.8850735569
 10
189.8810509435
 20
43.87614464
 10
189.9159661038
 20
43.8675737207
 10
189.9506568751
 20
43.859364137
 10
189.9851097471
 20
43.851519086
 10
190.0193113017
 20
43.8440416232
 10
190.0532482192
 20
43.8369346606
 10
190.0869072824
 20
43.8302009662
 10
190.1202753828
 20
43.8238431623
 10
190.153339525
 20
43.817863725
 10
190.1860868318
 20
43.8122649832
 10
190.2185045498
 20
43.8070491172
 10
190.2505800536
 20
43.8022181584
 10
190.2823008513
 20
43.7977739882
 10
190.313654589
 20
43.7937183374
 10
190.3446290559
 20
43.7900527856
 10
190.3752121887
 20
43.7867787603
 10
190.4053920767
 20
43.7838975366
 10
190.4351569662
 20
43.7814102366
 10
190.4644952651
 20
43.7793178289
 10
190.4933955475
 20
43.7776211286
 10
190.5218465578
 20
43.7763207963
 10
190.5498372158
 20
43.7754173386
 10
190.5773566204
 20
43.7749111072
 10
190.6043940538
 20
43.7748022993
 10
190.6309389864
 20
43.7750909573
 10
190.6569810799
 20
43.7757769688
 10
190.6825101922
 20
43.7768600666
 10
190.7075163809
 20
43.7783398289
 10
190.731989907
 20
43.7802156793
 10
190.7559212393
 20
43.7824868874
 10
190.7793010576
 20
43.7851525685
 10
190.8021202564
 20
43.7882116846
 10
190.8243699488
 20
43.7916630442
 10
190.8460414694
 20
43.7955053032
 10
190.8671263782
 20
43.7997369651
 10
190.8876164635
 20
43.8043563821
 10
190.9075037453
 20
43.8093617549
 10
190.9267804785
 20
43.8147511342
 10
190.9454391556
 20
43.8205224211
 10
190.9634725099
 20
43.826673368
 10
190.9808735181
 20
43.8332015793
 10
190.9976354035
 20
43.8401045125
 10
191.0137516379
 20
43.8473794793
 10
191.0292159448
 20
43.8550236465
 10
191.0440223016
 20
43.8630340369
 10
191.0581649418
 20
43.8714075308
 10
191.0716383576
 20
43.8801408672
 10
191.0844373015
 20
43.8892306448
 10
191.0965567891
 20
43.8986733236
 10
191.1079921002
 20
43.908465226
 10
191.1187387814
 20
43.9186025385
 10
191.1287926473
 20
43.9290813131
 10
191.1381497823
 20
43.9398974688
 10
191.1468065424
 20
43.9510467932
 10
191.1547595559
 20
43.9625249441
 10
191.1620057257
 20
43.9743274512
 10
191.1685422296
 20
43.9864497181
 10
191.174366522
 20
43.9988870236
  0
ARC
  5
134
330
1F
100
AcDbEntity
  8
0
  6
Continuous
 62
   252
370
     0
100
AcDbCircle
 10
185.9635585406
 20
45.7339234367
 30
0.0
 40
1.740289071176679
100
AcDbArc
 50
286.3051916025
 51
334.8059018796
  0
ARC
  5
135
330
1F
100
AcDbEntity
  8
0
  6
Continuous
 62
   252
370
     0
100
AcDbCircle
 10
169.0364414594
 20
45.7339234367
 30
0.0
 40
1.740289071175256
100
AcDbArc
 50
205.1940981204
 51
253.6948083976
  0
ARC
  5
136
330
1F
100
AcDbEntity
  8
0
  6
Continuous
 62
   252
370
     0
100
AcDbCircle
 10
187.1808896415
 20
44.9466069033
 30
0.0
 40
1.740289071178085
100
AcDbArc
 50
286.3051916025
 51
334.8059018796
  0
ARC
  5
137
330
1F
100
AcDbEntity
  8
0
  6
Continuous
 62
   252
370
     0
100
AcDbCircle
 10
167.8191103585
 20
44.9466069033
 30
0.0
 40
1.740289071176618
100
AcDbArc
 50
205.1940981204
 51
253.6948083975
  0
LINE
  5
138
330
1F
100
AcDbEntity
  8
0
  6
Continuous
 62
   252
370
     0
100
AcDbLine
 10
165.7013012129
 20
44.0454760669
 30
0.0
 11
165.7013012129
 21
42.7953705263
 31
0.0
  0
LINE
  5
139
330
1F
100
AcDbEntity
  8
0
  6
Continuous
 62
   252
370
     0
100
AcDbLine
 10
189.2986987871
 20
44.0454760669
 30
0.0
 11
189.2986987871
 21
42.7953705263
 31
0.0
  0
LINE
  5
13A
330
1F
100
AcDbEntity
  8
0
  6
Continuous
 62
   252
370
     0
100
AcDbLine
 10
165.6601944691
 20
44.0454760669
 30
0.0
 11
165.6601944691
 21
42.7953705263
 31
0.0
  0
LINE
  5
13B
330
1F
100
AcDbEntity
  8
0
  6
Continuous
 62
   252
370
     0
100
AcDbLine
 10
189.3398055309
 20
44.0454760669
 30
0.0
 11
189.3398055309
 21
42.7953705263
 31
0.0
  0
SPLINE
  5
13C
330
1F
100
AcDbEntity
  8
0
  6
Continuous
 62
     7
370
    30
100
AcDbSpline
210
0.0
220
0.0
230
1.0
 70
     8
 71
     3
 72
   145
 73
   141
 74
     0
 42
0.000000001
 43
0.00000001
 40
0.0
 40
0.0
 40
0.0
 40
0.0
 40
0.0055911093581042
 40
0.012871125995061
 40
0.0201454068981289
 40
0.0274143113881213
 40
0.0346782057780073
 40
0.0419374610697584
 40
0.0491924508622943
 40
0.0564435494594701
 40
0.0636911301657282
 40
0.0709355637581302
 40
0.0781772171217562
 40
0.0854164520373333
 40
0.0926536241091429
 40
0.0998890818219744
 40
0.107123165717193
 40
0.1143562076769301
 40
0.1215885303076603
 40
0.1288204464140479
 40
0.1360522369888774
 40
0.1432841182744189
 40
0.1505163749373572
 40
0.1577492806003033
 40
0.1649830975859769
 40
0.1722180767651031
 40
0.1794544574497573
 40
0.1866924673283791
 40
0.1939323224365351
 40
0.2011742271613081
 40
0.2084183742739608
 40
0.2156649449889937
 40
0.2229141090458979
 40
0.2301660248108724
 40
0.237420839396768
 40
0.2446786887981549
 40
0.2519396980402908
 40
0.2592039813398508
 40
0.2664716422758532
 40
0.2737427739693797
 40
0.2810174592707443
 40
0.2882957709532085
 40
0.2955777719118239
 40
0.3028635153665997
 40
0.3101530450693453
 40
0.3174463955132938
 40
0.324743592144672
 40
0.3320446515761392
 40
0.3393495818009606
 40
0.3466583824078378
 40
0.3539710447958007
 40
0.3612875523890396
 40
0.3686078808511108
 40
0.3759319982980442
 40
0.3832598655108931
 40
0.3905914361464352
 40
0.3979266569467698
 40
0.4052654679471017
 40
0.4126078026816206
 40
0.4199535883876896
 40
0.4273027462077806
 40
0.4346551913894737
 40
0.4420108334831491
 40
0.4493695765372899
 40
0.4567313192918967
 40
0.4640959553691404
 40
0.4714633734617497
 40
0.4788334575191437
 40
0.4862060869309946
 40
0.4935811367082748
 40
0.5009584776622608
 40
0.5083379765805087
 40
0.5157194964009614
 40
0.52310289638333
 40
0.5304880322780248
 40
0.537874756492913
 40
0.5452629182574795
 40
0.5526523637847214
 40
0.560042936430684
 40
0.5674344768516827
 40
0.5748268231590783
 40
0.5822198110720679
 40
0.5896132740678889
 40
0.5970070435299758
 40
0.6044009488939086
 40
0.6117948177910781
 40
0.6191884210927673
 40
0.6265815794287193
 40
0.6339741154226031
 40
0.6413658504968324
 40
0.6487566050048206
 40
0.6561461983615333
 40
0.6635344491720303
 40
0.6709211753580029
 40
0.6783061942823299
 40
0.6856893228716702
 40
0.6930703777372343
 40
0.7004491752936305
 40
0.7078255318756727
 40
0.7151992638536867
 40
0.7225701877465884
 40
0.7299381203335752
 40
0.7373028787636886
 40
0.7446642806638171
 40
0.7520221442449933
 40
0.7593762884068015
 40
0.76672653284029
 40
0.7740726981291377
 40
0.7814146058491737
 40
0.7887520786662481
 40
0.7960849404326437
 40
0.803413016281729
 40
0.8107361327211874
 40
0.8180541177246834
 40
0.825366800821997
 40
0.8326740131877095
 40
0.839975587728389
 40
0.8472713591683743
 40
0.854561164134115
 40
0.8618448412371603
 40
0.8691222311557686
 40
0.8763931767151223
 40
0.8836575229662991
 40
0.8909151172639624
 40
0.898165809342664
 40
0.9054094513920872
 40
0.9126458981309299
 40
0.9198750068797534
 40
0.9270966376325315
 40
0.9343106531271362
 40
0.9415169189148251
 40
0.9487153034285362
 40
0.955905678050213
 40
0.9630879171771857
 40
0.9702618982874702
 40
0.9774275020042854
 40
0.9845846121595863
 40
0.9917331158568391
 40
0.9984947448976588
 40
1.0
 40
1.0
 40
1.0
 40
1.0
 10
297.3330054546643
 20
70.15952498664575
 30
0.0
 10
297.3329858265804
 20
70.14024180952528
 30
0.0
 10
297.3329406413544
 20
70.09585058295357
 30
0.0
 10
297.3317236627381
 20
70.02595809686005
 30
0.0
 10
297.3295504121347
 20
69.94994675154558
 30
0.0
 10
297.3263759608625
 20
69.87364796798079
 30
0.0
 10
297.3222401854467
 20
69.79708078780858
 30
0.0
 10
297.317132761994
 20
69.72024605975695
 30
0.0
 10
297.3110567112611
 20
69.64314958889976
 30
0.0
 10
297.3040113964574
 20
69.56579595694852
 30
0.0
 10
297.2959970821618
 20
69.48819019127554
 30
0.0
 10
297.2870137222451
 20
69.4103373311885
 30
0.0
 10
297.2770612933527
 20
69.33224255552174
 30
0.0
 10
297.2661397150528
 20
69.25391115842883
 30
0.0
 10
297.2542488810018
 20
69.17534856440155
 30
0.0
 10
297.2413886606247
 20
69.09656033146337
 30
0.0
 10
297.2275589088418
 20
69.01755215630479
 30
0.0
 10
297.2127594737121
 20
68.93832987776445
 30
0.0
 10
297.1969902046351
 20
68.85889947970973
 30
0.0
 10
297.1802509769849
 20
68.77926717227221
 30
0.0
 10
297.1625417495421
 20
68.69943959352568
 30
0.0
 10
297.1438625225877
 20
68.61942352112959
 30
0.0
 10
297.1242133235235
 20
68.53922579139935
 30
0.0
 10
297.1035941529712
 20
68.45885309624394
 30
0.0
 10
297.0820050567197
 20
68.37831227425887
 30
0.0
 10
297.0594461328265
 20
68.29761030994894
 30
0.0
 10
297.0359175384555
 20
68.21675433235939
 30
0.0
 10
297.0114194964833
 20
68.13575161335453
 30
0.0
 10
296.9859523018682
 20
68.05460956557462
 30
0.0
 10
296.9595163277766
 20
67.97333574011022
 30
0.0
 10
296.9321120314596
 20
67.89193782391877
 30
0.0
 10
296.9037399598823
 20
67.81042363701621
 30
0.0
 10
296.8744007551022
 20
67.72880112946626
 30
0.0
 10
296.8440951593971
 20
67.64707837819208
 30
0.0
 10
296.8128240201462
 20
67.56526358363232
 30
0.0
 10
296.7805882944648
 20
67.48336506625945
 30
0.0
 10
296.7473890535964
 20
67.40139126298017
 30
0.0
 10
296.7132274870664
 20
67.31935072343248
 30
0.0
 10
296.6781049066005
 20
67.23725210619547
 30
0.0
 10
296.6420227498143
 20
67.1551041749251
 30
0.0
 10
296.6049825836769
 20
67.07291579442736
 30
0.0
 10
296.5669861077546
 20
66.99069592668027
 30
0.0
 10
296.5280351572412
 20
66.90845362681551
 30
0.0
 10
296.4881317057773
 20
66.82619803906802
 30
0.0
 10
296.4472778680683
 20
66.74393839270212
 30
0.0
 10
296.405475902303
 20
66.66168399792164
 30
0.0
 10
296.3627282123799
 20
66.57944424177037
 30
0.0
 10
296.3190373499479
 20
66.49722858402957
 30
0.0
 10
296.2744060162639
 20
66.41504655311766
 30
0.0
 10
296.2288370638767
 20
66.33290774199779
 30
0.0
 10
296.1823334981388
 20
66.25082180409646
 30
0.0
 10
296.1348984785543
 20
66.16879844923808
 30
0.0
 10
296.0865353199659
 20
66.08684743959955
 30
0.0
 10
296.0372474935878
 20
66.0049785856868
 30
0.0
 10
295.9870386278892
 20
65.92320174233812
 30
0.0
 10
295.9359125093311
 20
65.84152680475451
 30
0.0
 10
295.8838730829649
 20
65.75996370456188
 30
0.0
 10
295.830924452894
 20
65.67852240590543
 30
0.0
 10
295.7770708826048
 20
65.59721290157916
 30
0.0
 10
295.7223167951715
 20
65.51604520919194
 30
0.0
 10
295.6666667733363
 20
65.43502936737096
 30
0.0
 10
295.6101255594739
 20
65.35417543200501
 30
0.0
 10
295.55269805544
 20
65.27349347252864
 30
0.0
 10
295.4943893223093
 20
65.19299356824732
 30
0.0
 10
295.4352045800069
 20
65.1126858047055
 30
0.0
 10
295.3751492068369
 20
65.03258027009798
 30
0.0
 10
295.3142287389111
 20
64.95268705172575
 30
0.0
 10
295.2524488694814
 20
64.87301623249647
 30
0.0
 10
295.1898154481803
 20
64.79357788747068
 30
0.0
 10
295.1263344801698
 20
64.71438208045328
 30
0.0
 10
295.0620121252065
 20
64.63543886063268
 30
0.0
 10
294.9968546966213
 20
64.5567582592653
 30
0.0
 10
294.9308686602191
 20
64.47835028640841
 30
0.0
 10
294.8640606331016
 20
64.40022492769961
 30
0.0
 10
294.7964373824146
 20
64.3223921411845
 30
0.0
 10
294.7280058240232
 20
64.24486185419224
 30
0.0
 10
294.6587730211181
 20
64.16764396025869
 30
0.0
 10
294.5887461827542
 20
64.09074831609865
 30
0.0
 10
294.5179326623254
 20
64.01418473862549
 30
0.0
 10
294.4463399559771
 20
63.93796300202034
 30
0.0
 10
294.373975700959
 20
63.86209283484888
 30
0.0
 10
294.3008476739205
 20
63.78658391722752
 30
0.0
 10
294.2269637891509
 20
63.71144587803765
 30
0.0
 10
294.1523320967669
 20
63.63668829218888
 30
0.0
 10
294.0769607808497
 20
63.56232067793184
 30
0.0
 10
294.0008583465634
 20
63.48835267794865
 30
0.0
 10
293.9240334504956
 20
63.4147938811494
 30
0.0
 10
293.8464948872725
 20
63.34165380831958
 30
0.0
 10
293.7682513901929
 20
63.26894173014374
 30
0.0
 10
293.6893118042821
 20
63.19666683595454
 30
0.0
 10
293.6096850956744
 20
63.12483824240105
 30
0.0
 10
293.5293803494244
 20
63.05346499112288
 30
0.0
 10
293.448406767283
 20
62.9825560464721
 30
0.0
 10
293.3667736654403
 20
62.91212029328432
 30
0.0
 10
293.2844904722377
 20
62.84216653469898
 30
0.0
 10
293.2015667258494
 20
62.77270349002781
 30
0.0
 10
293.1180120719368
 20
62.70373979267237
 30
0.0
 10
293.0338362612757
 20
62.63528398808995
 30
0.0
 10
292.9490491473584
 20
62.56734453180776
 30
0.0
 10
292.8636606839733
 20
62.49992978748611
 30
0.0
 10
292.7776809227609
 20
62.43304802502843
 30
0.0
 10
292.6911200107508
 20
62.3667074187408
 30
0.0
 10
292.6039881878778
 20
62.300916045538
 30
0.0
 10
292.516295784482
 20
62.23568188319835
 30
0.0
 10
292.4280532187906
 20
62.17101280866538
 30
0.0
 10
292.3392709943858
 20
62.10691659639739
 30
0.0
 10
292.2499596976581
 20
62.04340091676389
 30
0.0
 10
292.1601299952474
 20
61.98047333448932
 30
0.0
 10
292.0697926314722
 20
61.91814130714361
 30
0.0
 10
291.9789584257493
 20
61.85641218367945
 30
0.0
 10
291.8876382700035
 20
61.79529320301601
 30
0.0
 10
291.7958431260698
 20
61.73479149266901
 30
0.0
 10
291.7035840230899
 20
61.674914067427
 30
0.0
 10
291.6108720549011
 20
61.61566782807335
 30
0.0
 10
291.5177183774218
 20
61.55705956015411
 30
0.0
 10
291.4241342060337
 20
61.49909593279129
 30
0.0
 10
291.3301308129604
 20
61.44178349754151
 30
0.0
 10
291.2357195246458
 20
61.38512868729945
 30
0.0
 10
291.1409117191303
 20
61.32913781524631
 30
0.0
 10
291.0457188234291
 20
61.27381707384266
 30
0.0
 10
290.9501523109101
 20
61.21917253386567
 30
0.0
 10
290.8542236986755
 20
61.16521014349044
 30
0.0
 10
290.7579445449454
 20
61.11193572741509
 30
0.0
 10
290.6613264464451
 20
61.0593549860295
 30
0.0
 10
290.5643810357986
 20
61.00747349462696
 30
0.0
 10
290.4671199789252
 20
60.95629670266063
 30
0.0
 10
290.3695549724455
 20
60.90582993303562
 30
0.0
 10
290.2716977410853
 20
60.85607838146992
 30
0.0
 10
290.1735600351214
 20
60.80704711580061
 30
0.0
 10
290.0751536277048
 20
60.75874107569193
 30
0.0
 10
289.9764903126849
 20
60.7111650710454
 30
0.0
 10
289.8775819006039
 20
60.66432378544116
 30
0.0
 10
289.7784402215593
 20
60.61822176103052
 30
0.0
 10
289.6790771025229
 20
60.57286345273052
 30
0.0
 10
289.5795044398789
 20
60.52825302441371
 30
0.0
 10
289.4797339172648
 20
60.48439510651436
 30
0.0
 10
289.3797780449005
 20
60.44129197205569
 30
0.0
 10
289.2814119547818
 20
60.39970062364809
 30
0.0
 10
289.2092410538913
 20
60.36975283240665
 30
0.0
 10
289.1704701322393
 20
60.35386927016416
 30
0.0
 10
289.1634106250987
 20
60.35097715111485
 30
0.0
  0
ARC
  5
13D
330
1F
100
AcDbEntity
  8
0
  6
Continuous
 62
     7
370
    30
100
AcDbCircle
 10
289.9207320999
 20
58.4999060601
 30
0.0
 40
2.000000000000021
100
AcDbArc
 50
112.2507502957
 51
180.0
  0
LINE
  5
13E
330
1F
100
AcDbEntity
  8
0
  6
Continuous
 62
     7
370
    30
100
AcDbLine
 10
287.9207320999
 20
58.4999060601
 30
0.0
 11
287.9207320999
 21
32.7299263271
 31
0.0
  0
LINE
  5
13F
330
1F
100
AcDbEntity
  8
0
  6
Continuous
 62
     7
370
    30
100
AcDbLine
 10
300.8663123034
 20
104.2055246725
 30
0.0
 11
277.6019743795
 21
76.5169800189
 31
0.0
  0
SPLINE
  5
140
330
1F
100
AcDbEntity
  8
0
  6
Continuous
 62
     7
370
    30
100
AcDbSpline
210
0.0
220
0.0
230
1.0
 70
     8
 71
     3
 72
    65
 73
    61
 74
     0
 42
0.000000001
 43
0.00000001
 40
0.0
 40
0.0
 40
0.0
 40
0.0
 40
0.0093622285181603
 40
0.0269048719819052
 40
0.0444459844781681
 40
0.0619851871166604
 40
0.0795223545807867
 40
0.0970573613869306
 40
0.1145900818863283
 40
0.1321203902738586
 40
0.1496481605982681
 40
0.1671732667709846
 40
0.1846955825762557
 40
0.2022149816802584
 40
0.2197313376413188
 40
0.2372445239190662
 40
0.2547544138846802
 40
0.2722608808298995
 40
0.2897637979783532
 40
0.3072630384941961
 40
0.3247584754928139
 40
0.3422499820512006
 40
0.3597374312180391
 40
0.3772206960237625
 40
0.3946996494920544
 40
0.4121741646496537
 40
0.4296441145374792
 40
0.4471093722220417
 40
0.4645698108060682
 40
0.4820253034401203
 40
0.4994757233344134
 40
0.5169209437700737
 40
0.5343608381115073
 40
0.5517952798181296
 40
0.5692241424576941
 40
0.5866472997183193
 40
0.6040646254216676
 40
0.6214759935359508
 40
0.6388812781899912
 40
0.656280353686814
 40
0.6736730945177816
 40
0.6910593753772878
 40
0.7084390711774627
 40
0.7258120570635678
 40
0.7431782084296269
 40
0.7605374009342935
 40
0.7778895105175129
 40
0.7952344134172739
 40
0.8125719861869304
 40
0.8299021057127055
 40
0.8472246492324911
 40
0.8645394943539378
 40
0.8818465190741673
 40
0.8991456017991161
 40
0.9164366213640589
 40
0.9337194570539326
 40
0.9509939886256518
 40
0.9682600963287659
 40
0.9855176609289339
 40
1.0
 40
1.0
 40
1.0
 40
1.0
 10
277.6019743794575
 20
76.51698001887097
 30
0.0
 10
277.5798649158439
 20
76.490626384875
 30
0.0
 10
277.5163274485666
 20
76.41489215690311
 30
0.0
 10
277.4119972849447
 20
76.28946707751545
 30
0.0
 10
277.2892544499004
 20
76.1405842967257
 30
0.0
 10
277.1673622599711
 20
75.99131175201198
 30
0.0
 10
277.0463113456118
 20
75.84166231575001
 30
0.0
 10
276.9261096788196
 20
75.69163912071136
 30
0.0
 10
276.8067603855031
 20
75.54124773687572
 30
0.0
 10
276.6882678478962
 20
75.39049310130804
 30
0.0
 10
276.5706360694144
 20
75.23938034037708
 30
0.0
 10
276.4538691123971
 20
75.08791454920672
 30
0.0
 10
276.3379709805326
 20
74.93610085048314
 30
0.0
 10
276.2229456500492
 20
74.78394437842057
 30
0.0
 10
276.1087970610575
 20
74.63145028277762
 30
0.0
 10
275.9955291195666
 20
74.47862372749947
 30
0.0
 10
275.8831456966462
 20
74.32546989080194
 30
0.0
 10
275.7716506283505
 20
74.17199396486376
 30
0.0
 10
275.6610477154433
 20
74.0182011556263
 30
0.0
 10
275.5513407231751
 20
73.86409668256086
 30
0.0
 10
275.4425333810499
 20
73.70968577844577
 30
0.0
 10
275.334629382595
 20
73.55497368913741
 30
0.0
 10
275.2276323851316
 20
73.39996567334327
 30
0.0
 10
275.121546009547
 20
73.24466700239198
 30
0.0
 10
275.016373840068
 20
73.08908296000374
 30
0.0
 10
274.9121194240344
 20
72.93321884205807
 30
0.0
 10
274.8087862716743
 20
72.77707995636152
 30
0.0
 10
274.7063778558809
 20
72.62067162241325
 30
0.0
 10
274.6048976119886
 20
72.46399917116946
 30
0.0
 10
274.5043489375523
 20
72.30706794480626
 30
0.0
 10
274.4047351921255
 20
72.14988329648133
 30
0.0
 10
274.306059697042
 20
71.99245059009345
 30
0.0
 10
274.2083257351962
 20
71.83477520004242
 30
0.0
 10
274.1115365508257
 20
71.67686251098311
 30
0.0
 10
274.0156953492943
 20
71.51871791758111
 30
0.0
 10
273.9208052968751
 20
71.36034682426391
 30
0.0
 10
273.8268695205383
 20
71.20175464497382
 30
0.0
 10
273.7338911077351
 20
71.04294680291493
 30
0.0
 10
273.6418731061864
 20
70.88392873029946
 30
0.0
 10
273.5508185236699
 20
70.72470586809094
 30
0.0
 10
273.4607303278104
 20
70.565283665746
 30
0.0
 10
273.3716114458697
 20
70.40566758095353
 30
0.0
 10
273.283464764539
 20
70.24586307937018
 30
0.0
 10
273.1962931297307
 20
70.08587563435378
 30
0.0
 10
273.1100993463724
 20
69.92571072669406
 30
0.0
 10
273.0248861782062
 20
69.76537384433882
 30
0.0
 10
272.9406563475677
 20
69.60487048212177
 30
0.0
 10
272.8574125352509
 20
69.44420614147096
 30
0.0
 10
272.7751573800556
 20
69.28338633017214
 30
0.0
 10
272.6938934795335
 20
69.12241656191595
 30
0.0
 10
272.6136233862622
 20
68.96130235662797
 30
0.0
 10
272.5343496208112
 20
68.80004923786767
 30
0.0
 10
272.4560746224589
 20
68.638662741135
 30
0.0
 10
272.3788009320801
 20
68.47714838148687
 30
0.0
 10
272.3025305091673
 20
68.3155117728805
 30
0.0
 10
272.2272672780571
 20
68.15375818164851
 30
0.0
 10
272.1530076311652
 20
67.99189419029162
 30
0.0
 10
272.0797758448895
 20
67.82992149113079
 30
0.0
 10
272.0113546232496
 20
67.67652008543033
 30
0.0
 10
271.9677283759676
 20
67.57704291827679
 30
0.0
 10
271.9478225151282
 20
67.53165330148812
 30
0.0
  0
ARC
  5
141
330
1F
100
AcDbEntity
  8
0
  6
Continuous
 62
     7
370
    30
100
AcDbCircle
 10
273.7805025371
 20
66.7308512429
 30
0.0
 40
2.000000000000008
100
AcDbArc
 50
156.3967488537
 51
180.0
  0
LINE
  5
142
330
1F
100
AcDbEntity
  8
0
  6
Continuous
 62
     7
370
    30
100
AcDbLine
 10
271.7805025371
 20
66.7308512429
 30
0.0
 11
271.7805025371
 21
41.2738292744
 31
0.0
  0
SPLINE
  5
143
330
1F
100
AcDbEntity
  8
0
  6
Continuous
 62
     7
370
    30
100
AcDbSpline
210
0.0
220
0.0
230
1.0
 70
     8
 71
     3
 72
    65
 73
    61
 74
     0
 42
0.000000001
 43
0.00000001
 40
0.0
 40
0.0
 40
0.0
 40
0.0
 40
0.0091944135155364
 40
0.0266191265278042
 40
0.0440443926261943
 40
0.0614702867080805
 40
0.0788968164524186
 40
0.0963239894266084
 40
0.1137518130802408
 40
0.1311802947401834
 40
0.1486094416045192
 40
0.1660392607368793
 40
0.1834697590608518
 40
0.2009009433530234
 40
0.2183328202371097
 40
0.2357653961768138
 40
0.2531986774692443
 40
0.2706326702373175
 40
0.2880673804227497
 40
0.3055028137778303
 40
0.3229389758579665
 40
0.3403758720128667
 40
0.3578135073786325
 40
0.3752518868682085
 40
0.3926910151625386
 40
0.4101308967013469
 40
0.4275715356730052
 40
0.4450129360047442
 40
0.4624551013517282
 40
0.4798980350865871
 40
0.497341740288568
 40
0.5147862197314215
 40
0.5322314758721476
 40
0.549677510838479
 40
0.567124326415844
 40
0.584571924035299
 40
0.6020203047592179
 40
0.6194694692680585
 40
0.6369194178458913
 40
0.654370150365575
 40
0.6718216662739566
 40
0.689273964576244
 40
0.7067270438196925
 40
0.7241809020779325
 40
0.7416355369327815
 40
0.759090945458046
 40
0.7765471242011674
 40
0.7940040691647394
 40
0.811461775787756
 40
0.8289202389263434
 40
0.8463794528337516
 40
0.8638394111400844
 40
0.8813001068310808
 40
0.8987615322272311
 40
0.9162236789616157
 40
0.9336865379571042
 40
0.9511500994036339
 40
0.9686143527351148
 40
0.9860792866042479
 40
1.0
 40
1.0
 40
1.0
 40
1.0
 10
291.1136127526247
 20
30.09568622393058
 30
0.0
 10
291.1450289102977
 20
30.10286089775032
 30
0.0
 10
291.2359831266488
 20
30.12363259241911
 30
0.0
 10
291.3861755699578
 20
30.15845387657882
 30
0.0
 10
291.5640567187375
 20
30.20034224431146
 30
0.0
 10
291.7415324745762
 20
30.24282821692072
 30
0.0
 10
291.91860421903
 20
30.28590045935562
 30
0.0
 10
292.0952645930373
 20
30.32956049527628
 30
0.0
 10
292.2715085333193
 20
30.37380636791818
 30
0.0
 10
292.4473303763734
 20
30.418637032853
 30
0.0
 10
292.6227246346565
 20
30.46405118094138
 30
0.0
 10
292.7976857887513
 20
30.51004755379334
 30
0.0
 10
292.9722083432118
 20
30.55662485928991
 30
0.0
 10
293.1462868117504
 20
30.60378179427356
 30
0.0
 10
293.3199157213544
 20
30.65151703852011
 30
0.0
 10
293.4930896113303
 20
30.69982925640637
 30
0.0
 10
293.6658030337026
 20
30.74871709651407
 30
0.0
 10
293.838050553249
 20
30.79817919178666
 30
0.0
 10
294.0098267476289
 20
30.84821415953651
 30
0.0
 10
294.1811262074858
 20
30.89882060149177
 30
0.0
 10
294.3519435365526
 20
30.94999710383106
 30
0.0
 10
294.5222733517555
 20
31.00174223722073
 30
0.0
 10
294.6921102833138
 20
31.05405455684986
 30
0.0
 10
294.8614489748384
 20
31.10693260246461
 30
0.0
 10
295.0302840834286
 20
31.16037489840127
 30
0.0
 10
295.1986102797674
 20
31.21437995361852
 30
0.0
 10
295.3664222482134
 20
31.26894626172808
 30
0.0
 10
295.5337146868906
 20
31.32407230102373
 30
0.0
 10
295.700482307776
 20
31.37975653450905
 30
0.0
 10
295.8667198367864
 20
31.43599740992385
 30
0.0
 10
296.0324220138615
 20
31.49279335976874
 30
0.0
 10
296.1975835930467
 20
31.55014280132826
 30
0.0
 10
296.3621993425716
 20
31.60804413669166
 30
0.0
 10
296.5262640449262
 20
31.66649575277171
 30
0.0
 10
296.6897724969378
 20
31.72549602132229
 30
0.0
 10
296.8527195098416
 20
31.78504329895254
 30
0.0
 10
297.0150999093546
 20
31.84513592714058
 30
0.0
 10
297.1769085357415
 20
31.90577223224296
 30
0.0
 10
297.3381402438828
 20
31.96695052550291
 30
0.0
 10
297.4987899033383
 20
32.02866910305539
 30
0.0
 10
297.6588523984103
 20
32.09092624592981
 30
0.0
 10
297.8183226282031
 20
32.15372022004978
 30
0.0
 10
297.9771955066832
 20
32.21704927623011
 30
0.0
 10
298.1354659627329
 20
32.28091165017019
 30
0.0
 10
298.2931289402076
 20
32.34530556244442
 30
0.0
 10
298.4501793979842
 20
32.41022921849163
 30
0.0
 10
298.6066123100258
 20
32.47568080859049
 30
0.0
 10
298.7624226653832
 20
32.54165850787274
 30
0.0
 10
298.9176054684154
 20
32.60816047617556
 30
0.0
 10
299.0721557381917
 20
32.67518485847844
 30
0.0
 10
299.2260685109399
 20
32.74272978314006
 30
0.0
 10
299.3793388311178
 20
32.81079336832806
 30
0.0
 10
299.531961784934
 20
32.87937369784817
 30
0.0
 10
299.6839323754422
 20
32.94846891116768
 30
0.0
 10
299.8352459889115
 20
33.01807686721073
 30
0.0
 10
299.9858966543874
 20
33.08819639893449
 30
0.0
 10
300.1358835396729
 20
33.15882263064606
 30
0.0
 10
300.2851867067198
 20
33.22996445478673
 30
0.0
 10
300.4237989312904
 20
33.29673403776256
 30
0.0
 10
300.5123970928521
 20
33.33996646170838
 30
0.0
 10
300.5516937052202
 20
33.35914166552286
 30
0.0
  0
SPLINE
  5
144
330
1F
100
AcDbEntity
  8
0
  6
Continuous
 62
     7
370
    30
100
AcDbSpline
210
0.0
220
0.0
230
1.0
 70
     8
 71
     3
 72
    48
 73
    44
 74
     0
 42
0.000000001
 43
0.00000001
 40
0.0
 40
0.0
 40
0.0
 40
0.0
 40
0.0162750256367875
 40
0.0413498062576823
 40
0.0664577578106533
 40
0.0916450868864758
 40
0.1168963287526173
 40
0.1421964835774623
 40
0.167531002951894
 40
0.1928861387690206
 40
0.2182461215376288
 40
0.2435992993139224
 40
0.2689363300549854
 40
0.2942494401656585
 40
0.3195324306948666
 40
0.344780633012303
 40
0.3699908280470685
 40
0.3951611402739653
 40
0.4202909164253043
 40
0.4453805972350414
 40
0.470431588673691
 40
0.4954461373603718
 40
0.5204272132557932
 40
0.545378401420923
 40
0.5703038035857261
 40
0.5952079494767866
 40
0.6200957172871713
 40
0.6449722622636263
 40
0.6698429521276136
 40
0.6947133078664661
 40
0.7195889483296581
 40
0.7444737063151152
 40
0.7693731980970807
 40
0.7942930475354311
 40
0.8192387777318317
 40
0.8442157513680697
 40
0.8692291053438017
 40
0.8942836780656145
 40
0.919383927852024
 40
0.9445338411080938
 40
0.9697368292469848
 40
0.9936191192775066
 40
0.9999999999999999
 40
0.9999999999999999
 40
0.9999999999999999
 40
0.9999999999999999
 10
289.317449947332
 20
30.333463078243
 30
0.0
 10
289.3258505302292
 20
30.32866316002861
 30
0.0
 10
289.3471938130605
 20
30.31646805246643
 30
0.0
 10
289.3820123267267
 20
30.29761343242252
 30
0.0
 10
289.4220265950597
 20
30.2770232633317
 30
0.0
 10
289.4626872201333
 20
30.25723955730672
 30
0.0
 10
289.5039754747057
 20
30.23824472409053
 30
0.0
 10
289.5458539353766
 20
30.22005687411267
 30
0.0
 10
289.5882808687537
 20
30.20268635614568
 30
0.0
 10
289.631213946435
 20
30.18614359012261
 30
0.0
 10
289.674610946542
 20
30.1704363728357
 30
0.0
 10
289.7184310914213
 20
30.15557028397806
 30
0.0
 10
289.7626372064348
 20
30.14154819502683
 30
0.0
 10
289.8071944692394
 20
30.12837115891288
 30
0.0
 10
289.8520700876489
 20
30.11603880273832
 30
0.0
 10
289.8972333558699
 20
30.10454958039033
 30
0.0
 10
289.9426556325365
 20
30.09390102198733
 30
0.0
 10
289.9883102613172
 20
30.08408997354301
 30
0.0
 10
290.0341724492248
 20
30.07511281840392
 30
0.0
 10
290.0802191172272
 20
30.06696567631566
 30
0.0
 10
290.1264287352439
 20
30.0596445779793
 30
0.0
 10
290.1727811511718
 20
30.05314561492309
 30
0.0
 10
290.2192574210989
 20
30.04746506580699
 30
0.0
 10
290.2658396456387
 20
30.04259950113081
 30
0.0
 10
290.3125108154139
 20
30.03854586876809
 30
0.0
 10
290.3592546671703
 20
30.03530156289835
 30
0.0
 10
290.4060555507929
 20
30.03286447884428
 30
0.0
 10
290.4528983065798
 20
30.03123305609905
 30
0.0
 10
290.4997681514722
 20
30.03040631151951
 30
0.0
 10
290.5466505724061
 20
30.03038386426726
 30
0.0
 10
290.5935300748883
 20
30.03116593454784
 30
0.0
 10
290.6403912131921
 20
30.03275328461631
 30
0.0
 10
290.6872185442992
 20
30.0351472245997
 30
0.0
 10
290.7339976870198
 20
30.03834972116033
 30
0.0
 10
290.7807141007453
 20
30.04236338270402
 30
0.0
 10
290.8273529490842
 20
30.04719142782449
 30
0.0
 10
290.8738989531262
 20
30.05283773468785
 30
0.0
 10
290.9203363634419
 20
30.05930654822567
 30
0.0
 10
290.966648434194
 20
30.06660341455601
 30
0.0
 10
291.0128186990149
 20
30.07473145828775
 30
0.0
 10
291.0579878935184
 20
30.08354165214183
 30
0.0
 10
291.091543236511
 20
30.09069383374741
 30
0.0
 10
291.1097697564423
 20
30.09481689193803
 30
0.0
 10
291.1136127526246
 20
30.0956862239304
 30
0.0
  0
LINE
  5
145
330
1F
100
AcDbEntity
  8
0
  6
Continuous
 62
     7
370
    30
100
AcDbLine
 10
289.28838309
 20
30.3502430178
 30
0.0
 11
289.3174499473
 21
30.3334630782
 31
0.0
  0
SPLINE
  5
146
330
1F
100
AcDbEntity
  8
0
  6
Continuous
 62
     7
370
    30
100
AcDbSpline
210
0.0
220
0.0
230
1.0
 70
     8
 71
     3
 72
    39
 73
    35
 74
     0
 42
0.000000001
 43
0.00000001
 40
0.0
 40
0.0
 40
0.0
 40
0.0
 40
0.023091240363246
 40
0.0524664201682982
 40
0.0819290773453455
 40
0.1115162690273247
 40
0.141236165621956
 40
0.1710969115979674
 40
0.2011064316344294
 40
0.2312723702444911
 40
0.2616020226176599
 40
0.2921022574385979
 40
0.3227794320020418
 40
0.353639300307666
 40
0.3846869152497031
 40
0.4159265265297449
 40
0.4473614764881768
 40
0.4789940966590583
 40
0.5108256084608018
 40
0.5428560320037739
 40
0.5750841074466473
 40
0.6075072336144267
 40
0.6401214286007614
 40
0.6729213167799336
 40
0.7059001459588149
 40
0.7390498373281593
 40
0.7723610694265945
 40
0.8058233955845646
 40
0.8394253924369499
 40
0.8731548351841038
 40
0.906998893614368
 40
0.9409443415772705
 40
0.9749777718267733
 40
0.9999999999999999
 40
0.9999999999999999
 40
0.9999999999999999
 40
0.9999999999999999
 10
288.3096618070079
 20
31.44223047107102
 30
0.0
 10
288.3136875577377
 20
31.43158296850843
 30
0.0
 10
288.3228346076995
 20
31.40739040308518
 30
0.0
 10
288.3381391515606
 20
31.37001852808763
 30
0.0
 10
288.3555702811137
 20
31.33007928863593
 30
0.0
 10
288.3740526882673
 20
31.2904324447099
 30
0.0
 10
288.3935684847067
 20
31.2510686889529
 30
0.0
 10
288.4141221338398
 20
31.21200199862435
 30
0.0
 10
288.4357107832758
 20
31.17324333999309
 30
0.0
 10
288.4583337289644
 20
31.13480439677653
 30
0.0
 10
288.4819897946638
 20
31.09669666536293
 30
0.0
 10
288.5066779598577
 20
31.05893179020255
 30
0.0
 10
288.5323970888534
 20
31.02152156927787
 30
0.0
 10
288.5591458796936
 20
30.98447805119804
 30
0.0
 10
288.5869227304139
 20
30.94781360730839
 30
0.0
 10
288.6157256048375
 20
30.9115410070189
 30
0.0
 10
288.6455518772347
 20
30.87567348492637
 30
0.0
 10
288.6763981642193
 20
30.84022479858598
 30
0.0
 10
288.7082601457979
 20
30.80520927270185
 30
0.0
 10
288.7411323807283
 20
30.77064182623388
 30
0.0
 10
288.7750081219382
 20
30.73653797884078
 30
0.0
 10
288.8098791390215
 20
30.70291383364238
 30
0.0
 10
288.8457355552991
 20
30.66978603364472
 30
0.0
 10
288.8825657084554
 20
30.63717169144245
 30
0.0
 10
288.920356039558
 20
30.60508828838497
 30
0.0
 10
288.9590910300857
 20
30.57355355865765
 30
0.0
 10
288.9987531470091
 20
30.54258530857436
 30
0.0
 10
289.0393229730985
 20
30.51220137407742
 30
0.0
 10
289.0807788739468
 20
30.48241897721122
 30
0.0
 10
289.1230986426591
 20
30.4532562879182
 30
0.0
 10
289.1662539519405
 20
30.42472569183965
 30
0.0
 10
289.2102319940018
 20
30.3968581884915
 30
0.0
 10
289.250974963102
 20
30.3720361524881
 30
0.0
 10
289.2772501426361
 20
30.35672882293785
 30
0.0
 10
289.2883830900142
 20
30.35024301780149
 30
0.0
  0
LINE
  5
147
330
1F
100
AcDbEntity
  8
0
  6
Continuous
 62
     7
370
    30
100
AcDbLine
 10
288.0055955904
 20
32.2605357661
 30
0.0
 11
288.309661807
 21
31.4422304711
 31
0.0
  0
SPLINE
  5
148
330
1F
100
AcDbEntity
  8
0
  6
Continuous
 62
     7
370
    30
100
AcDbSpline
210
0.0
220
0.0
230
1.0
 70
     8
 71
     3
 72
    21
 73
    17
 74
     0
 42
0.000000001
 43
0.00000001
 40
0.0
 40
0.0
 40
0.0
 40
0.0
 40
0.0156782359278197
 40
0.094725969795537
 40
0.1737264546112296
 40
0.2526968038799093
 40
0.3316561318382854
 40
0.4106237248477402
 40
0.4896190987438283
 40
0.5686620547109664
 40
0.6477727335747584
 40
0.7269716679357825
 40
0.8062798314380307
 40
0.8857186842263175
 40
0.9653102134506253
 40
1.0
 40
1.0
 40
1.0
 40
1.0
 10
287.9208180503068
 20
32.72992486335706
 30
0.0
 10
287.9207912335291
 20
32.72741614113126
 30
0.0
 10
287.9206292098616
 20
32.712258750537
 30
0.0
 10
287.9213865451178
 20
32.68445983751994
 30
0.0
 10
287.9231440254858
 20
32.64657403045737
 30
0.0
 10
287.9260704793477
 20
32.60877287445725
 30
0.0
 10
287.9300414918936
 20
32.57108012556929
 30
0.0
 10
287.9350846925411
 20
32.53351806506154
 30
0.0
 10
287.9411864721114
 20
32.49610882248157
 30
0.0
 10
287.9483439083606
 20
32.45887409305672
 30
0.0
 10
287.9565504763114
 20
32.42183499111345
 30
0.0
 10
287.9658015121209
 20
32.38501268000554
 30
0.0
 10
287.9760868983981
 20
32.34842577285048
 30
0.0
 10
287.9874151859977
 20
32.31209991849406
 30
0.0
 10
287.9974009188117
 20
32.2828402573047
 30
0.0
 10
288.003687358473
 20
32.26572964614169
 30
0.0
 10
288.0055955903526
 20
32.26053576606641
 30
0.0
  0
SPLINE
  5
149
330
1F
100
AcDbEntity
  8
0
  6
Continuous
 62
     7
370
    30
100
AcDbSpline
210
0.0
220
0.0
230
1.0
 70
     8
 71
     3
 72
   147
 73
   143
 74
     0
 42
0.000000001
 43
0.00000001
 40
0.0
 40
0.0
 40
0.0
 40
0.0
 40
0.0036440911546191
 40
0.011278805045815
 40
0.0188877326034407
 40
0.0264655666010572
 40
0.0340132353744554
 40
0.0415317486359662
 40
0.0490221704216546
 40
0.0564856034941583
 40
0.0639231758186779
 40
0.0713360289385337
 40
0.0787253080787532
 40
0.0860921538024178
 40
0.0934376950480839
 40
0.1007630433857914
 40
0.1080692883386297
 40
0.1153574936315905
 40
0.122628694240663
 40
0.1298838941299505
 40
0.137124064576183
 40
0.1443501429923455
 40
0.1515630321731111
 40
0.1587635998949497
 40
0.165952678811799
 40
0.1731310665965216
 40
0.1802995262842229
 40
0.1874587867805043
 40
0.194609543502547
 40
0.2017524591259396
 40
0.2088881644141796
 40
0.2160172591114264
 40
0.223140312881503
 40
0.230257866280031
 40
0.2373704317471761
 40
0.2444784946116865
 40
0.2515825140982238
 40
0.2586829243308007
 40
0.2657801353273497
 40
0.2728745339804791
 40
0.2799664850208299
 40
0.2870563319606281
 40
0.2941443980142079
 40
0.3012309869946649
 40
0.3083163841848489
 40
0.3154008571816461
 40
0.3224846567133131
 40
0.3295680174291379
 40
0.3366511586615372
 40
0.3437342613889804
 40
0.3508174778816642
 40
0.3579009901487608
 40
0.3649849674443059
 40
0.3720695668962284
 40
0.3791549341167754
 40
0.3862412037874383
 40
0.3933285002191885
 40
0.4004169378885302
 40
0.4075066219502725
 40
0.4145976487274576
 40
0.4216901061796273
 40
0.4287840743495056
 40
0.4358796257896363
 40
0.4429768259689451
 40
0.4500757336604922
 40
0.4571764013107347
 40
0.4642788753914776
 40
0.4713831967345125
 40
0.4784894008503817
 40
0.4855975182313282
 40
0.4927075746393325
 40
0.4998195913798523
 40
0.5069335855618938
 40
0.5140495703447426
 40
0.5211675551722617
 40
0.5282875459952672
 40
0.5354095454820839
 40
0.5425335532184
 40
0.5496595658964936
 40
0.5567875774944626
 40
0.5639175794458937
 40
0.5710495608003575
 40
0.5781835083753114
 40
0.5853194068995885
 40
0.5924572391490524
 40
0.5995969860747391
 40
0.6067386269236615
 40
0.6138821393531446
 40
0.6210274995382031
 40
0.6281746822732309
 40
0.6353236610673098
 40
0.6424744082343665
 40
0.6496268949778604
 40
0.656781091470318
 40
0.6639369669282809
 40
0.671094489682534
 40
0.6782536272441628
 40
0.6854143463664368
 40
0.6925766131029026
 40
0.6997403928614746
 40
0.7069056504556979
 40
0.7140723501519902
 40
0.7212404557141093
 40
0.7284099304448183
 40
0.7355807372244197
 40
0.74275283854662
 40
0.7499261965523376
 40
0.7571007730606918
 40
0.7642765295978685
 40
0.7714534274240014
 40
0.7786314275579513
 40
0.785810490800309
 40
0.7929905777543933
 40
0.8001716488458231
 40
0.8073536643405038
 40
0.8145365843610937
 40
0.82172036890191
 40
0.8289049778428328
 40
0.836090370961879
 40
0.8432765079465541
 40
0.8504633484042176
 40
0.857650851871579
 40
0.8648389778229449
 40
0.8720276856779813
 40
0.8792169348085062
 40
0.8864066845444221
 40
0.8935968941792912
 40
0.9007875229750609
 40
0.907978530166283
 40
0.9151698749638373
 40
0.9223615165582875
 40
0.9295534141226257
 40
0.9367455268149011
 40
0.9439378137802921
 40
0.9511302341532731
 40
0.9583227470590914
 40
0.9655153116155554
 40
0.9727078869343037
 40
0.9799004214429714
 40
0.9870928712944202
 40
0.9942851955912724
 40
1.0
 40
1.0
 40
1.0
 40
1.0
 10
277.6380598169266
 20
40.45182353903118
 30
0.0
 10
277.6411475400423
 20
40.45999123747582
 30
0.0
 10
277.6507043336512
 20
40.4852710327722
 30
0.0
 10
277.6674610058039
 20
40.52765521678309
 30
0.0
 10
277.6887083884735
 20
40.57892954424246
 30
0.0
 10
277.7109367739145
 20
40.63007156125734
 30
0.0
 10
277.7341196217258
 20
40.68106782370591
 30
0.0
 10
277.7582578519067
 20
40.73192021280146
 30
0.0
 10
277.7833471292006
 20
40.78263018901185
 30
0.0
 10
277.8093850034682
 20
40.83319919932143
 30
0.0
 10
277.8363689610051
 20
40.88362848862466
 30
0.0
 10
277.8642968981022
 20
40.93391908909153
 30
0.0
 10
277.8931669488006
 20
40.98407177438643
 30
0.0
 10
277.9229774851914
 20
41.03408703413282
 30
0.0
 10
277.9537270728138
 20
41.0839650525207
 30
0.0
 10
277.9854144395972
 20
41.13370569408124
 30
0.0
 10
278.0180384431148
 20
41.18330849465451
 30
0.0
 10
278.0515980404435
 20
41.23277265701198
 30
0.0
 10
278.0860922596321
 20
41.28209705032497
 30
0.0
 10
278.1215201731169
 20
41.33128021284745
 30
0.0
 10
278.1578808730148
 20
41.38032035723808
 30
0.0
 10
278.1951734482905
 20
41.42921537802606
 30
0.0
 10
278.2333969637419
 20
41.47796286079132
 30
0.0
 10
278.2725504407452
 20
41.52656009269035
 30
0.0
 10
278.3126328396806
 20
41.57500407401326
 30
0.0
 10
278.353643043957
 20
41.62329153050345
 30
0.0
 10
278.3955798455486
 20
41.67141892621625
 30
0.0
 10
278.4384419319553
 20
41.7193824767249
 30
0.0
 10
278.4822278744959
 20
41.7671781625175
 30
0.0
 10
278.5269361178499
 20
41.81480174245199
 30
0.0
 10
278.5725649707604
 20
41.86224876716268
 30
0.0
 10
278.6191125978173
 20
41.90951459232878
 30
0.0
 10
278.6665770122435
 20
41.95659439173509
 30
0.0
 10
278.7149560696078
 20
42.00348317006616
 30
0.0
 10
278.7642474623965
 20
42.05017577539079
 30
0.0
 10
278.8144487153743
 20
42.09666691130046
 30
0.0
 10
278.865557181676
 20
42.14295114867713
 30
0.0
 10
278.9175700395667
 20
42.18902293707124
 30
0.0
 10
278.9704842898193
 20
42.23487661567665
 30
0.0
 10
279.0242967536548
 20
42.2805064238954
 30
0.0
 10
279.079004071202
 20
42.32590651148865
 30
0.0
 10
279.1346027004273
 20
42.37107094831312
 30
0.0
 10
279.1910889164992
 20
42.41599373364704
 30
0.0
 10
279.2484588115428
 20
42.4606688051087
 30
0.0
 10
279.3067082947557
 20
42.50509004717637
 30
0.0
 10
279.3658330928459
 20
42.54925129931662
 30
0.0
 10
279.4258287507656
 20
42.59314636373045
 30
0.0
 10
279.48669063271
 20
42.63676901272872
 30
0.0
 10
279.5484138543105
 20
42.68011294725942
 30
0.0
 10
279.6109932351326
 20
42.72317177526735
 30
0.0
 10
279.6744234200982
 20
42.76593910746543
 30
0.0
 10
279.7386989551874
 20
42.80840860985197
 30
0.0
 10
279.8038143412866
 20
42.85057403603219
 30
0.0
 10
279.8697639091104
 20
42.89242914519596
 30
0.0
 10
279.9365418213409
 20
42.93396770725643
 30
0.0
 10
280.0041420749005
 20
42.9751835077269
 30
0.0
 10
280.0725585033173
 20
43.0160703523312
 30
0.0
 10
280.1417847791747
 20
43.05662207135993
 30
0.0
 10
280.2118144166301
 20
43.09683252378281
 30
0.0
 10
280.2826407739936
 20
43.13669560112862
 30
0.0
 10
280.3542570563558
 20
43.17620523114292
 30
0.0
 10
280.4266563182553
 20
43.21535538123403
 30
0.0
 10
280.4998314663787
 20
43.25414006171692
 30
0.0
 10
280.5737752622844
 20
43.29255332886535
 30
0.0
 10
280.6484803251432
 20
43.33058928778058
 30
0.0
 10
280.7239391344897
 20
43.36824209508648
 30
0.0
 10
280.8001440329793
 20
43.40550596145935
 30
0.0
 10
280.8770872291453
 20
43.44237515400097
 30
0.0
 10
280.9547608001487
 20
43.47884399846245
 30
0.0
 10
281.0331566945231
 20
43.51490688132753
 30
0.0
 10
281.1122667349028
 20
43.55055825176159
 30
0.0
 10
281.1920826207372
 20
43.58579262343451
 30
0.0
 10
281.2725959309848
 20
43.62060457622355
 30
0.0
 10
281.3537981267869
 20
43.65498875780285
 30
0.0
 10
281.4356805541146
 20
43.68893988512616
 30
0.0
 10
281.5182344463929
 20
43.72245274580825
 30
0.0
 10
281.6014509270942
 20
43.75552219941117
 30
0.0
 10
281.6853210123045
 20
43.78814317864024
 30
0.0
 10
281.7698356132577
 20
43.8203106904556
 30
0.0
 10
281.8549855388394
 20
43.85201981710385
 30
0.0
 10
281.9407614980569
 20
43.88326571707426
 30
0.0
 10
282.0271541024782
 20
43.91404362598486
 30
0.0
 10
282.1141538686353
 20
43.9443488574018
 30
0.0
 10
282.2017512203951
 20
43.97417680359629
 30
0.0
 10
282.2899364912961
 20
44.00352293624345
 30
0.0
 10
282.3786999268501
 20
44.03238280706598
 30
0.0
 10
282.4680316868104
 20
44.06075204842641
 30
0.0
 10
282.5579218474068
 20
44.08862637387168
 30
0.0
 10
282.6483604035456
 20
44.1160015786324
 30
0.0
 10
282.7393372709765
 20
44.14287354008002
 30
0.0
 10
282.8308422884275
 20
44.16923821814511
 30
0.0
 10
282.9228652197057
 20
44.19509165569873
 30
0.0
 10
283.0153957557676
 20
44.22042997889998
 30
0.0
 10
283.1084235167573
 20
44.24524939751167
 30
0.0
 10
283.2019380540131
 20
44.26954620518637
 30
0.0
 10
283.2959288520448
 20
44.29331677972529
 30
0.0
 10
283.3903853304818
 20
44.3165575833117
 30
0.0
 10
283.4852968459913
 20
44.33926516272064
 30
0.0
 10
283.5806526941686
 20
44.36143614950692
 30
0.0
 10
283.6764421114011
 20
44.38306726017327
 30
0.0
 10
283.7726542767039
 20
44.40415529631926
 30
0.0
 10
283.8692783135315
 20
44.42469714477396
 30
0.0
 10
283.9663032915635
 20
44.44468977771223
 30
0.0
 10
284.0637182284653
 20
44.46413025275683
 30
0.0
 10
284.1615120916273
 20
44.48301571306743
 30
0.0
 10
284.2596737998792
 20
44.50134338741726
 30
0.0
 10
284.3581922251838
 20
44.51911059025897
 30
0.0
 10
284.4570561943099
 20
44.53631472178068
 30
0.0
 10
284.5562544904836
 20
44.55295326795235
 30
0.0
 10
284.6557758550212
 20
44.56902380056484
 30
0.0
 10
284.7556089889434
 20
44.58452397726079
 30
0.0
 10
284.8557425545704
 20
44.59945154155959
 30
0.0
 10
284.956165177101
 20
44.61380432287589
 30
0.0
 10
285.056865446174
 20
44.62758023653333
 30
0.0
 10
285.1578319174151
 20
44.64077728377371
 30
0.0
 10
285.2590531139684
 20
44.6533935517617
 30
0.0
 10
285.3605175280126
 20
44.66542721358675
 30
0.0
 10
285.4622136222646
 20
44.67687652826138
 30
0.0
 10
285.56412983147
 20
44.68773984071761
 30
0.0
 10
285.6662545638813
 20
44.69801558180087
 30
0.0
 10
285.7685762027243
 20
44.70770226826252
 30
0.0
 10
285.8710831076543
 20
44.71679850275105
 30
0.0
 10
285.9737636162008
 20
44.72530297380227
 30
0.0
 10
286.076606045204
 20
44.73321445582891
 30
0.0
 10
286.1795986922414
 20
44.74053180911012
 30
0.0
 10
286.2827298370458
 20
44.74725397978015
 30
0.0
 10
286.3859877429169
 20
44.75337999981949
 30
0.0
 10
286.4893606581239
 20
44.75890898703927
 30
0.0
 10
286.5928368173043
 20
44.76384014509105
 30
0.0
 10
286.6964044428485
 20
44.76817276338692
 30
0.0
 10
286.8000517463103
 20
44.7719062173573
 30
0.0
 10
286.9037669296948
 20
44.775039967453
 30
0.0
 10
287.0075381871806
 20
44.77757356283997
 30
0.0
 10
287.1113537052033
 20
44.77950662758601
 30
0.0
 10
287.2152016686392
 20
44.78083891219658
 30
0.0
 10
287.3190702442038
 20
44.78157010126559
 30
0.0
 10
287.4229476488808
 20
44.78170053134199
 30
0.0
 10
287.5268218495847
 20
44.7812285120306
 30
0.0
 10
287.6306815358657
 20
44.78016032590578
 30
0.0
 10
287.7345126494795
 20
44.7784729136322
 30
0.0
 10
287.8312044353981
 20
44.77640511806452
 30
0.0
 10
287.8932573426424
 20
44.7746181372061
 30
0.0
 10
287.9207320998857
 20
44.77382692745521
 30
0.0
  0
LINE
  5
14A
330
1F
100
AcDbEntity
  8
0
  6
Continuous
 62
     7
370
    30
100
AcDbLine
 10
300.5516937052
 20
33.3591416655
 30
0.0
 11
327.6793706592
 21
46.6322678648
 31
0.0
  0
SPLINE
  5
14B
330
1F
100
AcDbEntity
  8
0
  6
Continuous
 62
     7
370
    30
100
AcDbSpline
210
0.0
220
0.0
230
1.0
 70
     8
 71
     3
 72
    68
 73
    64
 74
     0
 42
0.000000001
 43
0.00000001
 40
0.0
 40
0.0
 40
0.0
 40
0.0
 40
0.009868927032459
 40
0.0267673186254986
 40
0.043644399692736
 40
0.0605070709906183
 40
0.0773586325556684
 40
0.0942025740289522
 40
0.1110425291642426
 40
0.127882235720282
 40
0.1447254979343944
 40
0.1615749184450889
 40
0.1784342925566557
 40
0.1953074284731768
 40
0.2121980664056381
 40
0.2291098381937626
 40
0.2460462230757202
 40
0.2630104984880192
 40
0.2800056848555039
 40
0.2970344834605605
 40
0.3140992066945104
 40
0.3312017003238857
 40
0.3483432578808409
 40
0.3655245279515127
 40
0.3827454160104398
 40
0.4000049835544313
 40
0.417301348603381
 40
0.4346315930997468
 40
0.4519916842221747
 40
0.4693764179381009
 40
0.4867793939589391
 40
0.5041923824746158
 40
0.5216042055147487
 40
0.5390048791543949
 40
0.556383683153292
 40
0.5737293980027502
 40
0.5910305886175364
 40
0.6082759108512193
 40
0.6254544212386592
 40
0.6425558693417454
 40
0.6595709536580722
 40
0.6764915260349011
 40
0.6933107351606302
 40
0.710023105963015
 40
0.7266245576033276
 40
0.7431123674147423
 40
0.7594850911685841
 40
0.7757424514004335
 40
0.7918852054202443
 40
0.8079150034700271
 40
0.8238342456958849
 40
0.8396459445668327
 40
0.8553535973792424
 40
0.870961071721387
 40
0.8864725053223459
 40
0.9018922206033467
 40
0.9172246534579118
 40
0.9324742952707612
 40
0.9476456468807489
 40
0.9627431830607918
 40
0.977771326066037
 40
0.9927344268621929
 40
1.0
 40
1.0
 40
1.0
 40
1.0
 10
275.391806233356
 20
39.36840495895977
 30
0.0
 10
275.4008469061911
 20
39.36731369211196
 30
0.0
 10
275.4253677654063
 20
39.36435386807793
 30
0.0
 10
275.4654843148039
 20
39.36018964303273
 30
0.0
 10
275.5121564638484
 20
39.35612172236737
 30
0.0
 10
275.5589004854018
 20
39.35287509421732
 30
0.0
 10
275.6057009281693
 20
39.35043258245911
 30
0.0
 10
275.6525435198192
 20
39.34879657376193
 30
0.0
 10
275.6994132367105
 20
39.34796502391717
 30
0.0
 10
275.7462956283994
 20
39.34793783168188
 30
0.0
 10
275.7931751895493
 20
39.34871513790123
 30
0.0
 10
275.840036478758
 20
39.35029772199719
 30
0.0
 10
275.8868640520925
 20
39.35268688517387
 30
0.0
 10
275.9336435221859
 20
39.35588459236941
 30
0.0
 10
275.980360351006
 20
39.35989344474427
 30
0.0
 10
276.026999699756
 20
39.36471666899261
 30
0.0
 10
276.0735463094119
 20
39.37035809622185
 30
0.0
 10
276.1199843705027
 20
39.37682213095902
 30
0.0
 10
276.1662973801484
 20
39.38411370693292
 30
0.0
 10
276.2124679852033
 20
39.39223822713624
 30
0.0
 10
276.2584778110788
 20
39.40120148496523
 30
0.0
 10
276.3043072769468
 20
39.41100956309039
 30
0.0
 10
276.349935399493
 20
39.42166870664914
 30
0.0
 10
276.395339589281
 20
39.43318516761587
 30
0.0
 10
276.44049544611
 20
39.44556501786961
 30
0.0
 10
276.4853765624547
 20
39.45881392967318
 30
0.0
 10
276.5299543470521
 20
39.47293692411942
 30
0.0
 10
276.5741978836557
 20
39.48793809064622
 30
0.0
 10
276.6180738425603
 20
39.50382028397918
 30
0.0
 10
276.6615464641043
 20
39.52058480867193
 30
0.0
 10
276.7045770985026
 20
39.53823088613564
 30
0.0
 10
276.7471229310449
 20
39.55675465180059
 30
0.0
 10
276.7891391888195
 20
39.57614948732866
 30
0.0
 10
276.8305801735298
 20
39.59640610287367
 30
0.0
 10
276.8714012688407
 20
39.61751329525917
 30
0.0
 10
276.9115578681504
 20
39.6394572242245
 30
0.0
 10
276.9510060824225
 20
39.66222154788957
 30
0.0
 10
276.9897034580973
 20
39.68578766265046
 30
0.0
 10
277.0276096505078
 20
39.71013502958456
 30
0.0
 10
277.0646870070555
 20
39.73524156360747
 30
0.0
 10
277.1009010228851
 20
39.76108405583179
 30
0.0
 10
277.1362206448589
 20
39.78763859764571
 30
0.0
 10
277.1706184149954
 20
39.81488097709514
 30
0.0
 10
277.2040704596934
 20
39.84278702358267
 30
0.0
 10
277.2365563437217
 20
39.87133288446894
 30
0.0
 10
277.2680588166833
 20
39.90049522546729
 30
0.0
 10
277.2985634839179
 20
39.93025135446581
 30
0.0
 10
277.3280584339344
 20
39.96057927467265
 30
0.0
 10
277.3565338513881
 20
39.99145767731369
 30
0.0
 10
277.383981639536
 20
40.02286588645087
 30
0.0
 10
277.4103950699808
 20
40.05478376917353
 30
0.0
 10
277.4357684719593
 20
40.08719162359141
 30
0.0
 10
277.4600969664615
 20
40.12007005617292
 30
0.0
 10
277.4833762520357
 20
40.15339985575391
 30
0.0
 10
277.5056024238249
 20
40.18716187791176
 30
0.0
 10
277.5267718864322
 20
40.22133692026429
 30
0.0
 10
277.546881118993
 20
40.25590568280439
 30
0.0
 10
277.5659271631293
 20
40.29084847937846
 30
0.0
 10
277.5839055847543
 20
40.32614594407241
 30
0.0
 10
277.6008179146892
 20
40.3617761294164
 30
0.0
 10
277.6166440692027
 20
40.39772504783009
 30
0.0
 10
277.6289269487411
 20
40.42778573866264
 30
0.0
 10
277.6358100384666
 20
40.44590209963238
 30
0.0
 10
277.6380598169267
 20
40.45182353903121
 30
0.0
  0
LINE
  5
14C
330
1F
100
AcDbEntity
  8
0
  6
Continuous
 62
     7
370
    30
100
AcDbLine
 10
273.9743062973
 20
39.5439386495
 30
0.0
 11
275.3918062334
 21
39.368404959
 31
0.0
  0
SPLINE
  5
14D
330
1F
100
AcDbEntity
  8
0
  6
Continuous
 62
     7
370
    30
100
AcDbSpline
210
0.0
220
0.0
230
1.0
 70
     8
 71
     3
 72
    34
 73
    30
 74
     0
 42
0.000000001
 43
0.00000001
 40
0.0
 40
0.0
 40
0.0
 40
0.0
 40
0.022104178795459
 40
0.0604153128139129
 40
0.0987301800288632
 40
0.1370820093962463
 40
0.1754581493853281
 40
0.213847014986967
 40
0.2522348317937319
 40
0.290612415906855
 40
0.3289717209393779
 40
0.3673057735513469
 40
0.4056086415787603
 40
0.4438753877440048
 40
0.4821020128766259
 40
0.5202853921042601
 40
0.5584232070007653
 40
0.5965138761879061
 40
0.6345564863765493
 40
0.6725507253828742
 40
0.7104968182376911
 40
0.7483954671555464
 40
0.7862477958412826
 40
0.8240552983692307
 40
0.8618197926940574
 40
0.8995433787061446
 40
0.9372284006549843
 40
0.9748774136809829
 40
1.0
 40
1.0
 40
1.0
 40
1.0
 10
272.6025032469398
 20
39.98279641654429
 30
0.0
 10
272.6113383690189
 20
39.97773330584475
 30
0.0
 10
272.6354865931671
 20
39.96389477243647
 30
0.0
 10
272.6754742898736
 20
39.94188325811698
 30
0.0
 10
272.7226360150288
 20
39.91695070827353
 30
0.0
 10
272.7704479906197
 20
39.8927549568837
 30
0.0
 10
272.8188880830668
 20
39.86928075418155
 30
0.0
 10
272.8679292097837
 20
39.84653945008186
 30
0.0
 10
272.9175408551457
 20
39.82453642777596
 30
0.0
 10
272.9676943500918
 20
39.80327702578381
 30
0.0
 10
273.0183630326997
 20
39.78276453642338
 30
0.0
 10
273.0695211799497
 20
39.76300142013705
 30
0.0
 10
273.121143915161
 20
39.74398930733992
 30
0.0
 10
273.1732072403697
 20
39.72572913272739
 30
0.0
 10
273.2256880158987
 20
39.70822122876043
 30
0.0
 10
273.2785639338168
 20
39.69146542427608
 30
0.0
 10
273.3318134775339
 20
39.67546113378656
 30
0.0
 10
273.3854158738376
 20
39.66020743962599
 30
0.0
 10
273.439351039698
 20
39.64570316649183
 30
0.0
 10
273.4935995255043
 20
39.63194694472118
 30
0.0
 10
273.5481424603106
 20
39.6189372764176
 30
0.0
 10
273.6029614870322
 20
39.60667255260804
 30
0.0
 10
273.6580387395567
 20
39.59515121650226
 30
0.0
 10
273.7133566734269
 20
39.58437134879179
 30
0.0
 10
273.7688984555241
 20
39.57433237547396
 30
0.0
 10
273.8246462870563
 20
39.56502884032679
 30
0.0
 10
273.8805874445765
 20
39.55647372053237
 30
0.0
 10
273.9304860101731
 20
39.54948124302121
 30
0.0
 10
273.9617812486831
 20
39.54552287583731
 30
0.0
 10
273.9743062972566
 20
39.54393864949453
 30
0.0
  0
LINE
  5
14E
330
1F
100
AcDbEntity
  8
0
  6
Continuous
 62
     7
370
    30
100
AcDbLine
 10
272.5734363896
 20
39.9995763561
 30
0.0
 11
272.6025032469
 21
39.9827964165
 31
0.0
  0
SPLINE
  5
14F
330
1F
100
AcDbEntity
  8
0
  6
Continuous
 62
     7
370
    30
100
AcDbSpline
210
0.0
220
0.0
230
1.0
 70
     8
 71
     3
 72
    47
 73
    43
 74
     0
 42
0.000000001
 43
0.00000001
 40
0.0
 40
0.0
 40
0.0
 40
0.0
 40
0.0152216732209674
 40
0.0392302875685364
 40
0.0632264865562757
 40
0.0872160551480413
 40
0.1112048209645275
 40
0.1351986716017796
 40
0.1592035718182013
 40
0.1832255803190901
 40
0.2072708659874511
 40
0.2313457233752111
 40
0.2554565872045829
 40
0.2796100455708968
 40
0.3038128514577113
 40
0.328071932079438
 40
0.3523943954633566
 40
0.3767875335601676
 40
0.4012588210347222
 40
0.4258159087399235
 40
0.4504666107189469
 40
0.4752188834141387
 40
0.5000807956027087
 40
0.5250604874332407
 40
0.550166116825343
 40
0.5754057914360368
 40
0.6007874844378348
 40
0.6263189325039937
 40
0.6520075147444542
 40
0.6778601119021213
 40
0.7038829459861932
 40
0.7300814017265835
 40
0.7564598328276635
 40
0.7830213579799296
 40
0.8097676538897989
 40
0.8366987550838461
 40
0.863812872678499
 40
0.8911062463140618
 40
0.9185730445993553
 40
0.9462053291652626
 40
0.973993095402137
 40
1.0
 40
1.0
 40
1.0
 40
1.0
 10
271.780628018508
 20
41.2738170509197
 30
0.0
 10
271.7806205494353
 20
41.26579915978172
 30
0.0
 10
271.7806012996546
 20
41.24513492855891
 30
0.0
 10
271.7817918906393
 20
41.21184641617487
 30
0.0
 10
271.7840573862136
 20
41.17399425639663
 30
0.0
 10
271.7874400061078
 20
41.13623761933904
 30
0.0
 10
271.7918786479972
 20
41.09859905593012
 30
0.0
 10
271.7973837657424
 20
41.0611008955621
 30
0.0
 10
271.8039461676963
 20
41.02376504638508
 30
0.0
 10
271.8115614948968
 20
40.98661299552156
 30
0.0
 10
271.8202237106339
 20
40.94966575907824
 30
0.0
 10
271.8299269014071
 20
40.91294384955573
 30
0.0
 10
271.8406648544266
 20
40.87646724316659
 30
0.0
 10
271.8524312360962
 20
40.84025535246658
 30
0.0
 10
271.8652196131505
 20
40.80432700365488
 30
0.0
 10
271.879023519093
 20
40.76870041961826
 30
0.0
 10
271.8938365104387
 20
40.73339320942904
 30
0.0
 10
271.9096522262849
 20
40.69842236519439
 30
0.0
 10
271.9264644458536
 20
40.66380426718516
 30
0.0
 10
271.9442671433285
 20
40.62955469822069
 30
0.0
 10
271.9630545376024
 20
40.59568886830051
 30
0.0
 10
271.9828211345095
 20
40.5622214504487
 30
0.0
 10
272.0035617585913
 20
40.5291666286611
 30
0.0
 10
272.0252715710285
 20
40.49653815869911
 30
0.0
 10
272.0479460699296
 20
40.46434944224143
 30
0.0
 10
272.0715810687816
 20
40.43261361455864
 30
0.0
 10
272.0961726485826
 20
40.40134364539995
 30
0.0
 10
272.1217170790505
 20
40.37055245215317
 30
0.0
 10
272.1482107044024
 20
40.34025302350472
 30
0.0
 10
272.17564978976
 20
40.31045855093853
 30
0.0
 10
272.2040303248853
 20
40.28118256383311
 30
0.0
 10
272.2333477845735
 20
40.25243906411735
 30
0.0
 10
272.263596843239
 20
40.2242426492771
 30
0.0
 10
272.2947710594576
 20
40.1966086328195
 30
0.0
 10
272.3268624927096
 20
40.16955308831022
 30
0.0
 10
272.3598614351025
 20
40.14309305082903
 30
0.0
 10
272.3937556307747
 20
40.11724594644379
 30
0.0
 10
272.4285314323578
 20
40.09203170670965
 30
0.0
 10
272.4641677681158
 20
40.06746449737566
 30
0.0
 10
272.5006574266603
 20
40.04358327883694
 30
0.0
 10
272.5370653924444
 20
40.02087257042242
 30
0.0
 10
272.5615832770914
 20
40.00651667790851
 30
0.0
 10
272.573436389622
 20
39.99957635610276
 30
0.0
  0
LINE
  5
150
330
1F
100
AcDbEntity
  8
0
  6
Continuous
 62
     7
370
    30
100
AcDbLine
 10
301.9920775864
 20
104.2752809909
 30
0.0
 11
326.5313309064
 21
90.1090715855
 31
0.0
  0
ELLIPSE
  5
151
330
1F
100
AcDbEntity
  8
0
  6
Continuous
 62
     7
370
    30
100
AcDbEllipse
 10
326.4875788512
 20
88.3727322206
 30
0.0
 11
-0.9069016951978029
 21
1.843065605105139
 31
0.0
210
0.0
220
0.0
230
1.0
 40
0.5921634793
 41
4.019055620352534
 42
5.559014462788311
  0
LINE
  5
152
330
1F
100
AcDbEntity
  8
0
  6
Continuous
 62
     7
370
    30
100
AcDbLine
 10
327.9065983091
 20
47.0999866387
 30
0.0
 11
327.9065983091
 21
87.6078643315
 31
0.0
  0
ELLIPSE
  5
153
330
1F
100
AcDbEntity
  8
0
  6
Continuous
 62
     7
370
    30
100
AcDbEllipse
 10
302.0358296416
 20
102.4884265783
 30
0.0
 11
-0.9494490518179646
 21
1.893013100169767
 31
0.0
210
0.0
220
0.0
230
1.0
 40
0.5570966504
 41
5.581041684274083
 42
6.518944355243371
  0
ELLIPSE
  5
154
330
1F
100
AcDbEntity
  8
0
  6
Continuous
 62
     7
370
    30
100
AcDbEllipse
 10
327.1970885801
 20
47.5095778868
 30
0.0
 11
-0.5033577582428278
 21
0.8660486386234749
 31
0.0
210
0.0
220
0.0
230
1.0
 40
0.5773752179
 41
3.100290966549997
 42
3.923679327498092
  0
LINE
  5
155
330
1F
100
AcDbEntity
  8
0
  6
Continuous
 62
   252
370
     0
100
AcDbLine
 10
289.9651937801
 20
58.2893499862
 30
0.0
 11
289.9942606375
 21
58.2725700467
 31
0.0
  0
ELLIPSE
  5
156
330
1F
100
AcDbEntity
  8
0
  6
Continuous
 62
   252
370
     0
100
AcDbEllipse
 10
290.6723005613
 20
59.0278069788
 30
0.0
 11
0.928358816044522
 21
0.5181609184778111
 31
0.0
210
0.0
220
0.0
230
1.0
 40
0.7173162133
 41
2.972075634037921
 42
3.546167177966344
  0
LINE
  5
157
330
1F
100
AcDbEntity
  8
0
  6
Continuous
 62
   252
370
     0
100
AcDbLine
 10
289.3904766425
 20
59.7077381417
 30
0.0
 11
289.6945428592
 21
58.6294192495
 31
0.0
  0
ELLIPSE
  5
158
330
1F
100
AcDbEntity
  8
0
  6
Continuous
 62
   252
370
     0
100
AcDbEllipse
 10
286.8632436346
 20
68.5789804291
 30
0.0
 11
11.08422647324682
 21
6.18663050399482
 31
0.0
210
0.0
220
0.0
230
1.0
 40
0.7173162133
 41
4.544846933401253
 42
8.83067272971153
  0
LINE
  5
159
330
1F
100
AcDbEntity
  8
0
  6
Continuous
 62
   252
370
     0
100
AcDbLine
 10
273.7766830825
 20
67.8186041013
 30
0.0
 11
275.1941830186
 21
67.903084008
 31
0.0
  0
ELLIPSE
  5
15A
330
1F
100
AcDbEntity
  8
0
  6
Continuous
 62
   252
370
     0
100
AcDbEllipse
 10
273.9864207183
 20
68.6603603775
 30
0.0
 11
0.928358816044522
 21
0.518160918477804
 31
0.0
210
0.0
220
0.0
230
1.0
 40
0.7173162133
 41
3.546167177966476
 42
4.120258721894865
  0
LINE
  5
15B
330
1F
100
AcDbEntity
  8
0
  6
Continuous
 62
   252
370
     0
100
AcDbLine
 10
273.2502470797
 20
67.9386833245
 30
0.0
 11
273.2793139371
 21
67.921903385
 31
0.0
  0
ELLIPSE
  5
15C
330
1F
100
AcDbEntity
  8
0
  6
Continuous
 62
   252
370
     0
100
AcDbEllipse
 10
303.0022534586
 20
65.3686644966
 30
0.0
 11
29.69264769789641
 21
16.57286960308453
 31
0.0
210
0.0
220
0.0
230
1.0
 40
0.7173162133
 41
2.057695641288004
 42
2.384970091912492
  0
LINE
  5
15D
330
1F
100
AcDbEntity
  8
0
  6
Continuous
 62
   252
370
     0
100
AcDbLine
 10
301.9920775864
 20
104.2752809909
 30
0.0
 11
278.6029663001
 21
76.4382346767
 31
0.0
  0
LINE
  5
15E
330
1F
100
AcDbEntity
  8
0
  6
Continuous
 62
   252
370
     0
100
AcDbLine
 10
298.9353767317
 20
64.7005839775
 30
0.0
 11
326.5313309064
 21
90.1090715855
 31
0.0
  0
ELLIPSE
  5
15F
330
1F
100
AcDbEntity
  8
0
  6
Continuous
 62
   252
370
     0
100
AcDbEllipse
 10
278.2556191468
 20
79.6545924003
 30
0.0
 11
29.69264769789641
 21
16.57286960308454
 31
0.0
210
0.0
220
0.0
230
1.0
 40
0.7173162133
 41
4.707364264020377
 42
5.034638714644844
  0
LINE
  5
160
330
1F
100
AcDbEntity
  8
0
  6
Continuous
 62
   252
370
     0
100
AcDbLine
 10
327.9065983091
 20
87.6078643315
 30
0.0
 11
300.7587627622
 21
62.6119740386
 31
0.0
  0
ARC
  5
161
330
1F
100
AcDbEntity
  8
0
  6
Continuous
 62
   252
370
     0
100
AcDbCircle
 10
295.3754471588
 20
59.7524892149
 30
0.0
 40
6.095632891140205
100
AcDbArc
 50
27.9761408538
 51
54.2666980969
  0
LINE
  5
162
330
1F
100
AcDbEntity
  8
0
  6
Continuous
 62
   252
370
     0
100
AcDbLine
 10
300.7587627622
 20
33.8169971715
 30
0.0
 11
327.9065983091
 21
47.0999866387
 31
0.0
  0
LINE
  5
163
330
1F
100
AcDbEntity
  8
0
  6
Continuous
 62
   252
370
     0
100
AcDbLine
 10
300.7587627622
 20
33.8169971715
 30
0.0
 11
300.7587627622
 21
62.6119740386
 31
0.0
  0
ELLIPSE
  5
164
330
1F
100
AcDbEntity
  8
0
  6
Continuous
 62
   252
370
     0
100
AcDbEllipse
 10
278.7858746042
 20
78.4467603187
 30
0.0
 11
31.90297245509772
 21
16.3449952676128
 31
0.0
210
0.0
220
0.0
230
1.0
 40
0.716400915
 41
4.736416751395589
 42
5.06369120202007
  0
ARC
  5
165
330
1F
100
AcDbEntity
  8
0
  6
Continuous
 62
   252
370
     0
100
AcDbCircle
 10
271.9456640588
 20
46.7812908918
 30
0.0
 40
21.39629255444133
100
AcDbArc
 50
25.4943710183
 51
32.4843150199
  0
ARC
  5
166
330
1F
100
AcDbEntity
  8
0
  6
Continuous
 62
   252
370
     0
100
AcDbCircle
 10
293.6538554384
 20
61.5744258713
 30
0.0
 40
4.654129546658127
100
AcDbArc
 50
195.2406520831
 51
203.6458388831
  0
ELLIPSE
  5
167
330
1F
100
AcDbEntity
  8
0
  6
Continuous
 62
   252
370
     0
100
AcDbEllipse
 10
287.3934990919
 20
67.3711483475
 30
0.0
 11
8.835198351247245
 21
6.384419602877459
 31
0.0
210
0.0
220
0.0
230
1.0
 40
0.7132278542
 41
5.807338075604129
 42
8.735615112572457
  0
ARC
  5
168
330
1F
100
AcDbEntity
  8
0
  6
Continuous
 62
   252
370
     0
100
AcDbCircle
 10
275.4444926716
 20
65.4792583003
 30
0.0
 40
2.43671622961982
100
AcDbArc
 50
23.49918761
 51
95.8960620445
  0
ARC
  5
169
330
1F
100
AcDbEntity
  8
0
  6
Continuous
 62
   252
370
     0
100
AcDbCircle
 10
281.8004345559
 20
73.2869808795
 30
0.0
 40
43.78695950042977
100
AcDbArc
 50
282.4743758205
 51
295.6560299304
  0
LINE
  5
16A
330
1F
100
AcDbEntity
  8
0
  6
Continuous
 62
   252
370
     0
100
AcDbLine
 10
291.2585477263
 20
55.9907349315
 30
0.0
 11
291.2585477263
 21
30.5337129629
 31
0.0
  0
ARC
  5
16B
330
1F
100
AcDbEntity
  8
0
  6
Continuous
 62
   252
370
     0
100
AcDbCircle
 10
290.5312446502
 20
59.0118773326
 30
0.0
 40
3.107454130421307
100
AcDbArc
 50
242.7889857565
 51
283.5356953319
  0
ARC
  5
16C
330
1F
100
AcDbEntity
  8
0
  6
Continuous
 62
   252
370
     0
100
AcDbCircle
 10
292.2263463121
 20
56.0927223273
 30
0.0
 40
3.119926688052075
100
AcDbArc
 50
135.6783589522
 51
177.1411651949
  0
LWPOLYLINE
  5
16D
330
1F
100
AcDbEntity
  8
0
  6
Continuous
 62
   252
370
     0
100
AcDbPolyline
 90
       55
 70
   128
 43
0.0
 10
277.6791216149
 20
40.6808852106
 10
277.737791645
 20
40.8279016073
 10
277.8031367001
 20
40.9739767458
 10
277.875111607
 20
41.1190096439
 10
277.9536666091
 20
41.2629000397
 10
278.0387474012
 20
41.4055484614
 10
278.1302951664
 20
41.5468562956
 10
278.2282466176
 20
41.6867258557
 10
278.3325340406
 20
41.8250604493
 10
278.443085341
 20
41.9617644452
 10
278.5598240945
 20
42.0967433396
 10
278.6826695989
 20
42.2299038209
 10
278.8115369309
 20
42.3611538349
 10
278.946337004
 20
42.490402648
 10
279.0869766304
 20
42.61756091
 10
279.2333585854
 20
42.742540716
 10
279.3853816747
 20
42.8652556669
 10
279.5429408042
 20
42.9856209295
 10
279.7059270526
 20
43.1035532949
 10
279.874227747
 20
43.2189712359
 10
280.0477265405
 20
43.3317949638
 10
280.2263034928
 20
43.4419464831
 10
280.4098351531
 20
43.5493496456
 10
280.5981946451
 20
43.6539302032
 10
280.7912517553
 20
43.755615859
 10
280.9888730227
 20
43.8543363173
 10
281.190921831
 20
43.9500233322
 10
281.3972585031
 20
44.0426107551
 10
281.6077403977
 20
44.1320345799
 10
281.8222220079
 20
44.2182329876
 10
282.0405550619
 20
44.3011463889
 10
282.2625886252
 20
44.3807174655
 10
282.4881692052
 20
44.4568912097
 10
282.7171408573
 20
44.5296149622
 10
282.9493452925
 20
44.5988384488
 10
283.1846219871
 20
44.6645138152
 10
283.4228082935
 20
44.7265956597
 10
283.6637395526
 20
44.7850410649
 10
283.9072492078
 20
44.8398096272
 10
284.1531689199
 20
44.8908634851
 10
284.4013286839
 20
44.9381673447
 10
284.651556946
 20
44.9816885047
 10
284.9036807225
 20
45.0213968788
 10
285.1575257192
 20
45.0572650165
 10
285.4129164524
 20
45.089268122
 10
285.6696763694
 20
45.1173840715
 10
285.9276279712
 20
45.1415934282
 10
286.186592935
 20
45.1618794562
 10
286.4463922373
 20
45.1782281316
 10
286.7068462779
 20
45.1906281526
 10
286.9677750041
 20
45.1990709469
 10
287.2289980349
 20
45.2035506781
 10
287.4903347858
 20
45.2040642494
 10
287.7516045939
 20
45.2006113055
 10
287.9207320999
 20
45.1962585505
  0
LINE
  5
16E
330
1F
100
AcDbEntity
  8
0
  6
Continuous
 62
   252
370
     0
100
AcDbLine
 10
277.6791216149
 20
66.4508649436
 30
0.0
 11
277.6791216149
 21
40.6808852106
 31
0.0
  0
ARC
  5
16F
330
1F
100
AcDbEntity
  8
0
  6
Continuous
 62
   252
370
     0
100
AcDbCircle
 10
292.1972794548
 20
56.1095022668
 30
0.0
 40
3.119926688052138
100
AcDbArc
 50
135.6783589522
 51
177.1411651949
  0
ELLIPSE
  5
170
330
1F
100
AcDbEntity
  8
0
  6
Continuous
 62
   252
370
     0
100
AcDbEllipse
 10
291.2025560187
 20
57.8199748972
 30
0.0
 11
2.988523490694149
 21
0.4043787325849095
 31
0.0
210
0.0
220
0.0
230
1.0
 40
0.6483006821
 41
3.265401333972083
 42
3.839492877900492
  0
ARC
  5
171
330
1F
100
AcDbEntity
  8
0
  6
Continuous
 62
   252
370
     0
100
AcDbCircle
 10
290.1417911746
 20
56.764328064
 30
0.0
 40
1.917966680064513
100
AcDbArc
 50
103.4848817314
 51
167.5006971453
  0
LINE
  5
172
330
1F
100
AcDbEntity
  8
0
  6
Continuous
 62
   252
370
     0
100
AcDbLine
 10
289.1103025325
 20
56.2483298533
 30
0.0
 11
289.0812356751
 21
56.2651097928
 31
0.0
  0
ARC
  5
173
330
1F
100
AcDbEntity
  8
0
  6
Continuous
 62
   252
370
     0
100
AcDbCircle
 10
290.532539948
 20
33.5656576631
 30
0.0
 40
3.117655522876505
100
AcDbArc
 50
242.8585938719
 51
283.4660872165
  0
LINE
  5
174
330
1F
100
AcDbEntity
  8
0
  6
Continuous
 62
   252
370
     0
100
AcDbLine
 10
289.1103025325
 20
30.7913078847
 30
0.0
 11
289.1103025325
 21
56.2483298533
 31
0.0
  0
LINE
  5
175
330
1F
100
AcDbEntity
  8
0
  6
Continuous
 62
   252
370
     0
100
AcDbLine
 10
288.2692829122
 20
57.1794292482
 30
0.0
 11
287.9652166956
 21
58.2577481404
 31
0.0
  0
ARC
  5
176
330
1F
100
AcDbEntity
  8
0
  6
Continuous
 62
   252
370
     0
100
AcDbCircle
 10
289.837724958
 20
57.8426469563
 30
0.0
 40
1.91796668006421
100
AcDbArc
 50
103.4848817314
 51
167.5006971453
  0
LINE
  5
177
330
1F
100
AcDbEntity
  8
0
  6
Continuous
 62
   252
370
     0
100
AcDbLine
 10
289.0812356751
 20
30.8080878243
 30
0.0
 11
289.0812356751
 21
56.2651097928
 31
0.0
  0
ARC
  5
178
330
1F
100
AcDbEntity
  8
0
  6
Continuous
 62
   252
370
     0
100
AcDbCircle
 10
289.8862318794
 20
32.3802669302
 30
0.0
 40
1.766285942252626
100
AcDbArc
 50
203.7300843328
 51
242.8863841169
  0
LINE
  5
179
330
1F
100
AcDbEntity
  8
0
  6
Continuous
 62
   252
370
     0
100
AcDbLine
 10
288.2692829122
 20
31.6694631123
 30
0.0
 11
288.2692829122
 21
57.1794292482
 31
0.0
  0
LINE
  5
17A
330
1F
100
AcDbEntity
  8
0
  6
Continuous
 62
   252
370
     0
100
AcDbLine
 10
289.0812356751
 20
30.8080878243
 30
0.0
 11
289.1103025325
 21
30.7913078847
 31
0.0
  0
ARC
  5
17B
330
1F
100
AcDbEntity
  8
0
  6
Continuous
 62
   252
370
     0
100
AcDbCircle
 10
288.6127664551
 20
58.5018684151
 30
0.0
 40
0.6920371374343994
100
AcDbArc
 50
180.1624693277
 51
200.6559793068
  0
LINE
  5
17C
330
1F
100
AcDbEntity
  8
0
  6
Continuous
 62
   252
370
     0
100
AcDbLine
 10
287.9652166956
 20
32.4877684073
 30
0.0
 11
288.2692829122
 21
31.6694631123
 31
0.0
  0
LINE
  5
17D
330
1F
100
AcDbEntity
  8
0
  6
Continuous
 62
   252
370
     0
100
AcDbLine
 10
287.9652166956
 20
58.2577481404
 30
0.0
 11
287.9652166956
 21
32.4877684073
 31
0.0
  0
ARC
  5
17E
330
1F
100
AcDbEntity
  8
0
  6
Continuous
 62
   252
370
     0
100
AcDbCircle
 10
288.6138780158
 20
32.7320928766
 30
0.0
 40
0.6931493018872609
100
AcDbArc
 50
180.1790874581
 51
200.6393611764
  0
LWPOLYLINE
  5
17F
330
1F
100
AcDbEntity
  8
0
  6
Continuous
 62
   252
370
     0
100
AcDbPolyline
 90
       39
 70
   128
 43
0.0
 10
278.6029663001
 20
76.4382346767
 10
278.5656261249
 20
76.4554855162
 10
278.5286360977
 20
76.471980606
 10
278.4920190374
 20
76.4877097702
 10
278.455797533
 20
76.5026633057
 10
278.4199939295
 20
76.5168319876
 10
278.3846303139
 20
76.5302070753
 10
278.3497285021
 20
76.5427803178
 10
278.3153100246
 20
76.5545439587
 10
278.2813961144
 20
76.565490741
 10
278.2480076926
 20
76.5756139117
 10
278.2151653566
 20
76.5849072258
 10
278.1828893666
 20
76.5933649503
 10
278.1511996337
 20
76.6009818677
 10
278.1201157071
 20
76.6077532792
 10
278.0896567623
 20
76.6136750074
 10
278.0598415895
 20
76.6187433992
 10
278.0306885814
 20
76.6229553281
 10
278.0022157226
 20
76.6263081956
 10
277.9744405777
 20
76.6287999334
 10
277.9473802813
 20
76.6304290044
 10
277.9210515267
 20
76.6311944036
 10
277.895470556
 20
76.6310956587
 10
277.8706531501
 20
76.6301328308
 10
277.8466146188
 20
76.6283065138
 10
277.8233697912
 20
76.6256178343
 10
277.8009330072
 20
76.622068451
 10
277.7793181078
 20
76.6176605535
 10
277.7585384273
 20
76.6123968609
 10
277.7386067845
 20
76.6062806205
 10
277.7195354753
 20
76.5993156054
 10
277.7013362646
 20
76.5915061122
 10
277.6840203794
 20
76.5828569586
 10
277.667598502
 20
76.5733734802
 10
277.6520807629
 20
76.5630615274
 10
277.6374767349
 20
76.5519274615
 10
277.6237954273
 20
76.5399781511
 10
277.61104528
 20
76.5272209678
 10
277.6019743795
 20
76.5169800189
  0
ARC
  5
180
330
1F
100
AcDbEntity
  8
0
  6
Continuous
 62
   252
370
     0
100
AcDbCircle
 10
272.8865583654
 20
66.8151440549
 30
0.0
 40
1.180936057273785
100
AcDbArc
 50
72.0632765335
 51
142.6466233083
  0
ARC
  5
181
330
1F
100
AcDbEntity
  8
0
  6
Continuous
 62
   252
370
     0
100
AcDbCircle
 10
275.8389408244
 20
67.7616381109
 30
0.0
 40
2.259290073910651
100
AcDbArc
 50
256.3289318556
 51
324.5374732649
  0
ARC
  5
182
330
1F
100
AcDbEntity
  8
0
  6
Continuous
 62
   252
370
     0
100
AcDbCircle
 10
281.2897890488
 20
67.02107664
 30
0.0
 40
6.159086772588145
100
AcDbArc
 50
171.7666952382
 51
193.6618276611
  0
LINE
  5
183
330
1F
100
AcDbEntity
  8
0
  6
Continuous
 62
   252
370
     0
100
AcDbLine
 10
275.3049632044
 20
65.5663569127
 30
0.0
 11
273.8874632683
 21
65.481877006
 31
0.0
  0
ARC
  5
184
330
1F
100
AcDbEntity
  8
0
  6
Continuous
 62
   252
370
     0
100
AcDbCircle
 10
279.8722891127
 20
66.9365967334
 30
0.0
 40
6.159086772598427
100
AcDbArc
 50
171.7666952382
 51
193.6618276611
  0
ELLIPSE
  5
185
330
1F
100
AcDbEntity
  8
0
  6
Continuous
 62
   252
370
     0
100
AcDbEllipse
 10
274.5166761756
 20
67.4525282959
 30
0.0
 11
2.988523490694149
 21
0.4043787325849024
 31
0.0
210
0.0
220
0.0
230
1.0
 40
0.6483006821
 41
3.83949287790049
 42
4.413584421828892
  0
ARC
  5
186
330
1F
100
AcDbEntity
  8
0
  6
Continuous
 62
   252
370
     0
100
AcDbCircle
 10
275.5113996117
 20
65.7420556656
 30
0.0
 40
3.119926688051902
100
AcDbArc
 50
135.6783589522
 51
177.1411651949
  0
ARC
  5
187
330
1F
100
AcDbEntity
  8
0
  6
Continuous
 62
   252
370
     0
100
AcDbCircle
 10
275.8389408244
 20
41.9916583779
 30
0.0
 40
2.25929007391061
100
AcDbArc
 50
256.3289318556
 51
324.5374732649
  0
LINE
  5
188
330
1F
100
AcDbEntity
  8
0
  6
Continuous
 62
   252
370
     0
100
AcDbLine
 10
275.3049632044
 20
39.7963771796
 30
0.0
 11
275.3049632044
 21
65.5663569127
 31
0.0
  0
LINE
  5
189
330
1F
100
AcDbEntity
  8
0
  6
Continuous
 62
   252
370
     0
100
AcDbLine
 10
273.8874632683
 20
39.9719108702
 30
0.0
 11
275.3049632044
 21
39.7963771796
 31
0.0
  0
LINE
  5
18A
330
1F
100
AcDbEntity
  8
0
  6
Continuous
 62
   252
370
     0
100
AcDbLine
 10
273.8874632683
 20
39.9719108702
 30
0.0
 11
273.8874632683
 21
65.481877006
 31
0.0
  0
LINE
  5
18B
330
1F
100
AcDbEntity
  8
0
  6
Continuous
 62
   252
370
     0
100
AcDbLine
 10
272.3953558321
 20
65.8976631916
 30
0.0
 11
272.3662889748
 21
65.9144431311
 31
0.0
  0
ARC
  5
18C
330
1F
100
AcDbEntity
  8
0
  6
Continuous
 62
   252
370
     0
100
AcDbCircle
 10
275.4823327544
 20
65.7588356051
 30
0.0
 40
3.119926688052655
100
AcDbArc
 50
135.6783589522
 51
177.1411651949
  0
ARC
  5
18D
330
1F
100
AcDbEntity
  8
0
  6
Continuous
 62
   252
370
     0
100
AcDbCircle
 10
272.7803734019
 20
66.8299154401
 30
0.0
 40
1.004766371518061
100
AcDbArc
 50
185.6582274845
 51
245.6619134731
  0
ARC
  5
18E
330
1F
100
AcDbEntity
  8
0
  6
Continuous
 62
   252
370
     0
100
AcDbCircle
 10
274.3160300531
 20
43.9454407424
 30
0.0
 40
3.996574675177245
100
AcDbArc
 50
241.2767044756
 51
263.8441352642
  0
LINE
  5
18F
330
1F
100
AcDbEntity
  8
0
  6
Continuous
 62
   252
370
     0
100
AcDbLine
 10
272.3953558321
 20
40.440641223
 30
0.0
 11
272.3953558321
 21
65.8976631916
 31
0.0
  0
LINE
  5
190
330
1F
100
AcDbEntity
  8
0
  6
Continuous
 62
   252
370
     0
100
AcDbLine
 10
272.3662889748
 20
40.4574211626
 30
0.0
 11
272.3953558321
 21
40.440641223
 31
0.0
  0
LINE
  5
191
330
1F
100
AcDbEntity
  8
0
  6
Continuous
 62
   252
370
     0
100
AcDbLine
 10
272.3662889748
 20
65.9144431311
 30
0.0
 11
272.3662889748
 21
40.4574211626
 31
0.0
  0
ARC
  5
192
330
1F
100
AcDbEntity
  8
0
  6
Continuous
 62
   252
370
     0
100
AcDbCircle
 10
272.7803734019
 20
41.3728934716
 30
0.0
 40
1.004766371518906
100
AcDbArc
 50
185.6582274846
 51
245.661913473
  0
ARC
  5
193
330
1F
100
AcDbEntity
  8
0
  6
Continuous
 62
   252
370
     0
100
AcDbCircle
 10
300.2840853707
 20
33.7559220963
 30
0.0
 40
0.4785904207099127
100
AcDbArc
 50
303.9975471471
 51
7.3317648002
  0
LWPOLYLINE
  5
194
330
1F
100
AcDbEntity
  8
0
  6
Continuous
 62
   252
370
     0
100
AcDbPolyline
 90
       28
 70
   128
 43
0.0
 10
291.2585477263
 20
30.5337129629
 10
291.2583241502
 20
30.5055432264
 10
291.2576536942
 20
30.4780620639
 10
291.2565371753
 20
30.4513029571
 10
291.2549759536
 20
30.4252985079
 10
291.2529719314
 20
30.4000803986
 10
291.2505275502
 20
30.3756793536
 10
291.2476457881
 20
30.3521251019
 10
291.244330156
 20
30.3294463406
 10
291.2405846937
 20
30.3076707004
 10
291.2364139643
 20
30.2868247115
 10
291.2318230493
 20
30.2669337715
 10
291.2268175419
 20
30.2480221145
 10
291.2214035407
 20
30.2301127815
 10
291.2155876416
 20
30.2132275921
 10
291.2093769306
 20
30.1973871183
 10
291.2027789744
 20
30.1826106595
 10
291.1958018115
 20
30.1689162184
 10
291.1884539427
 20
30.1563204795
 10
291.1807443201
 20
30.1448387889
 10
291.1726823368
 20
30.1344851351
 10
291.1642778149
 20
30.1252721327
 10
291.1555409942
 20
30.117211006
 10
291.1464825191
 20
30.1103115765
 10
291.1371134259
 20
30.10458225
 10
291.1274451295
 20
30.1000300068
 10
291.1174894092
 20
30.0966603931
 10
291.1136134139
 20
30.0956863746
  0
ARC
  5
195
330
1F
100
AcDbEntity
  8
0
  6
Continuous
 62
   252
370
     0
100
AcDbCircle
 10
289.6051561441
 20
30.7394161869
 30
0.0
 40
0.4975669254063357
100
AcDbArc
 50
174.0136867103
 51
234.67404199
  0
ARC
  5
196
330
1F
100
AcDbEntity
  8
0
  6
Continuous
 62
   252
370
     0
100
AcDbCircle
 10
289.5760890205
 20
30.756196075
 30
0.0
 40
0.4975666659281873
100
AcDbArc
 50
174.0136776181
 51
234.6741419886
  0
ARC
  5
197
330
1F
100
AcDbEntity
  8
0
  6
Continuous
 62
   252
370
     0
100
AcDbCircle
 10
288.9192353629
 20
31.6677555103
 30
0.0
 40
0.6499546938110798
100
AcDbArc
 50
179.8494687384
 51
200.3202485131
  0
ARC
  5
198
330
1F
100
AcDbEntity
  8
0
  6
Continuous
 62
   252
370
     0
100
AcDbCircle
 10
288.6151783066
 20
32.4860616425
 30
0.0
 40
0.6499638519813171
100
AcDbArc
 50
179.8495446558
 51
200.3028426545
  0
ARC
  5
199
330
1F
100
AcDbEntity
  8
0
  6
Continuous
 62
   252
370
     0
100
AcDbCircle
 10
277.0294088814
 20
40.6791422962
 30
0.0
 40
0.6497150713039561
100
AcDbArc
 50
339.515537993
 51
0.1537008499
  0
LWPOLYLINE
  5
19A
330
1F
100
AcDbEntity
  8
0
  6
Continuous
 62
   252
370
     0
100
AcDbPolyline
 90
       29
 70
   128
 43
0.0
 10
275.3049632044
 20
39.7963771796
 10
275.3050909709
 20
39.7682241624
 10
275.3054741148
 20
39.7407931377
 10
275.3061121691
 20
39.7141175259
 10
275.3070043567
 20
39.6882298271
 10
275.3081495904
 20
39.6631615816
 10
275.309546475
 20
39.6389433311
 10
275.3111933086
 20
39.6156045818
 10
275.3130880847
 20
39.5931737685
 10
275.315228495
 20
39.5716782195
 10
275.3176119316
 20
39.551144124
 10
275.3202354906
 20
39.5315964995
 10
275.3230959757
 20
39.5130591618
 10
275.3261899019
 20
39.4955546958
 10
275.3295134996
 20
39.479104428
 10
275.3330627195
 20
39.4637284005
 10
275.3368332375
 20
39.4494453467
 10
275.3408204598
 20
39.4362726682
 10
275.3450195285
 20
39.4242264139
 10
275.3494253278
 20
39.4133212603
 10
275.3540324898
 20
39.4035704938
 10
275.3588354015
 20
39.394985994
 10
275.3638282112
 20
39.3875782198
 10
275.3690048359
 20
39.3813561966
 10
275.3743589688
 20
39.3763275048
 10
275.3798840866
 20
39.3724982712
 10
275.3855734579
 20
39.3698731612
 10
275.391420151
 20
39.3684553729
 10
275.3918065949
 20
39.3684049142
  0
LWPOLYLINE
  5
19B
330
1F
100
AcDbEntity
  8
0
  6
Continuous
 62
   252
370
     0
100
AcDbPolyline
 90
       29
 70
   128
 43
0.0
 10
273.8874632683
 20
39.9719108702
 10
273.8875910348
 20
39.943757853
 10
273.8879741787
 20
39.9163268282
 10
273.888612233
 20
39.8896512164
 10
273.8895044206
 20
39.8637635177
 10
273.8906496543
 20
39.8386952721
 10
273.8920465389
 20
39.8144770216
 10
273.8936933725
 20
39.7911382724
 10
273.8955881486
 20
39.768707459
 10
273.8977285589
 20
39.7472119101
 10
273.9001119955
 20
39.7266778145
 10
273.9027355545
 20
39.70713019
 10
273.9055960396
 20
39.6885928523
 10
273.9086899658
 20
39.6710883863
 10
273.9120135635
 20
39.6546381185
 10
273.9155627834
 20
39.6392620911
 10
273.9193333014
 20
39.6249790372
 10
273.9233205237
 20
39.6118063587
 10
273.9275195924
 20
39.5997601044
 10
273.9319253917
 20
39.5888549509
 10
273.9365325537
 20
39.5791041843
 10
273.9413354654
 20
39.5705196845
 10
273.9463282751
 20
39.5631119104
 10
273.9515048998
 20
39.5568898871
 10
273.9568590327
 20
39.5518611954
 10
273.9623841505
 20
39.5480319618
 10
273.9680735218
 20
39.5454068517
 10
273.9739202149
 20
39.5439890634
 10
273.9743062973
 20
39.5439386495
  0
ARC
  5
19C
330
1F
100
AcDbEntity
  8
0
  6
Continuous
 62
   252
370
     0
100
AcDbCircle
 10
272.8902095316
 20
40.3887495422
 30
0.0
 40
0.4975670110881692
100
AcDbArc
 50
174.0136897127
 51
234.6740089698
  0
ARC
  5
19D
330
1F
100
AcDbEntity
  8
0
  6
Continuous
 62
   252
370
     0
100
AcDbCircle
 10
272.8611423201
 20
40.4055294133
 30
0.0
 40
0.4975666659275383
100
AcDbArc
 50
174.0136776181
 51
234.6741419886
  0
ENDSEC
  0
SECTION
  2
OBJECTS
  0
DICTIONARY
  5
C
330
0
100
AcDbDictionary
281
     1
  3
ACAD_GROUP
350
D
  3
ACAD_LAYOUT
350
1A
  3
ACAD_MLINESTYLE
350
17
  3
ACAD_PLOTSETTINGS
350
19
  3
ACAD_PLOTSTYLENAME
350
E
  3
ACAD_SCALELIST
350
47
  0
DICTIONARY
  5
D
102
{ACAD_REACTORS
330
C
102
}
330
C
100
AcDbDictionary
281
     1
  0
DICTIONARY
  5
1A
102
{ACAD_REACTORS
330
C
102
}
330
C
100
AcDbDictionary
281
     1
  3
Layout1
350
1E
  3
Layout2
350
26
  3
Model
350
22
  0
DICTIONARY
  5
17
102
{ACAD_REACTORS
330
C
102
}
330
C
100
AcDbDictionary
281
     1
  3
Standard
350
18
  0
DICTIONARY
  5
19
102
{ACAD_REACTORS
330
C
102
}
330
C
100
AcDbDictionary
281
     1
  0
ACDBDICTIONARYWDFLT
  5
E
102
{ACAD_REACTORS
330
C
102
}
330
C
100
AcDbDictionary
281
     1
  3
Normal
350
F
100
AcDbDictionaryWithDefault
340
F
  0
DICTIONARY
  5
47
102
{ACAD_REACTORS
330
C
102
}
330
C
100
AcDbDictionary
281
     1
  3
A0
350
48
  3
A1
350
49
  3
A2
350
4A
  3
A3
350
4B
  3
A4
350
4C
  3
A5
350
4D
  3
A6
350
4E
  3
A7
350
4F
  3
A8
350
50
  3
A9
350
51
  3
B0
350
52
  3
B1
350
53
  3
B2
350
54
  3
B3
350
55
  3
B4
350
56
  3
B5
350
57
  3
B6
350
58
  3
B7
350
59
  3
B8
350
5A
  3
B9
350
5B
  3
C0
350
5C
  3
C1
350
5D
  3
C2
350
5E
  3
C3
350
5F
  3
C4
350
60
  3
C5
350
61
  3
C6
350
62
  3
C7
350
63
  3
C8
350
64
  3
C9
350
65
  3
D0
350
66
  3
D1
350
67
  3
D2
350
68
  0
LAYOUT
  5
1E
102
{ACAD_REACTORS
330
1A
102
}
330
1A
100
AcDbPlotSettings
  1

  2
none_device
  4

  6

 40
0.0
 41
0.0
 42
0.0
 43
0.0
 44
0.0
 45
0.0
 46
0.0
 47
0.0
 48
0.0
 49
0.0
140
0.0
141
0.0
142
1.0
143
1.0
 70
   688
 72
     1
 73
     0
 74
     5
  7

 75
    16
147
1.0
148
0.0
149
0.0
100
AcDbLayout
  1
Layout1
 70
     1
 71
     1
 10
0.0
 20
0.0
 11
420.0
 21
297.0
 12
0.0
 22
0.0
 32
0.0
 14
1.0000000000E+20
 24
1.0000000000E+20
 34
1.0000000000E+20
 15
-1.0000000000E+20
 25
-1.0000000000E+20
 35
-1.0000000000E+20
146
0.0
 13
0.0
 23
0.0
 33
0.0
 16
1.0
 26
0.0
 36
0.0
 17
0.0
 27
1.0
 37
0.0
 76
     0
330
1B
  0
LAYOUT
  5
26
102
{ACAD_REACTORS
330
1A
102
}
330
1A
100
AcDbPlotSettings
  1

  2
none_device
  4

  6

 40
0.0
 41
0.0
 42
0.0
 43
0.0
 44
0.0
 45
0.0
 46
0.0
 47
0.0
 48
0.0
 49
0.0
140
0.0
141
0.0
142
1.0
143
1.0
 70
   688
 72
     1
 73
     0
 74
     5
  7

 75
    16
147
1.0
148
0.0
149
0.0
100
AcDbLayout
  1
Layout2
 70
     1
 71
     2
 10
0.0
 20
0.0
 11
0.0
 21
0.0
 12
0.0
 22
0.0
 32
0.0
 14
0.0
 24
0.0
 34
0.0
 15
0.0
 25
0.0
 35
0.0
146
0.0
 13
0.0
 23
0.0
 33
0.0
 16
1.0
 26
0.0
 36
0.0
 17
0.0
 27
1.0
 37
0.0
 76
     0
330
23
  0
LAYOUT
  5
22
102
{ACAD_REACTORS
330
1A
102
}
330
1A
100
AcDbPlotSettings
  1

  2
none_device
  4
Letter_(8.50_x_11.00_Inches)
  6

 40
6.35
 41
6.35
 42
6.35000508
 43
6.35000508
 44
215.9
 45
279.4
 46
0.0
 47
0.0
 48
0.0
 49
0.0
140
0.0
141
0.0
142
1.0
143
1.0
 70
  1712
 72
     1
 73
     0
 74
     0
  7

 75
     0
147
1.0
148
0.0
149
0.0
100
AcDbLayout
  1
Model
 70
     1
 71
     0
 10
0.0
 20
0.0
 11
355.0
 21
224.0
 12
0.0
 22
0.0
 32
0.0
 14
0.0
 24
0.0
 34
0.0
 15
355.0
 25
224.0
 35
0.0
146
0.0
 13
0.0
 23
0.0
 33
0.0
 16
1.0
 26
0.0
 36
0.0
 17
0.0
 27
1.0
 37
0.0
 76
     0
330
1F
331
29
  0
MLINESTYLE
  5
18
102
{ACAD_REACTORS
330
17
102
}
330
17
100
AcDbMlineStyle
  2
Standard
 70
     0
  3

 62
   256
 51
90.0
 52
90.0
 71
     2
 49
0.5
 62
   256
  6
BYLAYER
 49
-0.5
 62
   256
  6
BYLAYER
  0
ACDBPLACEHOLDER
  5
F
102
{ACAD_REACTORS
330
E
102
}
330
E
  0
SCALE
  5
48
102
{ACAD_REACTORS
330
47
102
}
330
47
100
AcDbScale
 70
     0
300
1:1
140
1.0
141
1.0
290
     1
  0
SCALE
  5
49
102
{ACAD_REACTORS
330
47
102
}
330
47
100
AcDbScale
 70
     0
300
1:2
140
1.0
141
2.0
290
     0
  0
SCALE
  5
4A
102
{ACAD_REACTORS
330
47
102
}
330
47
100
AcDbScale
 70
     0
300
1:4
140
1.0
141
4.0
290
     0
  0
SCALE
  5
4B
102
{ACAD_REACTORS
330
47
102
}
330
47
100
AcDbScale
 70
     0
300
1:5
140
1.0
141
5.0
290
     0
  0
SCALE
  5
4C
102
{ACAD_REACTORS
330
47
102
}
330
47
100
AcDbScale
 70
     0
300
1:8
140
1.0
141
8.0
290
     0
  0
SCALE
  5
4D
102
{ACAD_REACTORS
330
47
102
}
330
47
100
AcDbScale
 70
     0
300
1:10
140
1.0
141
10.0
290
     0
  0
SCALE
  5
4E
102
{ACAD_REACTORS
330
47
102
}
330
47
100
AcDbScale
 70
     0
300
1:16
140
1.0
141
16.0
290
     0
  0
SCALE
  5
4F
102
{ACAD_REACTORS
330
47
102
}
330
47
100
AcDbScale
 70
     0
300
1:20
140
1.0
141
20.0
290
     0
  0
SCALE
  5
50
102
{ACAD_REACTORS
330
47
102
}
330
47
100
AcDbScale
 70
     0
300
1:30
140
1.0
141
30.0
290
     0
  0
SCALE
  5
51
102
{ACAD_REACTORS
330
47
102
}
330
47
100
AcDbScale
 70
     0
300
1:40
140
1.0
141
40.0
290
     0
  0
SCALE
  5
52
102
{ACAD_REACTORS
330
47
102
}
330
47
100
AcDbScale
 70
     0
300
1:50
140
1.0
141
50.0
290
     0
  0
SCALE
  5
53
102
{ACAD_REACTORS
330
47
102
}
330
47
100
AcDbScale
 70
     0
300
1:100
140
1.0
141
100.0
290
     0
  0
SCALE
  5
54
102
{ACAD_REACTORS
330
47
102
}
330
47
100
AcDbScale
 70
     0
300
2:1
140
2.0
141
1.0
290
     0
  0
SCALE
  5
55
102
{ACAD_REACTORS
330
47
102
}
330
47
100
AcDbScale
 70
     0
300
4:1
140
4.0
141
1.0
290
     0
  0
SCALE
  5
56
102
{ACAD_REACTORS
330
47
102
}
330
47
100
AcDbScale
 70
     0
300
8:1
140
8.0
141
1.0
290
     0
  0
SCALE
  5
57
102
{ACAD_REACTORS
330
47
102
}
330
47
100
AcDbScale
 70
     0
300
10:1
140
10.0
141
1.0
290
     0
  0
SCALE
  5
58
102
{ACAD_REACTORS
330
47
102
}
330
47
100
AcDbScale
 70
     0
300
100:1
140
100.0
141
1.0
290
     0
  0
SCALE
  5
59
102
{ACAD_REACTORS
330
47
102
}
330
47
100
AcDbScale
 70
     0
300
1/128" = 1'-0"
140
0.0078125
141
12.0
290
     0
  0
SCALE
  5
5A
102
{ACAD_REACTORS
330
47
102
}
330
47
100
AcDbScale
 70
     0
300
1/64" = 1'-0"
140
0.015625
141
12.0
290
     0
  0
SCALE
  5
5B
102
{ACAD_REACTORS
330
47
102
}
330
47
100
AcDbScale
 70
     0
300
1/32" = 1'-0"
140
0.03125
141
12.0
290
     0
  0
SCALE
  5
5C
102
{ACAD_REACTORS
330
47
102
}
330
47
100
AcDbScale
 70
     0
300
1/16" = 1'-0"
140
0.0625
141
12.0
290
     0
  0
SCALE
  5
5D
102
{ACAD_REACTORS
330
47
102
}
330
47
100
AcDbScale
 70
     0
300
3/32" = 1'-0"
140
0.09375
141
12.0
290
     0
  0
SCALE
  5
5E
102
{ACAD_REACTORS
330
47
102
}
330
47
100
AcDbScale
 70
     0
300
1/8" = 1'-0"
140
0.125
141
12.0
290
     0
  0
SCALE
  5
5F
102
{ACAD_REACTORS
330
47
102
}
330
47
100
AcDbScale
 70
     0
300
3/16" = 1'-0"
140
0.1875
141
12.0
290
     0
  0
SCALE
  5
60
102
{ACAD_REACTORS
330
47
102
}
330
47
100
AcDbScale
 70
     0
300
1/4" = 1'-0"
140
0.25
141
12.0
290
     0
  0
SCALE
  5
61
102
{ACAD_REACTORS
330
47
102
}
330
47
100
AcDbScale
 70
     0
300
3/8" = 1'-0"
140
0.375
141
12.0
290
     0
  0
SCALE
  5
62
102
{ACAD_REACTORS
330
47
102
}
330
47
100
AcDbScale
 70
     0
300
1/2" = 1'-0"
140
0.5
141
12.0
290
     0
  0
SCALE
  5
63
102
{ACAD_REACTORS
330
47
102
}
330
47
100
AcDbScale
 70
     0
300
3/4" = 1'-0"
140
0.75
141
12.0
290
     0
  0
SCALE
  5
64
102
{ACAD_REACTORS
330
47
102
}
330
47
100
AcDbScale
 70
     0
300
1" = 1'-0"
140
1.0
141
12.0
290
     0
  0
SCALE
  5
65
102
{ACAD_REACTORS
330
47
102
}
330
47
100
AcDbScale
 70
     0
300
1-1/2" = 1'-0"
140
1.5
141
12.0
290
     0
  0
SCALE
  5
66
102
{ACAD_REACTORS
330
47
102
}
330
47
100
AcDbScale
 70
     0
300
3" = 1'-0"
140
3.0
141
12.0
290
     0
  0
SCALE
  5
67
102
{ACAD_REACTORS
330
47
102
}
330
47
100
AcDbScale
 70
     0
300
6" = 1'-0"
140
6.0
141
12.0
290
     0
  0
SCALE
  5
68
102
{ACAD_REACTORS
330
47
102
}
330
47
100
AcDbScale
 70
     0
300
1'-0" = 1'-0"
140
12.0
141
12.0
290
     0
  0
ENDSEC
  0
EOF
