  0
SECTION
  2
HEADER
  9
$ACADVER
  1
AC1015
  9
$ACADMAINTVER
 70
     6
  9
$DWGCODEPAGE
  3
ANSI_1252
  9
$INSBASE
 10
0.0
 20
0.0
 30
0.0
  9
$EXTMIN
 10
0.0
 20
0.0
 30
0.0
  9
$EXTMAX
 10
576.0
 20
509.0
 30
0.0
  9
$LIMMIN
 10
0.0
 20
0.0
  9
$LIMMAX
 10
576.0
 20
509.0
  9
$ORTHOMODE
 70
     0
  9
$REGENMODE
 70
     1
  9
$FILLMODE
 70
     1
  9
$QTEXTMODE
 70
     0
  9
$MIRRTEXT
 70
     1
  9
$LTSCALE
 40
1.0
  9
$ATTMODE
 70
     1
  9
$TEXTSIZE
 40
3.5
  9
$TRACEWID
 40
1.0
  9
$TEXTSTYLE
  7
Standard
  9
$CLAYER
  8
0
  9
$CELTYPE
  6
ByLayer
  9
$CECOLOR
 62
   256
  9
$CELTSCALE
 40
1.0
  9
$DISPSILH
 70
     0
  9
$DIMSCALE
 40
1.0
  9
$DIMASZ
 40
3.302
  9
$DIMEXO
 40
1.0
  9
$DIMDLI
 40
3.75
  9
$DIMRND
 40
0.0
  9
$DIMDLE
 40
0.0
  9
$DIMEXE
 40
1.0
  9
$DIMTP
 40
0.0
  9
$DIMTM
 40
0.0
  9
$DIMTXT
 40
2.8
  9
$DIMCEN
 40
2.5
  9
$DIMTSZ
 40
0.0
  9
$DIMTOL
 70
     0
  9
$DIMLIM
 70
     0
  9
$DIMTIH
 70
     1
  9
$DIMTOH
 70
     1
  9
$DIMSE1
 70
     0
  9
$DIMSE2
 70
     0
  9
$DIMTAD
 70
     1
  9
$DIMZIN
 70
     0
  9
$DIMBLK
  1

  9
$DIMASO
 70
     1
  9
$DIMSHO
 70
     1
  9
$DIMPOST
  1

  9
$DIMAPOST
  1

  9
$DIMALT
 70
     0
  9
$DIMALTD
 70
     3
  9
$DIMALTF
 40
0.0393700787
  9
$DIMLFAC
 40
1.0
  9
$DIMTOFL
 70
     1
  9
$DIMTVP
 40
0.0
  9
$DIMTIX
 70
     0
  9
$DIMSOXD
 70
     0
  9
$DIMSAH
 70
     0
  9
$DIMBLK1
  1

  9
$DIMBLK2
  1

  9
$DIMSTYLE
  2
ISO-25
  9
$DIMCLRD
 70
     0
  9
$DIMCLRE
 70
     0
  9
$DIMCLRT
 70
     0
  9
$DIMTFAC
 40
1.0
  9
$DIMGAP
 40
1.524
  9
$DIMJUST
 70
     0
  9
$DIMSD1
 70
     0
  9
$DIMSD2
 70
     0
  9
$DIMTOLJ
 70
     0
  9
$DIMTZIN
 70
     0
  9
$DIMALTZ
 70
     0
  9
$DIMALTTZ
 70
     0
  9
$DIMUPT
 70
     0
  9
$DIMDEC
 70
     2
  9
$DIMTDEC
 70
     2
  9
$DIMALTU
 70
     2
  9
$DIMALTTD
 70
     3
  9
$DIMTXSTY
  7
Standard
  9
$DIMAUNIT
 70
     0
  9
$DIMADEC
 70
     2
  9
$DIMALTRND
 40
0.0
  9
$DIMAZIN
 70
     0
  9
$DIMDSEP
 70
    44
  9
$DIMATFIT
 70
     3
  9
$DIMFRAC
 70
     0
  9
$DIMLDRBLK
  1

  9
$DIMLUNIT
 70
     2
  9
$DIMLWD
 70
    -2
  9
$DIMLWE
 70
    -2
  9
$DIMTMOVE
 70
     0
  9
$LUNITS
 70
     2
  9
$LUPREC
 70
     2
  9
$SKETCHINC
 40
1.0
  9
$FILLETRAD
 40
10.0
  9
$AUNITS
 70
     0
  9
$AUPREC
 70
     2
  9
$MENU
  1
.
  9
$ELEVATION
 40
0.0
  9
$PELEVATION
 40
0.0
  9
$THICKNESS
 40
0.0
  9
$LIMCHECK
 70
     0
  9
$CHAMFERA
 40
0.0
  9
$CHAMFERB
 40
0.0
  9
$CHAMFERC
 40
0.0
  9
$CHAMFERD
 40
0.0
  9
$SKPOLY
 70
     0
  9
$TDCREATE
 40
2457619.696323137
  9
$TDUCREATE
 40
2457619.571323137
  9
$TDUPDATE
 40
2457619.696323889
  9
$TDUUPDATE
 40
2457619.571323889
  9
$TDINDWG
 40
0.0000000116
  9
$TDUSRTIMER
 40
0.0000000116
  9
$USRTIMER
 70
     1
  9
$ANGBASE
 50
0.0
  9
$ANGDIR
 70
     0
  9
$PDMODE
 70
     0
  9
$PDSIZE
 40
-1.0
  9
$PLINEWID
 40
0.0
  9
$SPLFRAME
 70
     0
  9
$SPLINETYPE
 70
     6
  9
$SPLINESEGS
 70
     8
  9
$HANDSEED
  5
145
  9
$SURFTAB1
 70
     6
  9
$SURFTAB2
 70
     6
  9
$SURFTYPE
 70
     6
  9
$SURFU
 70
     6
  9
$SURFV
 70
     6
  9
$UCSBASE
  2

  9
$UCSNAME
  2

  9
$UCSORG
 10
0.0
 20
0.0
 30
0.0
  9
$UCSXDIR
 10
1.0
 20
0.0
 30
0.0
  9
$UCSYDIR
 10
0.0
 20
1.0
 30
0.0
  9
$UCSORTHOREF
  2

  9
$UCSORTHOVIEW
 70
     0
  9
$UCSORGTOP
 10
0.0
 20
0.0
 30
0.0
  9
$UCSORGBOTTOM
 10
0.0
 20
0.0
 30
0.0
  9
$UCSORGLEFT
 10
0.0
 20
0.0
 30
0.0
  9
$UCSORGRIGHT
 10
0.0
 20
0.0
 30
0.0
  9
$UCSORGFRONT
 10
0.0
 20
0.0
 30
0.0
  9
$UCSORGBACK
 10
0.0
 20
0.0
 30
0.0
  9
$PUCSBASE
  2

  9
$PUCSNAME
  2

  9
$PUCSORG
 10
0.0
 20
0.0
 30
0.0
  9
$PUCSXDIR
 10
1.0
 20
0.0
 30
0.0
  9
$PUCSYDIR
 10
0.0
 20
1.0
 30
0.0
  9
$PUCSORTHOREF
  2

  9
$PUCSORTHOVIEW
 70
     0
  9
$PUCSORGTOP
 10
0.0
 20
0.0
 30
0.0
  9
$PUCSORGBOTTOM
 10
0.0
 20
0.0
 30
0.0
  9
$PUCSORGLEFT
 10
0.0
 20
0.0
 30
0.0
  9
$PUCSORGRIGHT
 10
0.0
 20
0.0
 30
0.0
  9
$PUCSORGFRONT
 10
0.0
 20
0.0
 30
0.0
  9
$PUCSORGBACK
 10
0.0
 20
0.0
 30
0.0
  9
$USERI1
 70
     0
  9
$USERI2
 70
     0
  9
$USERI3
 70
     0
  9
$USERI4
 70
     0
  9
$USERI5
 70
     0
  9
$USERR1
 40
0.0
  9
$USERR2
 40
0.0
  9
$USERR3
 40
0.0
  9
$USERR4
 40
0.0
  9
$USERR5
 40
0.0
  9
$WORLDVIEW
 70
     1
  9
$SHADEDGE
 70
     3
  9
$SHADEDIF
 70
    70
  9
$TILEMODE
 70
     1
  9
$MAXACTVP
 70
    64
  9
$PINSBASE
 10
0.0
 20
0.0
 30
0.0
  9
$PLIMCHECK
 70
     0
  9
$PEXTMIN
 10
1.0000000000E+20
 20
1.0000000000E+20
 30
1.0000000000E+20
  9
$PEXTMAX
 10
-1.0000000000E+20
 20
-1.0000000000E+20
 30
-1.0000000000E+20
  9
$PLIMMIN
 10
0.0
 20
0.0
  9
$PLIMMAX
 10
420.0
 20
297.0
  9
$UNITMODE
 70
     0
  9
$VISRETAIN
 70
     1
  9
$PLINEGEN
 70
     0
  9
$PSLTSCALE
 70
     1
  9
$TREEDEPTH
 70
  3020
  9
$CMLSTYLE
  2
Standard
  9
$CMLJUST
 70
     0
  9
$CMLSCALE
 40
20.0
  9
$PROXYGRAPHICS
 70
     1
  9
$MEASUREMENT
 70
     1
  9
$CELWEIGHT
370
    -1
  9
$ENDCAPS
280
     0
  9
$JOINSTYLE
280
     0
  9
$LWDISPLAY
290
     1
  9
$INSUNITS
 70
     4
  9
$HYPERLINKBASE
  1

  9
$STYLESHEET
  1

  9
$XEDIT
290
     1
  9
$CEPSNTYPE
380
     0
  9
$PSTYLEMODE
290
     1
  9
$FINGERPRINTGUID
  2
{C3669998-DE7E-4A14-BB48-CC2CDF7776E3}
  9
$VERSIONGUID
  2
{FAEB1C32-E019-11D5-929B-00C0DF256EC4}
  9
$EXTNAMES
290
     1
  9
$PSVPSCALE
 40
0.0
  9
$OLESTARTUP
290
     0
  0
ENDSEC
  0
SECTION
  2
CLASSES
  0
CLASS
  1
ACDBDICTIONARYWDFLT
  2
AcDbDictionaryWithDefault
  3
ObjectDBX Classes
 90
        0
280
     0
281
     0
  0
CLASS
  1
VISUALSTYLE
  2
AcDbVisualStyle
  3
ObjectDBX Classes
 90
     4095
280
     0
281
     0
  0
CLASS
  1
MATERIAL
  2
AcDbMaterial
  3
ObjectDBX Classes
 90
     1153
280
     0
281
     0
  0
CLASS
  1
SCALE
  2
AcDbScale
  3
ObjectDBX Classes
 90
     1153
280
     0
281
     0
  0
CLASS
  1
TABLESTYLE
  2
AcDbTableStyle
  3
ObjectDBX Classes
 90
     4095
280
     0
281
     0
  0
CLASS
  1
MLEADERSTYLE
  2
AcDbMLeaderStyle
  3
ACDB_MLEADERSTYLE_CLASS
 90
     4095
280
     0
281
     0
  0
CLASS
  1
SUN
  2
AcDbSun
  3
SCENEOE
 90
     1153
280
     0
281
     0
  0
CLASS
  1
ACDBPLACEHOLDER
  2
AcDbPlaceHolder
  3
ObjectDBX Classes
 90
        0
280
     0
281
     0
  0
CLASS
  1
LAYOUT
  2
AcDbLayout
  3
ObjectDBX Classes
 90
        0
280
     0
281
     0
  0
ENDSEC
  0
SECTION
  2
TABLES
  0
TABLE
  2
VPORT
  5
8
330
0
100
AcDbSymbolTable
 70
     1
  0
VPORT
  5
29
330
8
100
AcDbSymbolTableRecord
100
AcDbViewportTableRecord
  2
*Active
 70
     0
 10
0.0
 20
0.0
 11
1.0
 21
1.0
 12
288.0
 22
254.5
 13
0.0
 23
0.0
 14
10.0
 24
10.0
 15
10.0
 25
10.0
 16
0.0
 26
0.0
 36
1.0
 17
0.0
 27
0.0
 37
0.0
 40
509.0
 41
1.1316306483
 42
50.0
 43
0.0
 44
0.0
 50
0.0
 51
0.0
 71
     0
 72
  2000
 73
     1
 74
     3
 75
     0
 76
     0
 77
     0
 78
     0
281
     0
 65
     1
110
0.0
120
0.0
130
0.0
111
1.0
121
0.0
131
0.0
112
0.0
122
1.0
132
0.0
 79
     0
146
0.0
  0
ENDTAB
  0
TABLE
  2
LTYPE
  5
5
330
0
100
AcDbSymbolTable
 70
     6
  0
LTYPE
  5
14
330
5
100
AcDbSymbolTableRecord
100
AcDbLinetypeTableRecord
  2
ByBlock
 70
     0
  3

 72
    65
 73
     0
 40
0.0
  0
LTYPE
  5
15
330
5
100
AcDbSymbolTableRecord
100
AcDbLinetypeTableRecord
  2
ByLayer
 70
     0
  3

 72
    65
 73
     0
 40
0.0
  0
LTYPE
  5
16
330
5
100
AcDbSymbolTableRecord
100
AcDbLinetypeTableRecord
  2
Continuous
 70
     0
  3
Solid line
 72
    65
 73
     0
 40
0.0
  0
LTYPE
  5
6E
330
5
100
AcDbSymbolTableRecord
100
AcDbLinetypeTableRecord
  2
HIDDEN
 70
     0
  3
Hidden __ __ __ __ __ __ __ __ __ __ __ __ __ __
 72
    65
 73
     2
 40
1.905
 49
1.27
 74
     0
 49
-0.635
 74
     0
  0
LTYPE
  5
6F
330
5
100
AcDbSymbolTableRecord
100
AcDbLinetypeTableRecord
  2
PHANTOM
 70
     0
  3
Phantom ______  __  __  ______  __  __  ______
 72
    65
 73
     6
 40
12.7
 49
6.35
 74
     0
 49
-1.27
 74
     0
 49
1.27
 74
     0
 49
-1.27
 74
     0
 49
1.27
 74
     0
 49
-1.27
 74
     0
  0
LTYPE
  5
70
330
5
100
AcDbSymbolTableRecord
100
AcDbLinetypeTableRecord
  2
CENTER
 70
     0
  3
Center ____ _ ____ _ ____ _ ____ _ ____ _ ____
 72
    65
 73
     4
 40
10.16
 49
6.35
 74
     0
 49
-1.27
 74
     0
 49
1.27
 74
     0
 49
-1.27
 74
     0
  0
LTYPE
  5
71
330
5
100
AcDbSymbolTableRecord
100
AcDbLinetypeTableRecord
  2
CENTERX2
 70
     0
  3
Center (2x) ________  __  ________  __  _____
 72
    65
 73
     4
 40
20.32
 49
12.7
 74
     0
 49
-2.54
 74
     0
 49
2.54
 74
     0
 49
-2.54
 74
     0
  0
LTYPE
  5
72
330
5
100
AcDbSymbolTableRecord
100
AcDbLinetypeTableRecord
  2
DOT2
 70
     0
  3
Dot (.5x) ........................................
 72
    65
 73
     2
 40
0.635
 49
0.0
 74
     0
 49
-0.635
 74
     0
  0
ENDTAB
  0
TABLE
  2
LAYER
  5
2
330
0
100
AcDbSymbolTable
 70
     2
  0
LAYER
  5
10
330
2
100
AcDbSymbolTableRecord
100
AcDbLayerTableRecord
  2
0
 70
     0
 62
     7
  6
Continuous
370
    -3
390
F
  0
LAYER
  5
73
330
2
100
AcDbSymbolTableRecord
100
AcDbLayerTableRecord
  2
FORMAT
 70
     0
 62
     7
  6
Continuous
370
    -3
390
F
  0
ENDTAB
  0
TABLE
  2
STYLE
  5
3
330
0
100
AcDbSymbolTable
 70
     2
  0
STYLE
  5
11
330
3
100
AcDbSymbolTableRecord
100
AcDbTextStyleTableRecord
  2
Standard
 70
     0
 40
0.0
 41
1.0
 50
0.0
 71
     0
 42
3.5
  3
txt
  4

  0
STYLE
  5
74
330
3
100
AcDbSymbolTableRecord
100
AcDbTextStyleTableRecord
  2
SLDTEXTSTYLE0
 70
     0
 40
0.0
 41
0.605
 50
0.0
 71
     0
 42
3.5
  3
TXT
  4

  0
ENDTAB
  0
TABLE
  2
VIEW
  5
6
330
0
100
AcDbSymbolTable
 70
     0
  0
ENDTAB
  0
TABLE
  2
UCS
  5
7
330
0
100
AcDbSymbolTable
 70
     0
  0
ENDTAB
  0
TABLE
  2
APPID
  5
9
330
0
100
AcDbSymbolTable
 70
     1
  0
APPID
  5
12
330
9
100
AcDbSymbolTableRecord
100
AcDbRegAppTableRecord
  2
ACAD
 70
     0
  0
ENDTAB
  0
TABLE
  2
DIMSTYLE
  5
A
330
0
100
AcDbSymbolTable
 70
     1
100
AcDbDimStyleTable
  0
DIMSTYLE
105
27
330
A
100
AcDbSymbolTableRecord
100
AcDbDimStyleTableRecord
  2
ISO-25
 70
     0
 41
2.5
 42
0.625
 43
3.75
 44
1.25
 73
     0
 74
     0
 77
     1
 78
     8
140
2.5
141
2.5
143
0.0393700787
147
0.625
171
     3
172
     1
178
     0
271
     2
272
     2
274
     3
278
    44
283
     0
284
     8
340
11
  0
ENDTAB
  0
TABLE
  2
BLOCK_RECORD
  5
1
330
0
100
AcDbSymbolTable
 70
     1
  0
BLOCK_RECORD
  5
1F
330
1
100
AcDbSymbolTableRecord
100
AcDbBlockTableRecord
  2
*Model_Space
340
22
  0
BLOCK_RECORD
  5
1B
330
1
100
AcDbSymbolTableRecord
100
AcDbBlockTableRecord
  2
*Paper_Space
340
1E
  0
BLOCK_RECORD
  5
23
330
1
100
AcDbSymbolTableRecord
100
AcDbBlockTableRecord
  2
*Paper_Space0
340
26
  0
ENDTAB
  0
ENDSEC
  0
SECTION
  2
BLOCKS
  0
BLOCK
  5
20
330
1F
100
AcDbEntity
  8
0
100
AcDbBlockBegin
  2
*Model_Space
 70
     0
 10
0.0
 20
0.0
 30
0.0
  3
*Model_Space
  1

  0
ENDBLK
  5
21
330
1F
100
AcDbEntity
  8
0
100
AcDbBlockEnd
  0
BLOCK
  5
1C
330
1B
100
AcDbEntity
 67
     1
  8
0
100
AcDbBlockBegin
  2
*Paper_Space
 70
     0
 10
0.0
 20
0.0
 30
0.0
  3
*Paper_Space
  1

  0
ENDBLK
  5
1D
330
1B
100
AcDbEntity
 67
     1
  8
0
100
AcDbBlockEnd
  0
BLOCK
  5
24
330
23
100
AcDbEntity
  8
0
100
AcDbBlockBegin
  2
*Paper_Space0
 70
     0
 10
0.0
 20
0.0
 30
0.0
  3
*Paper_Space0
  1

  0
ENDBLK
  5
25
330
23
100
AcDbEntity
  8
0
100
AcDbBlockEnd
  0
ENDSEC
  0
SECTION
  2
ENTITIES
  0
MTEXT
  5
75
330
1F
100
AcDbEntity
  8
0
  6
Continuous
 62
     7
370
     0
100
AcDbMText
 10
7.2782978723
 20
22.1884790273
 30
0.0
 40
10.0
 41
0.0
 71
     1
 72
     1
  1
1:1
  7
SLDTEXTSTYLE0
 73
     1
 44
1.0
  0
LINE
  5
76
330
1F
100
AcDbEntity
  8
0
  6
Continuous
 62
     7
370
    30
100
AcDbLine
 10
292.9419979879
 20
368.4349871993
 30
0.0
 11
292.9745712969
 21
372.5956722404
 31
0.0
  0
SPLINE
  5
77
330
1F
100
AcDbEntity
  8
0
  6
Continuous
 62
     7
370
    30
100
AcDbSpline
210
0.0
220
0.0
230
1.0
 70
     8
 71
     3
 72
    26
 73
    22
 74
     0
 42
0.000000001
 43
0.00000001
 40
0.0
 40
0.0
 40
0.0
 40
0.0
 40
0.0087909538025558
 40
0.0728702002706198
 40
0.126107550644617
 40
0.1684007121808361
 40
0.2030689247258992
 40
0.2379867381813779
 40
0.3457886843994511
 40
0.4547314973336871
 40
0.5273716493235134
 40
0.599785929903722
 40
0.667835757103375
 40
0.6918215439113782
 40
0.7159108742483817
 40
0.7461449527830495
 40
0.7835020750102348
 40
0.8278150019790653
 40
0.8788644018828874
 40
0.9363729992478056
 40
1.0
 40
1.0
 40
1.0
 40
1.0
 10
283.0665048297913
 20
368.4185630349917
 30
0.0
 10
283.0675800531644
 20
368.4164308245603
 30
0.0
 10
283.076492822392
 20
368.3987564510351
 30
0.0
 10
283.0940826374002
 20
368.3692879891557
 30
0.0
 10
283.1173690687201
 20
368.3326750723
 30
0.0
 10
283.1376679613556
 20
368.3036393848651
 30
0.0
 10
283.1558539466971
 20
368.2792330718967
 30
0.0
 10
283.1857833303281
 20
368.2413779161745
 30
0.0
 10
283.2313519281627
 20
368.1901613754361
 30
0.0
 10
283.2887435971469
 20
368.1361286276148
 30
0.0
 10
283.3424415048015
 20
368.0925922950879
 30
0.0
 10
283.3895749525753
 20
368.058788761354
 30
0.0
 10
283.4273795432249
 20
368.0348268927335
 30
0.0
 10
283.4546759254619
 20
368.0189273793767
 30
0.0
 10
283.4732912084566
 20
368.008567296605
 30
0.0
 10
283.4953401473583
 20
367.9969268510245
 30
0.0
 10
283.5226230703885
 20
367.9834714122077
 30
0.0
 10
283.5554808730934
 20
367.9685942095718
 30
0.0
 10
283.5939634382062
 20
367.9529788296683
 30
0.0
 10
283.6379919083631
 20
367.9371644163702
 30
0.0
 10
283.6695865674324
 20
367.9280204579611
 30
0.0
 10
283.6861817997804
 20
367.9232175539624
 30
0.0
  0
SPLINE
  5
78
330
1F
100
AcDbEntity
  8
0
  6
Continuous
 62
     7
370
    30
100
AcDbSpline
210
0.0
220
0.0
230
1.0
 70
     8
 71
     3
 72
    26
 73
    22
 74
     0
 42
0.000000001
 43
0.00000001
 40
0.0
 40
0.0
 40
0.0
 40
0.0
 40
0.0615098586184713
 40
0.1155547233240675
 40
0.1617549330762547
 40
0.1998122119894406
 40
0.2301412291282136
 40
0.259172554985388
 40
0.2886098344204363
 40
0.3942380519193219
 40
0.500588343002163
 40
0.5715231108818803
 40
0.6417406638396755
 40
0.7068707999715493
 40
0.7329830114228659
 40
0.7633930109831562
 40
0.8023595163701414
 40
0.8498602614101356
 40
0.9058376112605311
 40
0.9701810838356133
 40
1.0
 40
1.0
 40
1.0
 40
1.0
 10
292.3145718334629
 20
367.9231976890306
 30
0.0
 10
292.3309781504841
 20
367.9279515984153
 30
0.0
 10
292.361799671891
 20
367.9368824705712
 30
0.0
 10
292.4041022302379
 20
367.9520344891992
 30
0.0
 10
292.4397354031088
 20
367.9663614812724
 30
0.0
 10
292.4688137830771
 20
367.9792860171196
 30
0.0
 10
292.4932130270283
 20
367.9909683014595
 30
0.0
 10
292.5151831138804
 20
368.0021650361263
 30
0.0
 10
292.5552657230113
 20
368.0238374249504
 30
0.0
 10
292.612427063711
 20
368.0590366352127
 30
0.0
 10
292.6755071608468
 20
368.1060324098328
 30
0.0
 10
292.7274671529681
 20
368.151069090527
 30
0.0
 10
292.7684952612748
 20
368.1910856730102
 30
0.0
 10
292.7987920220486
 20
368.2241652406827
 30
0.0
 10
292.8206455582442
 20
368.2499258755466
 30
0.0
 10
292.8373206768974
 20
368.2705451486452
 30
0.0
 10
292.8569903886788
 20
368.2963660643815
 30
0.0
 10
292.8798407567464
 20
368.3286688675923
 30
0.0
 10
292.9049873530844
 20
368.3679107562806
 30
0.0
 10
292.9261086706999
 20
368.4039035957491
 30
0.0
 10
292.9377593282343
 20
368.4273158534356
 30
0.0
 10
292.9414488053698
 20
368.4347299405092
 30
0.0
  0
LINE
  5
79
330
1F
100
AcDbEntity
  8
0
  6
Continuous
 62
     7
370
    30
100
AcDbLine
 10
283.0334425746
 20
372.5940759196
 30
0.0
 11
283.0662823674
 21
368.4186668936
 31
0.0
  0
ARC
  5
7A
330
1F
100
AcDbEntity
  8
0
  6
Continuous
 62
     7
370
    30
100
AcDbCircle
 10
288.0000572656
 20
383.6824634365
 30
0.0
 40
16.3390624999857
100
AcDbArc
 50
254.6940124189
 51
285.3078364309
  0
ARC
  5
7B
330
1F
100
AcDbEntity
  8
0
  6
Continuous
 62
     7
370
    30
100
AcDbCircle
 10
288.0000000002
 20
397.0
 30
0.0
 40
24.99561769190002
100
AcDbArc
 50
281.47820085
 51
258.5407546204
  0
CIRCLE
  5
7C
330
1F
100
AcDbEntity
  8
0
  6
Continuous
 62
     7
370
    30
100
AcDbCircle
 10
288.0
 20
397.0
 30
0.0
 40
85.0001713375
  0
SPLINE
  5
7D
330
1F
100
AcDbEntity
  8
0
  6
Continuous
 62
     7
370
    30
100
AcDbSpline
210
0.0
220
0.0
230
1.0
 70
     8
 71
     3
 72
    75
 73
    71
 74
     0
 42
0.000000001
 43
0.00000001
 40
0.0
 40
0.0
 40
0.0
 40
0.0
 40
0.0144900726750919
 40
0.0378367553305726
 40
0.0611833372074751
 40
0.0845298437859974
 40
0.1078762997955532
 40
0.1222565201230892
 40
0.1366430613217913
 40
0.1599894797052185
 40
0.1833629885144331
 40
0.206819390591776
 40
0.2303041936532629
 40
0.2541194408272026
 40
0.2779664934206765
 40
0.2899385666310508
 40
0.3079108739034161
 40
0.3258984756668968
 40
0.3375728853971967
 40
0.3492604119643688
 40
0.3609526333415906
 40
0.3726733890691272
 40
0.3843992236837548
 40
0.3961530823015522
 40
0.4079124769293206
 40
0.4198164122935767
 40
0.4317266255361383
 40
0.4437692169908111
 40
0.4558327391809223
 40
0.4679034223673013
 40
0.4800543870477583
 40
0.4922128928757131
 40
0.5043944486358298
 40
0.516583863650269
 40
0.5297943248061862
 40
0.5430152061773361
 40
0.5546876522966234
 40
0.5663675418441949
 40
0.5780400183518364
 40
0.5897201859163239
 40
0.6013926955530031
 40
0.613073170372617
 40
0.6247457181101045
 40
0.6364265491017065
 40
0.6480991417465061
 40
0.6597803930524024
 40
0.6743772271034716
 40
0.6889919652761092
 40
0.7065628160339339
 40
0.7182355911566779
 40
0.7299185340350236
 40
0.741598101732695
 40
0.753306469711738
 40
0.7650256794123474
 40
0.7782886882724313
 40
0.7915680935732514
 40
0.8063855348527297
 40
0.8242444786216145
 40
0.8398060837341975
 40
0.8553962640497138
 40
0.8710712164882979
 40
0.8867737464606991
 40
0.9027839626635347
 40
0.9188215561649337
 40
0.934939635888903
 40
0.9510839064304192
 40
0.9632858600938138
 40
0.975498763784505
 40
0.9877440901242351
 40
1.0
 40
1.0
 40
1.0
 40
1.0
 10
292.9409622137502
 20
368.434995308383
 30
0.0
 10
292.9410280507689
 20
368.4352022998614
 30
0.0
 10
292.9411999656534
 20
368.4357427999748
 30
0.0
 10
292.9316007633876
 20
368.4357074903571
 30
0.0
 10
292.9134025621121
 20
368.4351652122473
 30
0.0
 10
292.886340850401
 20
368.4340486352409
 30
0.0
 10
292.8555175290913
 20
368.4326656348391
 30
0.0
 10
292.8242044235063
 20
368.4312050361498
 30
0.0
 10
292.789106890225
 20
368.4295231772888
 30
0.0
 10
292.7421476741894
 20
368.4273515066253
 30
0.0
 10
292.6800126724473
 20
368.4248908045551
 30
0.0
 10
292.6095342422408
 20
368.422740931874
 30
0.0
 10
292.5303233553988
 20
368.4211434689224
 30
0.0
 10
292.4422589238614
 20
368.4203181404281
 30
0.0
 10
292.3613018493286
 20
368.4204242462566
 30
0.0
 10
292.2834106239238
 20
368.4211227325289
 30
0.0
 10
292.2103565826929
 20
368.4222073914344
 30
0.0
 10
292.1333764551224
 20
368.4238467868667
 30
0.0
 10
292.0633943553414
 20
368.4256614996735
 30
0.0
 10
292.0019442222831
 20
368.4274501520157
 30
0.0
 10
291.9382738301425
 20
368.4294751093917
 30
0.0
 10
291.8723763291104
 20
368.4317130782446
 30
0.0
 10
291.8041851767536
 20
368.4341350166824
 30
0.0
 10
291.7337216262658
 20
368.4366999549879
 30
0.0
 10
291.6606760389267
 20
368.4393692223088
 30
0.0
 10
291.5850433263898
 20
368.4420805310976
 30
0.0
 10
291.5064983050744
 20
368.4447717901855
 30
0.0
 10
291.4252519552215
 20
368.447333473239
 30
0.0
 10
291.3412883418524
 20
368.449742338588
 30
0.0
 10
291.2547437144663
 20
368.4519945686354
 30
0.0
 10
291.1656631427379
 20
368.4540746151492
 30
0.0
 10
291.0740242091933
 20
368.4559626308446
 30
0.0
 10
290.9800361949108
 20
368.4576251589894
 30
0.0
 10
290.8810647335365
 20
368.4590646655908
 30
0.0
 10
290.7769652930125
 20
368.4601965350673
 30
0.0
 10
290.6718628909757
 20
368.4609222465288
 30
0.0
 10
290.5688730204367
 20
368.4612771695771
 30
0.0
 10
290.4683933978965
 20
368.4613271603489
 30
0.0
 10
290.3660899717515
 20
368.4611157521373
 30
0.0
 10
290.2620571915435
 20
368.4606805089318
 30
0.0
 10
290.1563021520564
 20
368.4600669414301
 30
0.0
 10
290.048926963649
 20
368.4593279205624
 30
0.0
 10
289.9399402831013
 20
368.4585216115611
 30
0.0
 10
289.8294527303303
 20
368.4577116329098
 30
0.0
 10
289.717474813352
 20
368.4569647356991
 30
0.0
 10
289.5946652902464
 20
368.4563001454109
 30
0.0
 10
289.4605878903361
 20
368.4558540672771
 30
0.0
 10
289.3051430489938
 20
368.4558418853121
 30
0.0
 10
289.1574462436175
 20
368.456506403319
 30
0.0
 10
289.0181649328316
 20
368.4578683224473
 30
0.0
 10
288.8980181747754
 20
368.4596086001936
 30
0.0
 10
288.7769349446888
 20
368.4620320485244
 30
0.0
 10
288.6550096736216
 20
368.4650599682745
 30
0.0
 10
288.5269382889368
 20
368.4685667223755
 30
0.0
 10
288.3927788837113
 20
368.4723549018534
 30
0.0
 10
288.2472250108032
 20
368.4762172332566
 30
0.0
 10
288.0850705085685
 20
368.479875524057
 30
0.0
 10
287.9146248147697
 20
368.4824712727548
 30
0.0
 10
287.7416175277785
 20
368.4835549320283
 30
0.0
 10
287.5767622805586
 20
368.4832675354004
 30
0.0
 10
287.4121517818095
 20
368.4817288957138
 30
0.0
 10
287.2471015407695
 20
368.4790730104281
 30
0.0
 10
287.0821089970913
 20
368.4755020992691
 30
0.0
 10
286.9172891333574
 20
368.471289853572
 30
0.0
 10
286.7538715519527
 20
368.4668362795103
 30
0.0
 10
286.6053612357658
 20
368.4629603577827
 30
0.0
 10
286.4715957694472
 20
368.4599854736006
 30
0.0
 10
286.3521412338211
 20
368.457786857047
 30
0.0
 10
286.2339084319407
 20
368.4559779654658
 30
0.0
 10
286.156382524916
 20
368.4550641702198
 30
0.0
 10
286.1176028273867
 20
368.4546070752357
 30
0.0
  0
SPLINE
  5
7E
330
1F
100
AcDbEntity
  8
0
  6
Continuous
 62
     7
370
    30
100
AcDbSpline
210
0.0
220
0.0
230
1.0
 70
     8
 71
     3
 72
    51
 73
    47
 74
     0
 42
0.000000001
 43
0.00000001
 40
0.0
 40
0.0
 40
0.0
 40
0.0
 40
0.0185391349450086
 40
0.0370920883118409
 40
0.0556856247055531
 40
0.074292272933376
 40
0.1021095058757132
 40
0.1299676301921421
 40
0.1485663989965498
 40
0.1671051679021838
 40
0.1856548723696487
 40
0.2042367961387374
 40
0.2228291857461235
 40
0.2413678229216784
 40
0.2599163701378672
 40
0.2784941759119794
 40
0.2970815071306124
 40
0.3156200353737175
 40
0.3341675906155637
 40
0.3527060499086673
 40
0.3712529763224494
 40
0.389791373716324
 40
0.408337767267437
 40
0.4268761142113088
 40
0.4454220728682021
 40
0.4639603787444851
 40
0.4825059847210045
 40
0.5010442581054391
 40
0.5195895882364041
 40
0.5457191135167819
 40
0.5718678652513352
 40
0.6089493927227605
 40
0.6460308631558676
 40
0.6831122072888974
 40
0.7201931645614684
 40
0.757322416058558
 40
0.7945919907434477
 40
0.8319063831247682
 40
0.8543680192114823
 40
0.8768389391842889
 40
0.8993374498891303
 40
0.9218450376607171
 40
0.9444531845349787
 40
0.9670703727750783
 40
0.9897146370694456
 40
1.0
 40
1.0
 40
1.0
 40
1.0
 10
286.1176029672884
 20
368.4546070775681
 30
0.0
 10
286.0809725751651
 20
368.4542243071832
 30
0.0
 10
286.0076844879074
 20
368.4534584811095
 30
0.0
 10
285.8996721236581
 20
368.4526235230573
 30
0.0
 10
285.7930776730921
 20
368.451984392869
 30
0.0
 10
285.6708042182513
 20
368.4514612588862
 30
0.0
 10
285.5340162760758
 20
368.4511152848563
 30
0.0
 10
285.400883963527
 20
368.4509707415485
 30
0.0
 10
285.2871252293475
 20
368.4509141105794
 30
0.0
 10
285.1915661666651
 20
368.4508794122535
 30
0.0
 10
285.0979729854309
 20
368.4508259457223
 30
0.0
 10
285.0062594282588
 20
368.4507231818847
 30
0.0
 10
284.9165627791471
 20
368.450543633398
 30
0.0
 10
284.8289400160313
 20
368.4502635449724
 30
0.0
 10
284.7433804721825
 20
368.4498643961496
 30
0.0
 10
284.6598118377403
 20
368.4493290894906
 30
0.0
 10
284.5783451838278
 20
368.4486891709642
 30
0.0
 10
284.4990252395122
 20
368.4479709191914
 30
0.0
 10
284.4218872913168
 20
368.4472008169288
 30
0.0
 10
284.3468497853518
 20
368.4464297311055
 30
0.0
 10
284.2739376200345
 20
368.4456938356569
 30
0.0
 10
284.2031294309194
 20
368.4450197930021
 30
0.0
 10
284.1344478065782
 20
368.4444246435632
 30
0.0
 10
284.0678749118468
 20
368.4439160999689
 30
0.0
 10
284.003432186951
 20
368.4434937313041
 30
0.0
 10
283.941105272219
 20
368.4431490049552
 30
0.0
 10
283.8809151172319
 20
368.4428663276492
 30
0.0
 10
283.8228506928174
 20
368.442623123173
 30
0.0
 10
283.759301703851
 20
368.4423592031183
 30
0.0
 10
283.6913913628214
 20
368.4420266544814
 30
0.0
 10
283.610593960388
 20
368.4414295922128
 30
0.0
 10
283.5265629944029
 20
368.4402847998343
 30
0.0
 10
283.4421377247419
 20
368.4383149680492
 30
0.0
 10
283.3665851063286
 20
368.4355455240895
 30
0.0
 10
283.2997388343667
 20
368.4323357250593
 30
0.0
 10
283.2413907186548
 20
368.4290200494549
 30
0.0
 10
283.1914418876625
 20
368.42586340613
 30
0.0
 10
283.1553705258558
 20
368.4234506587056
 30
0.0
 10
283.1297146648236
 20
368.4217227640134
 30
0.0
 10
283.1116908917431
 20
368.4205272283871
 30
0.0
 10
283.0966499546809
 20
368.4195729426619
 30
0.0
 10
283.0845837976117
 20
368.4188762524972
 30
0.0
 10
283.0754456004519
 20
368.4184441744659
 30
0.0
 10
283.0694585942098
 20
368.4183032362612
 30
0.0
 10
283.0664900534931
 20
368.4183682428267
 30
0.0
 10
283.0666236218031
 20
368.4185787940418
 30
0.0
 10
283.0666653410286
 20
368.4186445583958
 30
0.0
  0
LINE
  5
7F
330
1F
100
AcDbEntity
  8
0
  6
Continuous
 62
     7
370
    30
100
AcDbLine
 10
292.3137239713
 20
367.9232066844
 30
0.0
 11
292.3136182954
 21
367.9232075453
 31
0.0
  0
LINE
  5
80
330
1F
100
AcDbEntity
  8
0
  6
Continuous
 62
   252
370
     0
100
AcDbLine
 10
286.1175278629
 20
368.4606581688
 30
0.0
 11
286.104193963
 21
372.2151536567
 31
0.0
  0
SPLINE
  5
81
330
1F
100
AcDbEntity
  8
0
  6
Continuous
 62
   252
370
     0
100
AcDbSpline
210
0.0
220
0.0
230
1.0
 70
     8
 71
     3
 72
    21
 73
    17
 74
     0
 42
0.000000001
 43
0.00000001
 40
0.0
 40
0.0
 40
0.0
 40
0.0
 40
0.0717850340254729
 40
0.1558865528272074
 40
0.226086319370724
 40
0.2963974089225291
 40
0.3668243855923028
 40
0.4373323464171863
 40
0.5078697462724474
 40
0.5783922384899193
 40
0.648864177249263
 40
0.7192599617432236
 40
0.789565427968841
 40
0.8597792793184306
 40
0.9299145392520174
 40
1.0
 40
1.0
 40
1.0
 40
1.0
 10
292.3136182953649
 20
367.9232075453094
 30
0.0
 10
292.3128301687339
 20
367.923211782976
 30
0.0
 10
292.3111186930013
 20
367.9232209853847
 30
0.0
 10
292.2910898399007
 20
367.9234220634964
 30
0.0
 10
292.2601111111671
 20
367.9237440325616
 30
0.0
 10
292.2200978315654
 20
367.9241679140212
 30
0.0
 10
292.169539006228
 20
367.9247122647832
 30
0.0
 10
292.1082756730839
 20
367.9253734390297
 30
0.0
 10
292.0362606729479
 20
367.9261439260365
 30
0.0
 10
291.9534216156762
 20
367.9270171441823
 30
0.0
 10
291.8597001121286
 20
367.9279862177525
 30
0.0
 10
291.7550099825323
 20
367.9290444658875
 30
0.0
 10
291.639359093209
 20
367.9301847308679
 30
0.0
 10
291.5124043347533
 20
367.9314015698597
 30
0.0
 10
291.3751071400019
 20
367.9326831681144
 30
0.0
 10
291.2740648488225
 20
367.9335888129312
 30
0.0
 10
291.2235616457444
 20
367.9340414745204
 30
0.0
  0
SPLINE
  5
82
330
1F
100
AcDbEntity
  8
0
  6
Continuous
 62
   252
370
     0
100
AcDbSpline
210
0.0
220
0.0
230
1.0
 70
     8
 71
     3
 72
    25
 73
    21
 74
     0
 42
0.000000001
 43
0.00000001
 40
0.0
 40
0.0
 40
0.0
 40
0.0
 40
0.0615848285583507
 40
0.1232100789888612
 40
0.1849312239278714
 40
0.2468161760467512
 40
0.3089457005418906
 40
0.3713867695758816
 40
0.4340687346476398
 40
0.4968849765755879
 40
0.5471789400547065
 40
0.5974715843354884
 40
0.6477426925290591
 40
0.6979856097622407
 40
0.7482088622133286
 40
0.798437775416737
 40
0.8487147133010438
 40
0.8990693992189382
 40
0.9495015247193488
 40
1.0
 40
1.0
 40
1.0
 40
1.0
 10
291.2235616378517
 20
367.9340414745905
 30
0.0
 10
291.1770708078287
 20
367.9344507832752
 30
0.0
 10
291.0840586330206
 20
367.935269669299
 30
0.0
 10
290.9333071911256
 20
367.9365478374853
 30
0.0
 10
290.7742648162288
 20
367.937856567155
 30
0.0
 10
290.6060803200588
 20
367.9391951421066
 30
0.0
 10
290.4289485387343
 20
367.9405572798676
 30
0.0
 10
290.2429788475386
 20
367.9419381270548
 30
0.0
 10
290.0485790078931
 20
367.9433117269082
 30
0.0
 10
289.8598012393284
 20
367.9445595245672
 30
0.0
 10
289.6788311312125
 20
367.9456669366597
 30
0.0
 10
289.507444162488
 20
367.946631963768
 30
0.0
 10
289.3320593076807
 20
367.9475245723252
 30
0.0
 10
289.1529933341578
 20
367.9483296922938
 30
0.0
 10
288.9705632192095
 20
367.9490321151356
 30
0.0
 10
288.7850920279872
 20
367.9496170261368
 30
0.0
 10
288.5969288818786
 20
367.9500679217876
 30
0.0
 10
288.4066175636024
 20
367.950377118416
 30
0.0
 10
288.2148061528391
 20
367.950562159773
 30
0.0
 10
288.0864297358118
 20
367.9505769375444
 30
0.0
 10
288.0221993312398
 20
367.9505843312874
 30
0.0
  0
SPLINE
  5
83
330
1F
100
AcDbEntity
  8
0
  6
Continuous
 62
   252
370
     0
100
AcDbSpline
210
0.0
220
0.0
230
1.0
 70
     8
 71
     3
 72
    26
 73
    22
 74
     0
 42
0.000000001
 43
0.00000001
 40
0.0
 40
0.0
 40
0.0
 40
0.0
 40
0.0505257152175932
 40
0.1010734178555892
 40
0.1516134481004992
 40
0.2021136158098586
 40
0.252540995823676
 40
0.302863725762275
 40
0.3530543586216821
 40
0.4031271988862754
 40
0.4531288841721803
 40
0.5030931497395285
 40
0.5530396311764956
 40
0.6029749497166124
 40
0.6528938351312041
 40
0.7027802528266895
 40
0.7526085110055362
 40
0.8147567405887777
 40
0.876687803061783
 40
0.9384163687763654
 40
0.9999999999999999
 40
0.9999999999999999
 40
0.9999999999999999
 40
0.9999999999999999
 10
288.0221856451644
 20
367.9505843303016
 30
0.0
 10
287.9577871672309
 20
367.9505676033388
 30
0.0
 10
287.8289621868938
 20
367.950534142134
 30
0.0
 10
287.6362591222099
 20
367.9503290435624
 30
0.0
 10
287.4446824575082
 20
367.9500158986523
 30
0.0
 10
287.2548892192366
 20
367.9495874835771
 30
0.0
 10
287.0675404932028
 20
367.9490509847219
 30
0.0
 10
286.8832890399358
 20
367.948410007166
 30
0.0
 10
286.7027640403984
 20
367.9476678181128
 30
0.0
 10
286.5264235366326
 20
367.9468322816948
 30
0.0
 10
286.3544807871476
 20
367.9459170536579
 30
0.0
 10
286.1871091500164
 20
367.9449342768393
 30
0.0
 10
286.0244735348724
 20
367.9438964034891
 30
0.0
 10
285.8667399961162
 20
367.9428157792806
 30
0.0
 10
285.7140755180973
 20
367.9417047786583
 30
0.0
 10
285.5666427028506
 20
367.9405757026146
 30
0.0
 10
285.4128263959919
 20
367.939346827477
 30
0.0
 10
285.254457038621
 20
367.9380317185179
 30
0.0
 10
285.093822975798
 20
367.9366581524246
 30
0.0
 10
284.9415873977105
 20
367.9353256430517
 30
0.0
 10
284.8475620010028
 20
367.9344784535382
 30
0.0
 10
284.8006045588335
 20
367.9340553566518
 30
0.0
  0
SPLINE
  5
84
330
1F
100
AcDbEntity
  8
0
  6
Continuous
 62
   252
370
     0
100
AcDbSpline
210
0.0
220
0.0
230
1.0
 70
     8
 71
     3
 72
    26
 73
    22
 74
     0
 42
0.000000001
 43
0.00000001
 40
0.0
 40
0.0
 40
0.0
 40
0.0
 40
0.054889915597343
 40
0.1097260366136809
 40
0.1645262831093816
 40
0.2193019991322905
 40
0.2740583628747243
 40
0.328794807503393
 40
0.3835094998630033
 40
0.4382109873115916
 40
0.4929084436738509
 40
0.5476087725714932
 40
0.6023167999018955
 40
0.6570354685297012
 40
0.711766034211412
 40
0.7665082620067376
 40
0.821260622642257
 40
0.8760204884806829
 40
0.9307843289116517
 40
0.9855479051169618
 40
0.9999999999999999
 40
0.9999999999999999
 40
0.9999999999999999
 40
0.9999999999999999
 10
284.800603354463
 20
367.9340553457338
 30
0.0
 10
284.7601861566397
 20
367.9336868887706
 30
0.0
 10
284.6793913716611
 20
367.9329503359488
 30
0.0
 10
284.567003979094
 20
367.9319019626779
 30
0.0
 10
284.4610988407716
 20
367.9309001025171
 30
0.0
 10
284.3622454494102
 20
367.9299518051849
 30
0.0
 10
284.2702188744265
 20
367.9290593768321
 30
0.0
 10
284.1850041636261
 20
367.9282263939684
 30
0.0
 10
284.106523998306
 20
367.9274559235639
 30
0.0
 10
284.0347818251405
 20
367.9267483720437
 30
0.0
 10
283.9697655153173
 20
367.9261041103605
 30
0.0
 10
283.911463203468
 20
367.9255234806491
 30
0.0
 10
283.8598629713999
 20
367.9250068329625
 30
0.0
 10
283.8149516488444
 20
367.9245545022949
 30
0.0
 10
283.7767214147648
 20
367.9241668784194
 30
0.0
 10
283.745144590298
 20
367.9238441495517
 30
0.0
 10
283.7202678936484
 20
367.923587258191
 30
0.0
 10
283.7018605473084
 20
367.9233943333286
 30
0.0
 10
283.6907277939034
 20
367.9232740078497
 30
0.0
 10
283.6855060490136
 20
367.9232149226922
 30
0.0
 10
283.6867396977914
 20
367.9232239422809
 30
0.0
 10
283.6869972812101
 20
367.9232258255531
 30
0.0
  0
CIRCLE
  5
85
330
1F
100
AcDbEntity
  8
0
  6
Continuous
 62
   252
370
     0
100
AcDbCircle
 10
288.0000000002
 20
397.0
 30
0.0
 40
23.84301932070007
  0
CIRCLE
  5
86
330
1F
100
AcDbEntity
  8
0
  6
Continuous
 62
   252
370
     0
100
AcDbCircle
 10
288.0000000002
 20
397.0
 30
0.0
 40
24.81913822470009
  0
ARC
  5
87
330
1F
100
AcDbEntity
  8
0
  6
Continuous
 62
   252
370
     0
100
AcDbCircle
 10
288.0000000002
 20
397.0
 30
0.0
 40
24.99559865340028
100
AcDbArc
 50
0.0002463719
 51
258.5404472531
  0
ARC
  5
88
330
1F
100
AcDbEntity
  8
0
  6
Continuous
 62
   252
370
     0
100
AcDbCircle
 10
288.0000000002
 20
397.0
 30
0.0
 40
24.9955986534003
100
AcDbArc
 50
281.4784184613
 51
0.0002463719
  0
ARC
  5
89
330
1F
100
AcDbEntity
  8
0
  6
Continuous
 62
   252
370
     0
100
AcDbCircle
 10
287.9999505913
 20
397.0001336321
 30
0.0
 40
25.406611630573
100
AcDbArc
 50
281.2825901043
 51
90.0002463719
  0
ARC
  5
8A
330
1F
100
AcDbEntity
  8
0
  6
Continuous
 62
   252
370
     0
100
AcDbCircle
 10
287.9999505913
 20
397.0001336321
 30
0.0
 40
25.40661163057298
100
AcDbArc
 50
90.0002463719
 51
258.7364092961
  0
CIRCLE
  5
8B
330
1F
100
AcDbEntity
  8
0
  6
Continuous
 62
   252
370
     0
100
AcDbCircle
 10
288.0
 20
397.0
 30
0.0
 40
82.83353549899988
  0
CIRCLE
  5
8C
330
1F
100
AcDbEntity
  8
0
  6
Continuous
 62
   252
370
     0
100
AcDbCircle
 10
288.0
 20
397.0
 30
0.0
 40
84.74528827209986
  0
CIRCLE
  5
8D
330
1F
100
AcDbEntity
  8
0
  6
Continuous
 62
   252
370
     0
100
AcDbCircle
 10
288.0
 20
397.0
 30
0.0
 40
84.99999999999984
  0
LINE
  5
8E
330
1F
100
AcDbEntity
  8
0
  6
Continuous
 62
     7
370
    30
100
AcDbLine
 10
531.8331770486
 20
372.0408693019
 30
0.0
 11
531.8612198373
 21
368.4704825675
 31
0.0
  0
SPLINE
  5
8F
330
1F
100
AcDbEntity
  8
0
  6
Continuous
 62
     7
370
    30
100
AcDbSpline
210
0.0
220
0.0
230
1.0
 70
     8
 71
     3
 72
    27
 73
    23
 74
     0
 42
0.000000001
 43
0.00000001
 40
0.0
 40
0.0
 40
0.0
 40
0.0
 40
0.0597413149688563
 40
0.1122496604439742
 40
0.1571318874621281
 40
0.1940783834149975
 40
0.2235331620765259
 40
0.2518030098091936
 40
0.2804680096985924
 40
0.3833083529524655
 40
0.4868432101867194
 40
0.5559065610500246
 40
0.6242523821547334
 40
0.6876349914890082
 40
0.7099150302432419
 40
0.73454914888357
 40
0.7655424926196631
 40
0.8028998584670395
 40
0.8465952117134851
 40
0.8965761602855269
 40
0.9527541314510439
 40
1.0
 40
1.0
 40
1.0
 40
1.0
 10
543.2720690600357
 20
367.9505834879602
 30
0.0
 10
543.289114719727
 20
367.9547956928914
 30
0.0
 10
543.3211422958422
 20
367.9627101248636
 30
0.0
 10
543.3651912423186
 20
367.9766360322115
 30
0.0
 10
543.4023339369826
 20
367.9900180854432
 30
0.0
 10
543.4326704634406
 20
368.0022383068541
 30
0.0
 10
543.4581602993918
 20
368.0133818630115
 30
0.0
 10
543.4811526855412
 20
368.0241432290649
 30
0.0
 10
543.5231591748473
 20
368.0451096957473
 30
0.0
 10
543.5831427146846
 20
368.0795476232071
 30
0.0
 10
543.6494534735283
 20
368.1261463877235
 30
0.0
 10
543.7041360185015
 20
368.1711753710178
 30
0.0
 10
543.7473461466802
 20
368.2113984639732
 30
0.0
 10
543.7786365988442
 20
368.2441242449984
 30
0.0
 10
543.800132602325
 20
368.268379588042
 30
0.0
 10
543.8149583429699
 20
368.2858232235154
 30
0.0
 10
543.8321369410409
 20
368.3070701487099
 30
0.0
 10
543.8520541509367
 20
368.3332865273343
 30
0.0
 10
543.8742456973439
 20
368.3647551496792
 30
0.0
 10
543.8980763495028
 20
368.4017829443678
 30
0.0
 10
543.920842772915
 20
368.4407085495604
 30
0.0
 10
543.9345864418001
 20
368.467809729676
 30
0.0
 10
543.9408647967261
 20
368.4801900357718
 30
0.0
  0
SPLINE
  5
90
330
1F
100
AcDbEntity
  8
0
  6
Continuous
 62
     7
370
    30
100
AcDbSpline
210
0.0
220
0.0
230
1.0
 70
     8
 71
     3
 72
    26
 73
    22
 74
     0
 42
0.000000001
 43
0.00000001
 40
0.0
 40
0.0
 40
0.0
 40
0.0
 40
0.0595737874919124
 40
0.1204398701584251
 40
0.1710523210665745
 40
0.2113105643176377
 40
0.2442545898968461
 40
0.2774054884309355
 40
0.3797517856567521
 40
0.483193252770113
 40
0.5521619237183111
 40
0.6209296435005076
 40
0.6855995036190082
 40
0.7083972468270123
 40
0.7312185894795631
 40
0.7598001059035614
 40
0.7951490385858702
 40
0.8370936790656244
 40
0.8854124429650573
 40
0.9398276311312428
 40
1.0
 40
1.0
 40
1.0
 40
1.0
 10
531.8614969409496
 20
368.4704355943487
 30
0.0
 10
531.8694986980471
 20
368.4550934286746
 30
0.0
 10
531.885675789121
 20
368.4240762897694
 30
0.0
 10
531.9118413943166
 20
368.3818076482065
 30
0.0
 10
531.9366240272257
 20
368.3453628011658
 30
0.0
 10
531.958049971493
 20
368.316474555878
 30
0.0
 10
531.977227276087
 20
368.2922558248453
 30
0.0
 10
532.008693730877
 20
368.2547934038585
 30
0.0
 10
532.0564542406198
 20
368.2043101381147
 30
0.0
 10
532.116356904164
 20
368.1514240350077
 30
0.0
 10
532.1722325540477
 20
368.1091205496732
 30
0.0
 10
532.2211759889325
 20
368.0764978243942
 30
0.0
 10
532.260356436602
 20
368.0535599350213
 30
0.0
 10
532.2885973711896
 20
368.0384436846597
 30
0.0
 10
532.3077966896857
 20
368.0286539667105
 30
0.0
 10
532.3304957503425
 20
368.0177141431334
 30
0.0
 10
532.3585619299341
 20
368.0051424557553
 30
0.0
 10
532.3923445641573
 20
367.9913507865278
 30
0.0
 10
532.4318614838835
 20
367.9770480523717
 30
0.0
 10
532.4770011450768
 20
367.9627889760271
 30
0.0
 10
532.5093176534934
 20
367.9548181047198
 30
0.0
 10
532.5262877409558
 20
367.9506324302807
 30
0.0
  0
SPLINE
  5
91
330
1F
100
AcDbEntity
  8
0
  6
Continuous
 62
     7
370
    30
100
AcDbSpline
210
0.0
220
0.0
230
1.0
 70
     8
 71
     3
 72
    32
 73
    28
 74
     0
 42
0.000000001
 43
0.00000001
 40
0.0
 40
0.0
 40
0.0
 40
0.0
 40
0.0330031132585574
 40
0.0722216991249175
 40
0.1116035663398834
 40
0.1511347120197831
 40
0.1908007928112309
 40
0.2305871548789272
 40
0.2704788654424364
 40
0.3104607457184687
 40
0.3524264107547979
 40
0.3944562422650857
 40
0.436532170925085
 40
0.478636007106539
 40
0.5207494881962891
 40
0.5628543263334287
 40
0.6049322562916826
 40
0.6469650832328923
 40
0.6889347300586172
 40
0.7308232840907725
 40
0.7726130428185493
 40
0.814286558457718
 40
0.8534569127761599
 40
0.8924945811087652
 40
0.9313857617977941
 40
0.9701169790263164
 40
1.0
 40
1.0
 40
1.0
 40
1.0
 10
532.5263826803744
 20
367.9510039366247
 30
0.0
 10
532.6426305131885
 20
367.924564031649
 30
0.0
 10
532.8970191200951
 20
367.8667047973673
 30
0.0
 10
533.2921053388211
 20
367.7863743047587
 30
0.0
 10
533.7116017064686
 20
367.708129493177
 30
0.0
 10
534.1340796574897
 20
367.6374032571401
 30
0.0
 10
534.5591967901115
 20
367.5740306376724
 30
0.0
 10
534.9866811127723
 20
367.518171673331
 30
0.0
 10
535.4162345988809
 20
367.4698861382149
 30
0.0
 10
535.8544251747553
 20
367.4286008993403
 30
0.0
 10
536.3010062084633
 20
367.3948097567321
 30
0.0
 10
536.7556967193674
 20
367.3690093216711
 30
0.0
 10
537.2112913516144
 20
367.3517585035743
 30
0.0
 10
537.6674321525031
 20
367.3430846861532
 30
0.0
 10
538.1237598437441
 20
367.3430017251307
 30
0.0
 10
538.5799146192066
 20
367.3515099501442
 30
0.0
 10
539.0355371242182
 20
367.3685961610664
 30
0.0
 10
539.4902694032085
 20
367.3942336314831
 30
0.0
 10
539.9437557777209
 20
367.4283824079614
 30
0.0
 10
540.3956439883815
 20
367.4709887378784
 30
0.0
 10
540.8455852773031
 20
367.5219879900189
 30
0.0
 10
541.2847518842385
 20
367.5801705068952
 30
0.0
 10
541.712940563605
 20
367.6449259649117
 30
0.0
 10
542.1300138694584
 20
367.7155524137958
 30
0.0
 10
542.5441492667293
 20
367.7935388026535
 30
0.0
 10
542.9246309270812
 20
367.8713959830784
 30
0.0
 10
543.1662548107781
 20
367.926617695697
 30
0.0
 10
543.2714873656157
 20
367.9506679750504
 30
0.0
  0
LINE
  5
92
330
1F
100
AcDbEntity
  8
0
  6
Continuous
 62
     7
370
    30
100
AcDbLine
 10
531.8332093843
 20
372.0408695841
 30
0.0
 11
531.8612527873
 21
368.4705760833
 31
0.0
  0
SPLINE
  5
93
330
1F
100
AcDbEntity
  8
0
  6
Continuous
 62
     7
370
    30
100
AcDbSpline
210
0.0
220
0.0
230
1.0
 70
     8
 71
     3
 72
     9
 73
     5
 74
     0
 42
0.000000001
 43
0.00000001
 40
0.0
 40
0.0
 40
0.0
 40
0.0
 40
0.5532843883275387
 40
1.0
 40
1.0
 40
1.0
 40
1.0
 10
543.9414068062945
 20
368.480994487448
 30
0.0
 10
543.9467244271045
 20
369.1570691871084
 30
0.0
 10
543.9563354353351
 20
370.3789990190779
 30
0.0
 10
543.9659482386808
 20
371.6009315352791
 30
0.0
 10
543.9702424280073
 20
372.1467878666764
 30
0.0
  0
ARC
  5
94
330
1F
100
AcDbEntity
  8
0
  6
Continuous
 62
     7
370
    30
100
AcDbCircle
 10
527.6500000002
 20
372.5043823081
 30
0.0
 40
0.5000000000000233
100
AcDbArc
 50
180.0
 51
270.5000000059
  0
ARC
  5
95
330
1F
100
AcDbEntity
  8
0
  6
Continuous
 62
     7
370
    30
100
AcDbCircle
 10
527.6500000002
 20
421.4956176919
 30
0.0
 40
0.5
100
AcDbArc
 50
89.4999999941
 51
180.0
  0
LINE
  5
96
330
1F
100
AcDbEntity
  8
0
  6
Continuous
 62
     7
370
    30
100
AcDbLine
 10
527.654363268
 20
372.0044013465
 30
0.0
 11
531.8331770486
 21
372.0408693019
 31
0.0
  0
LINE
  5
97
330
1F
100
AcDbEntity
  8
0
  6
Continuous
 62
     7
370
    30
100
AcDbLine
 10
543.970242428
 20
372.1467878667
 30
0.0
 11
547.8747256267
 21
372.1808617753
 31
0.0
  0
LINE
  5
98
330
1F
100
AcDbEntity
  8
0
  6
Continuous
 62
     7
370
    30
100
AcDbLine
 10
547.8747256267
 20
421.8191382246
 30
0.0
 11
527.654363268
 21
421.9955986534
 31
0.0
  0
ARC
  5
99
330
1F
100
AcDbEntity
  8
0
  6
Continuous
 62
     7
370
    30
100
AcDbCircle
 10
547.8659990912
 20
373.1808236986
 30
0.0
 40
1.000000000000001
100
AcDbArc
 50
270.5
 51
358.6337661541
  0
ARC
  5
9A
330
1F
100
AcDbEntity
  8
0
  6
Continuous
 62
     7
370
    30
100
AcDbCircle
 10
547.8659990912
 20
420.8191763014
 30
0.0
 40
1.000000000000001
100
AcDbArc
 50
1.3662338459
 51
89.5
  0
ARC
  5
9B
330
1F
100
AcDbEntity
  8
0
  6
Continuous
 62
     7
370
    30
100
AcDbCircle
 10
-450.8500000002
 20
397.0
 30
0.0
 40
1000.000000000204
100
AcDbArc
 50
358.6337661534
 51
1.3662338466
  0
LINE
  5
9C
330
1F
100
AcDbEntity
  8
0
  6
Continuous
 62
     7
370
    30
100
AcDbLine
 10
527.1500000002
 20
418.395202134
 30
0.0
 11
526.4500000002
 21
418.395202134
 31
0.0
  0
LINE
  5
9D
330
1F
100
AcDbEntity
  8
0
  6
Continuous
 62
     7
370
    30
100
AcDbLine
 10
526.4500000002
 20
375.6047978659
 30
0.0
 11
527.1500000002
 21
375.6047978659
 31
0.0
  0
LINE
  5
9E
330
1F
100
AcDbEntity
  8
0
  6
Continuous
 62
     7
370
    30
100
AcDbLine
 10
470.6794086548
 20
372.5
 30
0.0
 11
525.9500000002
 21
372.5
 31
0.0
  0
LINE
  5
9F
330
1F
100
AcDbEntity
  8
0
  6
Continuous
 62
     7
370
    30
100
AcDbLine
 10
525.9500000002
 20
421.5
 30
0.0
 11
470.6794051931
 21
421.5
 31
0.0
  0
ARC
  5
A0
330
1F
100
AcDbEntity
  8
0
  6
Continuous
 62
     7
370
    30
100
AcDbCircle
 10
525.9500000002
 20
373.0
 30
0.0
 40
0.5
100
AcDbArc
 50
270.0
 51
0.0
  0
ARC
  5
A1
330
1F
100
AcDbEntity
  8
0
  6
Continuous
 62
     7
370
    30
100
AcDbCircle
 10
525.9500000002
 20
421.0
 30
0.0
 40
0.5
100
AcDbArc
 50
360.0
 51
90.0
  0
ARC
  5
A2
330
1F
100
AcDbEntity
  8
0
  6
Continuous
 62
     7
370
    30
100
AcDbCircle
 10
457.3500000002
 20
312.4998286625
 30
0.0
 40
0.5000000000000047
100
AcDbArc
 50
179.9999999999
 51
271.4999999999
  0
ARC
  5
A3
330
1F
100
AcDbEntity
  8
0
  6
Continuous
 62
     7
370
    30
100
AcDbCircle
 10
457.3500000002
 20
481.5001713375
 30
0.0
 40
0.500000000000069
100
AcDbArc
 50
88.5
 51
180.0000000001
  0
LINE
  5
A4
330
1F
100
AcDbEntity
  8
0
  6
Continuous
 62
     7
370
    30
100
AcDbLine
 10
457.3630884744
 20
312.0
 30
0.0
 11
467.0901369272
 21
312.2547117279
 31
0.0
  0
LINE
  5
A5
330
1F
100
AcDbEntity
  8
0
  6
Continuous
 62
     7
370
    30
100
AcDbLine
 10
467.0901369256
 20
481.7452882721
 30
0.0
 11
457.3630884744
 21
482.0
 31
0.0
  0
ARC
  5
A6
330
1F
100
AcDbEntity
  8
0
  6
Continuous
 62
     7
370
    30
100
AcDbCircle
 10
467.037783029
 20
479.7459736222
 30
0.0
 40
2.000000000000039
100
AcDbArc
 50
2.5092650441
 51
88.500000001
  0
ARC
  5
A7
330
1F
100
AcDbEntity
  8
0
  6
Continuous
 62
     7
370
    30
100
AcDbCircle
 10
467.0377830306
 20
314.2540263778
 30
0.0
 40
2.000000000000018
100
AcDbArc
 50
271.5000000001
 51
357.4907349571
  0
ARC
  5
A8
330
1F
100
AcDbEntity
  8
0
  6
Continuous
 62
     7
370
    30
100
AcDbCircle
 10
-1421.1499999598
 20
396.9999999813
 30
0.0
 40
1892.000000000003
100
AcDbArc
 50
0.7694202057
 51
2.5092650471
  0
ARC
  5
A9
330
1F
100
AcDbEntity
  8
0
  6
Continuous
 62
     7
370
    30
100
AcDbCircle
 10
-1421.1499999598
 20
396.9999999813
 30
0.0
 40
1892.000000000003
100
AcDbArc
 50
357.490734954
 51
359.2305878898
  0
SPLINE
  5
AA
330
1F
100
AcDbEntity
  8
0
  6
Continuous
 62
     7
370
    30
100
AcDbSpline
210
0.0
220
0.0
230
1.0
 70
     8
 71
     3
 72
    59
 73
    55
 74
     0
 42
0.000000001
 43
0.00000001
 40
0.0
 40
0.0
 40
0.0
 40
0.0
 40
0.0154792404860735
 40
0.0309700186558189
 40
0.04649468160145
 40
0.0620302922657322
 40
0.0852562755518343
 40
0.1085164010681564
 40
0.1240454328122088
 40
0.1395243676739084
 40
0.1550258649691694
 40
0.1705273997016148
 40
0.1860511051386361
 40
0.201529930012379
 40
0.2170292281878178
 40
0.2325285572857949
 40
0.2480480392239198
 40
0.2635267731445738
 40
0.2790130441528426
 40
0.2944917205037311
 40
0.309977466472355
 40
0.3254560911405163
 40
0.3409413921957488
 40
0.3564199747407081
 40
0.371904912681252
 40
0.3873834609368508
 40
0.4028681044071112
 40
0.4183466255336591
 40
0.4338310386868263
 40
0.4556478713924321
 40
0.4774807572153359
 40
0.508441958103281
 40
0.5394031113671136
 40
0.5703641591767664
 40
0.601324883977493
 40
0.6323259320143158
 40
0.6634441428193136
 40
0.6945997741352009
 40
0.713354104783758
 40
0.7321161870078822
 40
0.7509013060984848
 40
0.7696940040809546
 40
0.7885706638306796
 40
0.807454872663819
 40
0.8263616886335192
 40
0.8452760173182019
 40
0.8645309917969654
 40
0.8837938980647079
 40
0.9030807509847617
 40
0.9223756488291996
 40
0.9417606400465395
 40
0.9611539609355846
 40
0.9805726627745944
 40
1.0
 40
1.0
 40
1.0
 40
1.0
 10
543.4816514957034
 20
368.4546070775681
 30
0.0
 10
543.4627222455042
 20
368.4542243071813
 30
0.0
 10
543.4248496359058
 20
368.453458481104
 30
0.0
 10
543.3642177445516
 20
368.4526235230795
 30
0.0
 10
543.3008524657291
 20
368.4519843927855
 30
0.0
 10
543.2236317267666
 20
368.4514612592636
 30
0.0
 10
543.1309194358405
 20
368.4511152826513
 30
0.0
 10
543.0330610867148
 20
368.4509707485373
 30
0.0
 10
542.9438528988479
 20
368.4509140939627
 30
0.0
 10
542.8650244412322
 20
368.4508794648864
 30
0.0
 10
542.7839507252585
 20
368.4508256930891
 30
0.0
 10
542.7005800496917
 20
368.4507232530278
 30
0.0
 10
542.6151046602262
 20
368.4505433758012
 30
0.0
 10
542.5275633902469
 20
368.4502643765604
 30
0.0
 10
542.4380715662825
 20
368.4498609070708
 30
0.0
 10
542.3465725291288
 20
368.4493298239723
 30
0.0
 10
542.2532525602703
 20
368.4486889297626
 30
0.0
 10
542.1581657989502
 20
368.4479709837854
 30
0.0
 10
542.0614402658636
 20
368.4472007996271
 30
0.0
 10
541.9630532917947
 20
368.446429735743
 30
0.0
 10
541.8631063660536
 20
368.4456938344147
 30
0.0
 10
541.7616363754184
 20
368.4450197933351
 30
0.0
 10
541.6587377989546
 20
368.444424643474
 30
0.0
 10
541.5544423776261
 20
368.4439160999928
 30
0.0
 10
541.4488383801722
 20
368.4434937312977
 30
0.0
 10
541.3419532142559
 20
368.4431490049569
 30
0.0
 10
541.2338699669538
 20
368.4428663276487
 30
0.0
 10
541.1246121504477
 20
368.4426231231731
 30
0.0
 10
540.9991984602484
 20
368.4423592031183
 30
0.0
 10
540.8570537868916
 20
368.4420266544813
 30
0.0
 10
540.6754577154369
 20
368.4414295922132
 30
0.0
 10
540.4687340802949
 20
368.4402847998316
 30
0.0
 10
540.2361196563179
 20
368.438314968059
 30
0.0
 10
540.0004839136715
 20
368.4355455240524
 30
0.0
 10
539.7621314972611
 20
368.4323357251975
 30
0.0
 10
539.5211303384331
 20
368.4290200489377
 30
0.0
 10
539.2777201201446
 20
368.4258634080692
 30
0.0
 10
539.0648918037292
 20
368.4234506526789
 30
0.0
 10
538.8837777944634
 20
368.4217227768204
 30
0.0
 10
538.734890716965
 20
368.4205271797372
 30
0.0
 10
538.5855685442543
 20
368.4195731247188
 30
0.0
 10
538.4356700026175
 20
368.4188755714333
 30
0.0
 10
538.2852961216056
 20
368.4184467292821
 30
0.0
 10
538.1344667108665
 20
368.4182936939106
 30
0.0
 10
537.9834451557294
 20
368.4184183821411
 30
0.0
 10
537.8314041532989
 20
368.4188197458445
 30
0.0
 10
537.6784430883681
 20
368.4194948740214
 30
0.0
 10
537.5245824065274
 20
368.4204356193414
 30
0.0
 10
537.3707715400598
 20
368.4216190455032
 30
0.0
 10
537.216858205446
 20
368.4230224885731
 30
0.0
 10
537.0629473093695
 20
368.4246158360024
 30
0.0
 10
536.9090763897523
 20
368.4263630089596
 30
0.0
 10
536.7554793586902
 20
368.4282180941294
 30
0.0
 10
536.6534641250928
 20
368.4294915238626
 30
0.0
 10
536.6024451694166
 20
368.4301283802695
 30
0.0
  0
SPLINE
  5
AB
330
1F
100
AcDbEntity
  8
0
  6
Continuous
 62
     7
370
    30
100
AcDbSpline
210
0.0
220
0.0
230
1.0
 70
     8
 71
     3
 72
    56
 73
    52
 74
     0
 42
0.000000001
 43
0.00000001
 40
0.0
 40
0.0
 40
0.0
 40
0.0
 40
0.019897262396181
 40
0.0536839696239104
 40
0.0875887697669666
 40
0.1215376349375303
 40
0.1557239249688413
 40
0.1899598445519922
 40
0.2072007438404704
 40
0.2244416344458598
 40
0.2417086798091855
 40
0.2589757106875969
 40
0.2763061187986366
 40
0.2936434356195
 40
0.3105457012921831
 40
0.3274546265082954
 40
0.3444398434809883
 40
0.3614250312234719
 40
0.3784392687830374
 40
0.3954534710897722
 40
0.4120871682814379
 40
0.4287208270838797
 40
0.4453851460052194
 40
0.4620494241305887
 40
0.4913500407518139
 40
0.5206965171138787
 40
0.5447627876027801
 40
0.5688560710661612
 40
0.5897500742329863
 40
0.610662820228079
 40
0.6377088628866926
 40
0.6648799235469726
 40
0.6920969806751314
 40
0.7195661461195518
 40
0.7470870070365729
 40
0.7748705463744997
 40
0.8027125192325407
 40
0.8167043892457193
 40
0.830704263674319
 40
0.8450547254636788
 40
0.8594051510848567
 40
0.8737927367525629
 40
0.8881802848743124
 40
0.9023472050316833
 40
0.9165140965241326
 40
0.9307198430884268
 40
0.9449255511949849
 40
0.9595918767805066
 40
0.9742581543230873
 40
0.9889718232227204
 40
1.0
 40
1.0
 40
1.0
 40
1.0
 10
536.6024451740926
 20
368.4301283803398
 30
0.0
 10
536.5547397579492
 20
368.4307064764889
 30
0.0
 10
536.4260277743532
 20
368.4322662134762
 30
0.0
 10
536.217333442768
 20
368.4343418806287
 30
0.0
 10
535.9770496924401
 20
368.4361188187624
 30
0.0
 10
535.7381753875082
 20
368.4371623888683
 30
0.0
 10
535.5012705430194
 20
368.4373537915052
 30
0.0
 10
535.3056748238454
 20
368.4368515964655
 30
0.0
 10
535.1505573878469
 20
368.4362816467561
 30
0.0
 10
535.0346854294314
 20
368.4358090575629
 30
0.0
 10
534.9197476746356
 20
368.4353400617351
 30
0.0
 10
534.805655583981
 20
368.4349128706787
 30
0.0
 10
534.6925082430599
 20
368.4345662476467
 30
0.0
 10
534.5813024965058
 20
368.4343346480117
 30
0.0
 10
534.4721833793155
 20
368.4342426651931
 30
0.0
 10
534.3650239436174
 20
368.4343073040666
 30
0.0
 10
534.2589592459557
 20
368.4345459419073
 30
0.0
 10
534.1540092471724
 20
368.434968309077
 30
0.0
 10
534.0503975967874
 20
368.4355821615444
 30
0.0
 10
533.9489536619797
 20
368.4363763910399
 30
0.0
 10
533.8497650140395
 20
368.4373401581436
 30
0.0
 10
533.7527987233691
 20
368.4384500359515
 30
0.0
 10
533.6573781325868
 20
368.4396899832093
 30
0.0
 10
533.5398718018587
 20
368.441363903392
 30
0.0
 10
533.4021946672935
 20
368.4435436286443
 30
0.0
 10
533.2563888868477
 20
368.4461878113598
 30
0.0
 10
533.1246550415184
 20
368.4488222804285
 30
0.0
 10
533.0114002614373
 20
368.4512267290558
 30
0.0
 10
532.9071595403278
 20
368.4534772905833
 30
0.0
 10
532.8021253435562
 20
368.4556854191453
 30
0.0
 10
532.6925541456383
 20
368.4578205798405
 30
0.0
 10
532.580280740989
 20
368.4597058731089
 30
0.0
 10
532.4742922772751
 20
368.4611367330832
 30
0.0
 10
532.375121960378
 20
368.4621291357553
 30
0.0
 10
532.2829792098337
 20
368.4627553453427
 30
0.0
 10
532.1985702286879
 20
368.4631318435746
 30
0.0
 10
532.1350614434034
 20
368.4633730677164
 30
0.0
 10
532.088640330215
 20
368.4636219593056
 30
0.0
 10
532.0557688845025
 20
368.4638670145987
 30
0.0
 10
532.025050239576
 20
368.4642011205845
 30
0.0
 10
531.9965825686457
 20
368.4646595345535
 30
0.0
 10
531.9706754576677
 20
368.46527241734
 30
0.0
 10
531.9474991383996
 20
368.4660709624465
 30
0.0
 10
531.9270753967079
 20
368.4670800546416
 30
0.0
 10
531.9093795882948
 20
368.4681732988665
 30
0.0
 10
531.8943548324147
 20
368.4692380084447
 30
0.0
 10
531.8819193178894
 20
368.4701746728633
 30
0.0
 10
531.8721964322648
 20
368.470871380236
 30
0.0
 10
531.865444862432
 20
368.4711945417408
 30
0.0
 10
531.8616736220769
 20
368.4711332389537
 30
0.0
 10
531.8615573894282
 20
368.4706793011675
 30
0.0
 10
531.8615075936905
 20
368.4704848276937
 30
0.0
  0
SPLINE
  5
AC
330
1F
100
AcDbEntity
  8
0
  6
Continuous
 62
     7
370
    30
100
AcDbSpline
210
0.0
220
0.0
230
1.0
 70
     8
 71
     3
 72
    20
 73
    16
 74
     0
 42
0.000000001
 43
0.00000001
 40
0.0
 40
0.0
 40
0.0
 40
0.0
 40
0.0441972349018309
 40
0.1288251605528866
 40
0.2136084853502264
 40
0.2988528222910025
 40
0.3842471328022831
 40
0.4713147184831032
 40
0.5585311888047163
 40
0.6461853634640464
 40
0.7339819703817486
 40
0.8003392657862187
 40
0.8667561101953856
 40
0.9333492771312126
 40
0.9999999999999999
 40
0.9999999999999999
 40
0.9999999999999999
 40
0.9999999999999999
 10
543.9402628411507
 20
368.4810034812839
 30
0.0
 10
543.9405258745625
 20
368.4814705824093
 30
0.0
 10
543.941292558758
 20
368.4828320788382
 30
0.0
 10
543.9342035736097
 20
368.4835059503184
 30
0.0
 10
543.9204470137984
 20
368.4832807483256
 30
0.0
 10
543.8993363694208
 20
368.4817253425749
 30
0.0
 10
543.8713190583563
 20
368.479073983937
 30
0.0
 10
543.8362325239588
 20
368.4755018358142
 30
0.0
 10
543.7940496271896
 20
368.4712899246535
 30
0.0
 10
543.7450719998576
 20
368.4668362602124
 30
0.0
 10
543.6939669081968
 20
368.4629603615713
 30
0.0
 10
543.6426839064737
 20
368.4599854727069
 30
0.0
 10
543.5926954475383
 20
368.4577868572861
 30
0.0
 10
543.5393702817308
 20
368.4559779654059
 30
0.0
 10
543.5008965831696
 20
368.4550641701999
 30
0.0
 10
543.4816514243537
 20
368.4546070752357
 30
0.0
  0
LINE
  5
AD
330
1F
100
AcDbEntity
  8
0
  6
Continuous
 62
     7
370
    30
100
AcDbLine
 10
543.2718231532
 20
367.9505805873
 30
0.0
 11
543.2715081502
 21
367.9505756226
 31
0.0
  0
LINE
  5
AE
330
1F
100
AcDbEntity
  8
0
  6
Continuous
 62
     7
370
    30
100
AcDbLine
 10
531.8613174433
 20
368.4703153049
 30
0.0
 11
531.8617024103
 21
368.4705796158
 31
0.0
  0
LINE
  5
AF
330
1F
100
AcDbEntity
  8
0
  6
Continuous
 62
     7
370
    30
100
AcDbLine
 10
532.5264772933
 20
367.9506301381
 30
0.0
 11
532.52629778
 21
367.9506321652
 31
0.0
  0
LINE
  5
B0
330
1F
100
AcDbEntity
  8
0
  6
Continuous
 62
     7
370
    30
100
AcDbLine
 10
527.1500000002
 20
372.5043823081
 30
0.0
 11
527.1500000002
 21
421.4956176919
 31
0.0
  0
LINE
  5
B1
330
1F
100
AcDbEntity
  8
0
  6
Continuous
 62
     7
370
    30
100
AcDbLine
 10
526.4500000002
 20
373.0
 30
0.0
 11
526.4500000002
 21
421.0
 31
0.0
  0
LINE
  5
B2
330
1F
100
AcDbEntity
  8
0
  6
Continuous
 62
     7
370
    30
100
AcDbLine
 10
456.8500000002
 20
312.4998286625
 30
0.0
 11
456.8500000002
 21
481.5001713375
 31
0.0
  0
LWPOLYLINE
  5
B3
330
1F
100
AcDbEntity
  8
0
  6
Continuous
 62
     7
370
    30
100
AcDbPolyline
 90
       12
 70
   128
 43
0.0
 10
470.6794049534
 20
422.4067452624
 10
470.6794049714
 20
422.398041911
 10
470.6794049906
 20
422.3719321018
 10
470.679405011
 20
422.3284337294
 10
470.6794050326
 20
422.2675766052
 10
470.6794050554
 20
422.1894024377
 10
470.6794050793
 20
422.0939648036
 10
470.6794051044
 20
421.9813291112
 10
470.6794051306
 20
421.8515725551
 10
470.6794051579
 20
421.7047840642
 10
470.6794051863
 20
421.5410642399
 10
470.6794051931
 20
421.5
  0
LWPOLYLINE
  5
B4
330
1F
100
AcDbEntity
  8
0
  6
Continuous
 62
     7
370
    30
100
AcDbPolyline
 90
       13
 70
   128
 43
0.0
 10
470.6794086548
 20
372.5
 10
470.6794086537
 20
372.4592595754
 10
470.6794086485
 20
372.2955342071
 10
470.6794086419
 20
372.1487401371
 10
470.679408634
 20
372.018977971
 10
470.6794086249
 20
371.906336641
 10
470.6794086144
 20
371.8108933461
 10
470.6794086027
 20
371.7327134982
 10
470.6794085897
 20
371.6718506779
 10
470.6794085754
 20
371.6283465976
 10
470.6794085599
 20
371.6022310728
 10
470.6794085432
 20
371.5935220018
 10
470.6794085432
 20
371.5935220018
  0
LINE
  5
B5
330
1F
100
AcDbEntity
  8
0
  6
Continuous
 62
   252
370
     0
100
AcDbLine
 10
543.4816667475
 20
368.4606581688
 30
0.0
 11
543.50798384
 21
372.2151536567
 31
0.0
  0
SPLINE
  5
B6
330
1F
100
AcDbEntity
  8
0
  6
Continuous
 62
   252
370
     0
100
AcDbSpline
210
0.0
220
0.0
230
1.0
 70
     8
 71
     3
 72
    26
 73
    22
 74
     0
 42
0.000000001
 43
0.00000001
 40
0.0
 40
0.0
 40
0.0
 40
0.0
 40
0.0449962704650418
 40
0.0958383472989321
 40
0.1466727070580905
 40
0.1974669721346128
 40
0.2481880256225528
 40
0.2988038195855839
 40
0.3492867471768648
 40
0.3996511961856695
 40
0.4499440758311837
 40
0.5001993178372668
 40
0.5504366721436906
 40
0.6006627985440052
 40
0.6508723961173493
 40
0.7010493368896265
 40
0.7511677794422172
 40
0.813677941104565
 40
0.8759696709425528
 40
0.9380577247435884
 40
1.0
 40
1.0
 40
1.0
 40
1.0
 10
543.2715081501892
 20
367.9505756226392
 30
0.0
 10
543.2706991811643
 20
367.9505603808447
 30
0.0
 10
543.2689761438202
 20
367.9505279170789
 30
0.0
 10
543.2535514491826
 20
367.9503285909062
 30
0.0
 10
543.2282272830029
 20
367.9500160198335
 30
0.0
 10
543.1924938264816
 20
367.9495874511672
 30
0.0
 10
543.1468155784872
 20
367.9490509933815
 30
0.0
 10
543.0912457819305
 20
367.9484100048543
 30
0.0
 10
543.0258734597256
 20
367.9476678187299
 30
0.0
 10
542.9509876911035
 20
367.9468322815299
 30
0.0
 10
542.8671657168078
 20
367.945917053702
 30
0.0
 10
542.7748978925367
 20
367.9449342768276
 30
0.0
 10
542.6746898328212
 20
367.9438964034923
 30
0.0
 10
542.5670418633736
 20
367.9428157792797
 30
0.0
 10
542.4524543396122
 20
367.9417047786585
 30
0.0
 10
542.3314286082398
 20
367.9405757026146
 30
0.0
 10
542.1939132030246
 20
367.939346827477
 30
0.0
 10
542.0387349625256
 20
367.9380317185179
 30
0.0
 10
541.8646706600863
 20
367.9366581524246
 30
0.0
 10
541.6840775619035
 20
367.9353256430517
 30
0.0
 10
541.558132624339
 20
367.9344784535382
 30
0.0
 10
541.4952341699928
 20
367.9340553566518
 30
0.0
  0
SPLINE
  5
B7
330
1F
100
AcDbEntity
  8
0
  6
Continuous
 62
   252
370
     0
100
AcDbSpline
210
0.0
220
0.0
230
1.0
 70
     8
 71
     3
 72
    30
 73
    26
 74
     0
 42
0.000000001
 43
0.00000001
 40
0.0
 40
0.0
 40
0.0
 40
0.0
 40
0.0417782325701634
 40
0.0835155205972029
 40
0.1252255035345876
 40
0.1669168156508171
 40
0.2085933982112501
 40
0.2502548197833955
 40
0.2918996851020697
 40
0.3335344997978245
 40
0.3751662463223072
 40
0.4168001792129009
 40
0.4584399715935443
 40
0.5000878633598933
 40
0.5417448103029452
 40
0.5834106336031488
 40
0.6250841692882158
 40
0.6667634173907478
 40
0.7084456906655693
 40
0.7501277628309355
 40
0.800139958874269
 40
0.8501399579055388
 40
0.9001209316983747
 40
0.9500762803001704
 40
1.0
 40
1.0
 40
1.0
 40
1.0
 10
541.4952325116324
 20
367.9340553457338
 30
0.0
 10
541.4381842621525
 20
367.9336868887706
 30
0.0
 10
541.3241436730378
 20
367.9329503359488
 30
0.0
 10
541.1472031178988
 20
367.9319019626779
 30
0.0
 10
540.9665282004376
 20
367.9309001025171
 30
0.0
 10
540.7819989381778
 20
367.9299518051851
 30
0.0
 10
540.594071795925
 20
367.9290593768315
 30
0.0
 10
540.403044495376
 20
367.9282263939705
 30
0.0
 10
540.2092307270183
 20
367.9274559235562
 30
0.0
 10
540.0128764116587
 20
367.9267483720726
 30
0.0
 10
539.814213821907
 20
367.9261041102528
 30
0.0
 10
539.6134702141655
 20
367.925523481051
 30
0.0
 10
539.4108731487506
 20
367.9250068314623
 30
0.0
 10
539.20665005088
 20
367.9245545078954
 30
0.0
 10
539.001028334061
 20
367.9241668575111
 30
0.0
 10
538.7942353858125
 20
367.9238442276067
 30
0.0
 10
538.5864985377835
 20
367.9235869668112
 30
0.0
 10
538.3780452322159
 20
367.9233954209652
 30
0.0
 10
538.1691024148871
 20
367.9232699484356
 30
0.0
 10
537.9459556488633
 20
367.9232069250164
 30
0.0
 10
537.708820114358
 20
367.9232233220306
 30
0.0
 10
537.4580706750207
 20
367.9233369089327
 30
0.0
 10
537.2080896182252
 20
367.923549764745
 30
0.0
 10
536.9591120233035
 20
367.9238534198973
 30
0.0
 10
536.7943929973746
 20
367.9241394585525
 30
0.0
 10
536.7120595653599
 20
367.9242824325898
 30
0.0
  0
SPLINE
  5
B8
330
1F
100
AcDbEntity
  8
0
  6
Continuous
 62
   252
370
     0
100
AcDbSpline
210
0.0
220
0.0
230
1.0
 70
     8
 71
     3
 72
    16
 73
    12
 74
     0
 42
0.000000001
 43
0.00000001
 40
0.0
 40
0.0
 40
0.0
 40
0.0
 40
0.1049666592983312
 40
0.2126364080566278
 40
0.3226754734311087
 40
0.4346963965621602
 40
0.5482639428676366
 40
0.6608515333746728
 40
0.7739974689247973
 40
0.8872111437233794
 40
1.0
 40
1.0
 40
1.0
 40
1.0
 10
536.7116966879433
 20
367.924843419863
 30
0.0
 10
536.7068133242409
 20
367.9331796520288
 30
0.0
 10
536.6969208410098
 20
367.950066790062
 30
0.0
 10
536.6825117464042
 20
367.9850048083301
 30
0.0
 10
536.6684009685475
 20
368.0275312454156
 30
0.0
 10
536.6548309116993
 20
368.0782652360139
 30
0.0
 10
536.6420796629486
 20
368.1363760991825
 30
0.0
 10
536.6303191882361
 20
368.2012259700242
 30
0.0
 10
536.6197353205351
 20
368.2720571103979
 30
0.0
 10
536.6102800994854
 20
368.3480194983255
 30
0.0
 10
536.6051013650912
 20
368.4024855203038
 30
0.0
 10
536.6025168651455
 20
368.4296673412136
 30
0.0
  0
SPLINE
  5
B9
330
1F
100
AcDbEntity
  8
0
  6
Continuous
 62
   252
370
     0
100
AcDbSpline
210
0.0
220
0.0
230
1.0
 70
     8
 71
     3
 72
    18
 73
    14
 74
     0
 42
0.000000001
 43
0.00000001
 40
0.0
 40
0.0
 40
0.0
 40
0.0
 40
0.099386575015463
 40
0.1991106110484802
 40
0.2990749616226307
 40
0.3991924378671686
 40
0.4993877281130747
 40
0.5829005158588001
 40
0.6663973218989978
 40
0.7498595432343759
 40
0.8332780345965584
 40
0.9166540181596031
 40
1.0
 40
1.0
 40
1.0
 40
1.0
 10
536.7120595653599
 20
367.9242824325898
 30
0.0
 10
536.6273770427259
 20
367.9244520434576
 30
0.0
 10
536.4577244631479
 20
367.9247918410966
 30
0.0
 10
536.205666970025
 20
367.9254532057183
 30
0.0
 10
535.9555859997907
 20
367.9262171040421
 30
0.0
 10
535.7083569345629
 20
367.9270874244407
 30
0.0
 10
535.4781790799616
 20
367.9279998449028
 30
0.0
 10
535.2649769356221
 20
367.9289311656468
 30
0.0
 10
535.0684480587196
 20
367.9298616282156
 30
0.0
 10
534.8756494029847
 20
367.9308448319315
 30
0.0
 10
534.6871210520206
 20
367.9318772427807
 30
0.0
 10
534.5027812336231
 20
367.9329512517346
 30
0.0
 10
534.3841657348562
 20
367.9337001363054
 30
0.0
 10
534.3248686579396
 20
367.9340745112098
 30
0.0
  0
SPLINE
  5
BA
330
1F
100
AcDbEntity
  8
0
  6
Continuous
 62
   252
370
     0
100
AcDbSpline
210
0.0
220
0.0
230
1.0
 70
     8
 71
     3
 72
    25
 73
    21
 74
     0
 42
0.000000001
 43
0.00000001
 40
0.0
 40
0.0
 40
0.0
 40
0.0
 40
0.0620025718184238
 40
0.1240349987658543
 40
0.1861448568828806
 40
0.2483940340837153
 40
0.3108593834232899
 40
0.373599315522066
 40
0.4365356093567097
 40
0.4995619816613969
 40
0.5499902215103928
 40
0.6003835327090642
 40
0.6507168511484213
 40
0.70097712941947
 40
0.7511649511744607
 40
0.8012961719987867
 40
0.8514026079049635
 40
0.9015177126541636
 40
0.951664968267504
 40
1.0
 40
1.0
 40
1.0
 40
1.0
 10
534.3248686575204
 20
367.9340745112125
 30
0.0
 10
534.26132979885
 20
367.9344909170749
 30
0.0
 10
534.1342214866365
 20
367.9353239293051
 30
0.0
 10
533.9522525470518
 20
367.9366211125266
 30
0.0
 10
533.7773171555258
 20
367.9379459853105
 30
0.0
 10
533.6105365281558
 20
367.9392966910194
 30
0.0
 10
533.4523198120977
 20
367.9406661314197
 30
0.0
 10
533.3034098460206
 20
367.9420475558452
 30
0.0
 10
533.1645633823925
 20
367.9434152846149
 30
0.0
 10
533.0452431159674
 20
367.9446535154801
 30
0.0
 10
532.9437781062018
 20
367.94574983009
 30
0.0
 10
532.858288644926
 20
367.9467036254562
 30
0.0
 10
532.7814752817956
 20
367.9475849788093
 30
0.0
 10
532.7138388564853
 20
367.9483797041437
 30
0.0
 10
532.655880641796
 20
367.9490735197622
 30
0.0
 10
532.6081080197288
 20
367.9496523856209
 30
0.0
 10
532.5710155787542
 20
367.9501012077029
 30
0.0
 10
532.5449807008259
 20
367.950413711131
 30
0.0
 10
532.5290377391564
 20
367.9506030209064
 30
0.0
 10
532.5273202404113
 20
367.9506212106322
 30
0.0
 10
532.5264772933333
 20
367.9506301381358
 30
0.0
  0
LINE
  5
BB
330
1F
100
AcDbEntity
  8
0
  6
Continuous
 62
   252
370
     0
100
AcDbLine
 10
527.654363268
 20
421.9955986534
 30
0.0
 11
527.654363268
 21
372.0044013466
 31
0.0
  0
LINE
  5
BC
330
1F
100
AcDbEntity
  8
0
  6
Continuous
 62
   252
370
     0
100
AcDbLine
 10
547.8747256267
 20
372.1808617753
 30
0.0
 11
547.8747256267
 21
421.8191382246
 31
0.0
  0
LINE
  5
BD
330
1F
100
AcDbEntity
  8
0
  6
Continuous
 62
   252
370
     0
100
AcDbLine
 10
548.865714806
 20
420.8430193207
 30
0.0
 11
548.865714806
 21
373.1569806793
 31
0.0
  0
LINE
  5
BE
330
1F
100
AcDbEntity
  8
0
  6
Continuous
 62
   252
370
     0
100
AcDbLine
 10
525.9500000002
 20
372.5
 30
0.0
 11
525.9500000002
 21
421.5
 31
0.0
  0
LINE
  5
BF
330
1F
100
AcDbEntity
  8
0
  6
Continuous
 62
   252
370
     0
100
AcDbLine
 10
457.3630884744
 20
312.0
 30
0.0
 11
457.3630884744
 21
482.0
 31
0.0
  0
LINE
  5
C0
330
1F
100
AcDbEntity
  8
0
  6
Continuous
 62
   252
370
     0
100
AcDbLine
 10
467.0901369272
 20
312.2547117279
 30
0.0
 11
467.0901369256
 21
481.7452882721
 31
0.0
  0
LINE
  5
C1
330
1F
100
AcDbEntity
  8
0
  6
Continuous
 62
   252
370
     0
100
AcDbLine
 10
469.0358653406
 20
314.166464501
 30
0.0
 11
469.035865339
 21
479.833535499
 31
0.0
  0
LWPOLYLINE
  5
C2
330
1F
100
AcDbEntity
  8
0
  6
Continuous
 62
   252
370
     0
100
AcDbPolyline
 90
      121
 70
   128
 43
0.0
 10
470.6794085432
 20
371.5935220018
 10
470.6794085252
 20
371.6022253532
 10
470.679408506
 20
371.6283351624
 10
470.6794084856
 20
371.6718335349
 10
470.679408464
 20
371.732690659
 10
470.6794084412
 20
371.8108648265
 10
470.6794084173
 20
371.9063024606
 10
470.6794083922
 20
372.0189381531
 10
470.679408366
 20
372.1486947091
 10
470.6794083387
 20
372.2954832
 10
470.6794083103
 20
372.4592030243
 10
470.6794082808
 20
372.6397419766
 10
470.6794082503
 20
372.8369763245
 10
470.6794082187
 20
373.0507708934
 10
470.6794081862
 20
373.2809791593
 10
470.6794081526
 20
373.5274433488
 10
470.6794081181
 20
373.7899945478
 10
470.6794080827
 20
374.0684528167
 10
470.6794080463
 20
374.3626273142
 10
470.679408009
 20
374.6723164278
 10
470.6794079709
 20
374.9973079119
 10
470.679407932
 20
375.3373790338
 10
470.6794078922
 20
375.6922967256
 10
470.6794078517
 20
376.0618177444
 10
470.6794078104
 20
376.4456888391
 10
470.6794077683
 20
376.8436469235
 10
470.6794077256
 20
377.255419257
 10
470.6794076822
 20
377.6807236315
 10
470.6794076381
 20
378.1192685646
 10
470.6794075935
 20
378.5707534995
 10
470.6794075483
 20
379.034869011
 10
470.6794075025
 20
379.5112970175
 10
470.6794074562
 20
379.999710999
 10
470.6794074094
 20
380.4997762209
 10
470.6794073622
 20
381.0111499637
 10
470.6794073145
 20
381.5334817571
 10
470.6794072665
 20
382.0664136212
 10
470.6794072181
 20
382.6095803111
 10
470.6794071694
 20
383.1626095673
 10
470.6794071203
 20
383.7251223714
 10
470.6794070711
 20
384.296733205
 10
470.6794070216
 20
384.8770503148
 10
470.6794069719
 20
385.4656759803
 10
470.6794069221
 20
386.0622067869
 10
470.6794068722
 20
386.6662339022
 10
470.6794068221
 20
387.2773433563
 10
470.679406772
 20
387.8951163251
 10
470.6794067219
 20
388.5191294179
 10
470.6794066719
 20
389.1489549674
 10
470.6794066218
 20
389.7841613226
 10
470.6794065719
 20
390.4243131448
 10
470.6794065221
 20
391.0689717058
 10
470.6794064724
 20
391.717695189
 10
470.6794064229
 20
392.3700389916
 10
470.6794063737
 20
393.0255560298
 10
470.6794063247
 20
393.683797045
 10
470.679406276
 20
394.3443109116
 10
470.6794062276
 20
395.0066449464
 10
470.6794061796
 20
395.6703452188
 10
470.679406132
 20
396.3349568618
 10
470.6794060847
 20
397.0000243837
 10
470.679406038
 20
397.6650919804
 10
470.6794059917
 20
398.329703848
 10
470.679405946
 20
398.9934044945
 10
470.6794059008
 20
399.6557390527
 10
470.6794058561
 20
400.3162535916
 10
470.6794058121
 20
400.9744954276
 10
470.6794057688
 20
401.6300134345
 10
470.6794057261
 20
402.282358353
 10
470.6794056841
 20
402.9310830986
 10
470.6794056428
 20
403.5757430677
 10
470.6794056023
 20
404.2158964425
 10
470.6794055626
 20
404.8511044939
 10
470.6794055237
 20
405.4809318821
 10
470.6794054856
 20
406.1049469548
 10
470.6794054484
 20
406.7227220432
 10
470.6794054121
 20
407.3338337552
 10
470.6794053767
 20
407.9378632652
 10
470.6794053422
 20
408.5343966018
 10
470.6794053087
 20
409.1230249306
 10
470.6794052762
 20
409.7033448354
 10
470.6794052447
 20
410.2749585937
 10
470.6794052142
 20
410.83747445
 10
470.6794051848
 20
411.3905068842
 10
470.6794051565
 20
411.9336768753
 10
470.6794051292
 20
412.4666121619
 10
470.6794051031
 20
412.9889474966
 10
470.679405078
 20
413.500324897
 10
470.6794050542
 20
414.0003938904
 10
470.6794050314
 20
414.4888117547
 10
470.6794050099
 20
414.9652437526
 10
470.6794049896
 20
415.4293633614
 10
470.6794049704
 20
415.8808524966
 10
470.6794049525
 20
416.3194017303
 10
470.6794049358
 20
416.7447105027
 10
470.6794049204
 20
417.1564873283
 10
470.6794049062
 20
417.5544499959
 10
470.6794048932
 20
417.9383257618
 10
470.6794048816
 20
418.3078515367
 10
470.6794048712
 20
418.6627740661
 10
470.6794048621
 20
419.0028501039
 10
470.6794048543
 20
419.3278465788
 10
470.6794048478
 20
419.6375407545
 10
470.6794048426
 20
419.9317203822
 10
470.6794048387
 20
420.2101838458
 10
470.6794048361
 20
420.4727403003
 10
470.6794048348
 20
420.7192098027
 10
470.6794048348
 20
420.9494234351
 10
470.6794048362
 20
421.1632234205
 10
470.6794048388
 20
421.3604632312
 10
470.6794048428
 20
421.5410076888
 10
470.6794048481
 20
421.7047330571
 10
470.6794048547
 20
421.8515271271
 10
470.6794048625
 20
421.9812892933
 10
470.6794048717
 20
422.0939306232
 10
470.6794048821
 20
422.1893739181
 10
470.6794048939
 20
422.267553766
 10
470.6794049069
 20
422.3284165863
 10
470.6794049211
 20
422.3719206666
 10
470.6794049366
 20
422.3980361914
 10
470.6794049534
 20
422.4067452624
  0
SPLINE
  5
C3
330
1F
100
AcDbEntity
  8
0
  6
Continuous
 62
     7
370
    30
100
AcDbSpline
210
0.0
220
0.0
230
1.0
 70
     8
 71
     3
 72
     9
 73
     5
 74
     0
 42
0.000000001
 43
0.00000001
 40
0.0
 40
0.0
 40
0.0
 40
0.0
 40
0.4467148422827203
 40
0.9999999999999999
 40
0.9999999999999999
 40
0.9999999999999999
 40
0.9999999999999999
 10
32.02975776589434
 20
372.1467878649843
 30
0.0
 10
32.03405172087169
 20
371.6009325481974
 30
0.0
 10
32.04366401616815
 20
370.3790001986979
 30
0.0
 10
32.05327536423218
 20
369.1570700487314
 30
0.0
 10
32.0585931804617
 20
368.4809942329878
 30
0.0
  0
LINE
  5
C4
330
1F
100
AcDbEntity
  8
0
  6
Continuous
 62
     7
370
    30
100
AcDbLine
 10
44.1387472127
 20
368.4705760833
 30
0.0
 11
44.1667906157
 21
372.0408695841
 31
0.0
  0
SPLINE
  5
C5
330
1F
100
AcDbEntity
  8
0
  6
Continuous
 62
     7
370
    30
100
AcDbSpline
210
0.0
220
0.0
230
1.0
 70
     8
 71
     3
 72
    27
 73
    23
 74
     0
 42
0.000000001
 43
0.00000001
 40
0.0
 40
0.0
 40
0.0
 40
0.0
 40
0.0561622810353509
 40
0.1172358267453624
 40
0.1680238381632975
 40
0.2084169400197246
 40
0.2414796888262054
 40
0.2747554561844514
 40
0.3428946414162118
 40
0.4121301336408069
 40
0.4813552318577028
 40
0.55058353436057
 40
0.61961030274881
 40
0.6845290488116325
 40
0.7074163024193393
 40
0.7303223897143394
 40
0.7590045970253371
 40
0.7944792216430097
 40
0.8365713534540214
 40
0.8850549986549865
 40
0.9396466961341827
 40
1.0
 40
1.0
 40
1.0
 40
1.0
 10
32.05917464531494
 20
368.4802098914363
 30
0.0
 10
32.06665776530067
 20
368.4655059793985
 30
0.0
 10
32.08227838721968
 20
368.4348123314133
 30
0.0
 10
32.10766479822309
 20
368.3924422984372
 30
0.0
 10
32.13234118438103
 20
368.3551265053225
 30
0.0
 10
32.15372398252497
 20
368.325529407243
 30
0.0
 10
32.17290047887604
 20
368.3007067794767
 30
0.0
 10
32.19796813323091
 20
368.2701547289548
 30
0.0
 10
32.23149924488969
 20
368.2328263748027
 30
0.0
 10
32.27475806070823
 20
368.190182079322
 30
0.0
 10
32.3207853388941
 20
368.1500519039785
 30
0.0
 10
32.36913264083041
 20
368.1128506066465
 30
0.0
 10
32.41861329803127
 20
368.0793839105718
 30
0.0
 10
32.45827112205058
 20
368.0558592075249
 30
0.0
 10
32.4868744577457
 20
368.0403617844188
 30
0.0
 10
32.50632352543344
 20
368.0303287761894
 30
0.0
 10
32.52932448578548
 20
368.0191206266319
 30
0.0
 10
32.55777385888803
 20
368.0062463056611
 30
0.0
 10
32.59203082420014
 20
367.9921317379462
 30
0.0
 10
32.63211532472334
 20
367.9775097701777
 30
0.0
 10
32.67791258203965
 20
367.9629538267514
 30
0.0
 10
32.7107101622102
 20
367.9548424613432
 30
0.0
 10
32.72793093996422
 20
367.9505834879602
 30
0.0
  0
SPLINE
  5
C6
330
1F
100
AcDbEntity
  8
0
  6
Continuous
 62
     7
370
    30
100
AcDbSpline
210
0.0
220
0.0
230
1.0
 70
     8
 71
     3
 72
    32
 73
    28
 74
     0
 42
0.000000001
 43
0.00000001
 40
0.0
 40
0.0
 40
0.0
 40
0.0
 40
0.0303599673822891
 40
0.0695716566441544
 40
0.1089469494369623
 40
0.148471852717246
 40
0.1881320322405003
 40
0.2279128425148275
 40
0.2677993583063475
 40
0.3077764075531186
 40
0.3497374080307925
 40
0.3917629863523052
 40
0.4338350778426056
 40
0.4759354964305153
 40
0.518045981954308
 40
0.560148247890267
 40
0.6022240292314938
 40
0.644255130242822
 40
0.6862234718188827
 40
0.728111138176145
 40
0.7699004226161235
 40
0.8115738721057218
 40
0.8507445322227043
 40
0.8897828575133092
 40
0.9286750394636536
 40
0.9674075946596937
 40
1.0
 40
1.0
 40
1.0
 40
1.0
 10
32.72851491115288
 20
367.9506781385929
 30
0.0
 10
32.83543620523904
 20
367.9262490489239
 30
0.0
 10
33.08045265952059
 20
367.8702683485106
 30
0.0
 10
33.46609134425441
 20
367.7914939605934
 30
0.0
 10
33.88545402614108
 20
367.7127618895102
 30
0.0
 10
34.30781725638314
 20
367.6415759311593
 30
0.0
 10
34.73282990595563
 20
367.5777323618588
 30
0.0
 10
35.16022252428589
 20
367.521402067132
 30
0.0
 10
35.58969656913036
 20
367.472642309614
 30
0.0
 10
36.02781928675154
 20
367.4308734623164
 30
0.0
 10
36.47434471352587
 20
367.3965894049079
 30
0.0
 10
36.9289925899141
 20
367.3702871175822
 30
0.0
 10
37.3845585782482
 20
367.3525334386946
 30
0.0
 10
37.84068477183292
 20
367.3433561511288
 30
0.0
 10
38.29701191514384
 20
367.3427695057182
 30
0.0
 10
38.75318020291051
 20
367.3507742296654
 30
0.0
 10
39.20883025943117
 20
367.3673575180258
 30
0.0
 10
39.66360408479708
 20
367.3924930437557
 30
0.0
 10
40.11714593906354
 20
367.4261412293578
 30
0.0
 10
40.56910346206958
 20
367.46824877222
 30
0.0
 10
41.01912783956254
 20
367.5187511977928
 30
0.0
 10
41.45838903851211
 20
367.5764494156122
 30
0.0
 10
41.88668358396967
 20
367.6407303489924
 30
0.0
 10
42.30387067708443
 20
367.71090301378
 30
0.0
 10
42.71813863539555
 20
367.7884075296279
 30
0.0
 10
43.10831578488904
 20
367.8678820199862
 30
0.0
 10
43.35955953646872
 20
367.9250438644754
 30
0.0
 10
43.47436700539865
 20
367.951164341677
 30
0.0
  0
SPLINE
  5
C7
330
1F
100
AcDbEntity
  8
0
  6
Continuous
 62
     7
370
    30
100
AcDbSpline
210
0.0
220
0.0
230
1.0
 70
     8
 71
     3
 72
    27
 73
    23
 74
     0
 42
0.000000001
 43
0.00000001
 40
0.0
 40
0.0
 40
0.0
 40
0.0
 40
0.0595507008454949
 40
0.111881412853938
 40
0.1566072410575218
 40
0.1934248690155375
 40
0.222774634416407
 40
0.2509361027785315
 40
0.2794913941742315
 40
0.381942670347003
 40
0.4850867575213703
 40
0.5538885570556282
 40
0.621974397063829
 40
0.6851103471522535
 40
0.7073023839648515
 40
0.7318536608590027
 40
0.7627379528921676
 40
0.7999612204556981
 40
0.8435007888734631
 40
0.8933090160915819
 40
0.9493037730564823
 40
0.9999999999999999
 40
0.9999999999999999
 40
0.9999999999999999
 40
0.9999999999999999
 10
43.47371225904416
 20
367.9506324302807
 30
0.0
 10
43.49050844422979
 20
367.9547718354511
 30
0.0
 10
43.52206442765979
 20
367.9625487800084
 30
0.0
 10
43.56547913601319
 20
367.9761907713007
 30
0.0
 10
43.60209584606032
 20
367.9892823002247
 30
0.0
 10
43.63201206293815
 20
368.0012257344476
 30
0.0
 10
43.65715510164914
 20
368.0121099111472
 30
0.0
 10
43.67983909995325
 20
368.0226150703513
 30
0.0
 10
43.7212939503984
 20
368.0430739063049
 30
0.0
 10
43.78054163806035
 20
368.0766563887481
 30
0.0
 10
43.84615681562578
 20
368.1220755540662
 30
0.0
 10
43.9003691292548
 20
368.1659616138205
 30
0.0
 10
43.94328340921276
 20
368.2051653265017
 30
0.0
 10
43.97442208583095
 20
368.237066672736
 30
0.0
 10
43.99584811669223
 20
368.2607170972385
 30
0.0
 10
44.01064199001714
 20
368.2777313150418
 30
0.0
 10
44.02780539897081
 20
368.2984611495289
 30
0.0
 10
44.04773393257851
 20
368.3240443979897
 30
0.0
 10
44.06998534870183
 20
368.3547616404194
 30
0.0
 10
44.09393535073703
 20
368.3909295774292
 30
0.0
 10
44.11747711103424
 20
368.429841530349
 30
0.0
 10
44.13175270527226
 20
368.4573476706117
 30
0.0
 10
44.13853602227551
 20
368.4704177303112
 30
0.0
  0
LINE
  5
C8
330
1F
100
AcDbEntity
  8
0
  6
Continuous
 62
     7
370
    30
100
AcDbLine
 10
44.1387801638
 20
368.4704827019
 30
0.0
 11
44.1668229514
 21
372.0408693019
 31
0.0
  0
ARC
  5
C9
330
1F
100
AcDbEntity
  8
0
  6
Continuous
 62
     7
370
    30
100
AcDbCircle
 10
48.3499999998
 20
421.4956176919
 30
0.0
 40
0.5000000000000071
100
AcDbArc
 50
0.0
 51
90.5000000059
  0
ARC
  5
CA
330
1F
100
AcDbEntity
  8
0
  6
Continuous
 62
     7
370
    30
100
AcDbCircle
 10
48.3499999998
 20
372.5043823081
 30
0.0
 40
0.5000000000000222
100
AcDbArc
 50
269.4999999941
 51
360.0
  0
LINE
  5
CB
330
1F
100
AcDbEntity
  8
0
  6
Continuous
 62
     7
370
    30
100
AcDbLine
 10
48.345636732
 20
421.9955986534
 30
0.0
 11
28.1252743733
 21
421.8191382246
 31
0.0
  0
LINE
  5
CC
330
1F
100
AcDbEntity
  8
0
  6
Continuous
 62
     7
370
    30
100
AcDbLine
 10
28.1252743733
 20
372.1808617753
 30
0.0
 11
32.0297577659
 21
372.146787865
 31
0.0
  0
LINE
  5
CD
330
1F
100
AcDbEntity
  8
0
  6
Continuous
 62
     7
370
    30
100
AcDbLine
 10
44.1667906157
 20
372.0408695841
 30
0.0
 11
48.345636732
 21
372.0044013465
 31
0.0
  0
ARC
  5
CE
330
1F
100
AcDbEntity
  8
0
  6
Continuous
 62
     7
370
    30
100
AcDbCircle
 10
28.1340009088
 20
420.8191763014
 30
0.0
 40
1.000000000000002
100
AcDbArc
 50
90.5
 51
178.6337661541
  0
ARC
  5
CF
330
1F
100
AcDbEntity
  8
0
  6
Continuous
 62
     7
370
    30
100
AcDbCircle
 10
28.1340009088
 20
373.1808236986
 30
0.0
 40
1.000000000000002
100
AcDbArc
 50
181.3662338459
 51
269.5
  0
ARC
  5
D0
330
1F
100
AcDbEntity
  8
0
  6
Continuous
 62
     7
370
    30
100
AcDbCircle
 10
1026.8500000002
 20
397.0
 30
0.0
 40
1000.000000000204
100
AcDbArc
 50
178.6337661534
 51
181.3662338466
  0
LINE
  5
D1
330
1F
100
AcDbEntity
  8
0
  6
Continuous
 62
     7
370
    30
100
AcDbLine
 10
48.8499999998
 20
375.6047978659
 30
0.0
 11
49.5499999998
 21
375.6047978659
 31
0.0
  0
LINE
  5
D2
330
1F
100
AcDbEntity
  8
0
  6
Continuous
 62
     7
370
    30
100
AcDbLine
 10
49.5499999998
 20
418.395202134
 30
0.0
 11
48.8499999998
 21
418.395202134
 31
0.0
  0
LINE
  5
D3
330
1F
100
AcDbEntity
  8
0
  6
Continuous
 62
     7
370
    30
100
AcDbLine
 10
105.3205948069
 20
421.5
 30
0.0
 11
50.0499999998
 21
421.5
 31
0.0
  0
LINE
  5
D4
330
1F
100
AcDbEntity
  8
0
  6
Continuous
 62
     7
370
    30
100
AcDbLine
 10
50.0499999998
 20
372.5
 30
0.0
 11
105.3205913452
 21
372.5
 31
0.0
  0
ARC
  5
D5
330
1F
100
AcDbEntity
  8
0
  6
Continuous
 62
     7
370
    30
100
AcDbCircle
 10
50.0499999998
 20
421.0
 30
0.0
 40
0.5
100
AcDbArc
 50
90.0
 51
180.0
  0
ARC
  5
D6
330
1F
100
AcDbEntity
  8
0
  6
Continuous
 62
     7
370
    30
100
AcDbCircle
 10
50.0499999998
 20
373.0
 30
0.0
 40
0.5
100
AcDbArc
 50
180.0
 51
270.0
  0
ARC
  5
D7
330
1F
100
AcDbEntity
  8
0
  6
Continuous
 62
     7
370
    30
100
AcDbCircle
 10
118.6499999998
 20
481.5001713375
 30
0.0
 40
0.5000000000000124
100
AcDbArc
 50
359.9999999999
 51
91.5
  0
ARC
  5
D8
330
1F
100
AcDbEntity
  8
0
  6
Continuous
 62
     7
370
    30
100
AcDbCircle
 10
118.6499999998
 20
312.4998286625
 30
0.0
 40
0.5000000000000039
100
AcDbArc
 50
268.5000000001
 51
0.0000000001
  0
LINE
  5
D9
330
1F
100
AcDbEntity
  8
0
  6
Continuous
 62
     7
370
    30
100
AcDbLine
 10
118.6369115256
 20
482.0
 30
0.0
 11
108.9098630744
 21
481.7452882721
 31
0.0
  0
LINE
  5
DA
330
1F
100
AcDbEntity
  8
0
  6
Continuous
 62
     7
370
    30
100
AcDbLine
 10
108.9098630728
 20
312.2547117279
 30
0.0
 11
118.6369115256
 21
312.0
 31
0.0
  0
ARC
  5
DB
330
1F
100
AcDbEntity
  8
0
  6
Continuous
 62
     7
370
    30
100
AcDbCircle
 10
108.9622169694
 20
314.2540263778
 30
0.0
 40
2.000000000000018
100
AcDbArc
 50
182.5092650429
 51
268.4999999999
  0
ARC
  5
DC
330
1F
100
AcDbEntity
  8
0
  6
Continuous
 62
     7
370
    30
100
AcDbCircle
 10
108.962216971
 20
479.7459736222
 30
0.0
 40
2.000000000000011
100
AcDbArc
 50
91.499999999
 51
177.4907349559
  0
ARC
  5
DD
330
1F
100
AcDbEntity
  8
0
  6
Continuous
 62
     7
370
    30
100
AcDbCircle
 10
1997.1499999598
 20
396.9999999813
 30
0.0
 40
1892.000000000004
100
AcDbArc
 50
180.7694121102
 51
182.509265046
  0
ARC
  5
DE
330
1F
100
AcDbEntity
  8
0
  6
Continuous
 62
     7
370
    30
100
AcDbCircle
 10
1997.1499999598
 20
396.9999999813
 30
0.0
 40
1892.000000000004
100
AcDbArc
 50
177.4907349529
 51
179.2305797943
  0
SPLINE
  5
DF
330
1F
100
AcDbEntity
  8
0
  6
Continuous
 62
     7
370
    30
100
AcDbSpline
210
0.0
220
0.0
230
1.0
 70
     8
 71
     3
 72
    15
 73
    11
 74
     0
 42
0.000000001
 43
0.00000001
 40
0.0
 40
0.0
 40
0.0
 40
0.0
 40
0.1090427455543191
 40
0.2339696061734089
 40
0.3591742576312087
 40
0.485952206841811
 40
0.6129954700950022
 40
0.7411166287406787
 40
0.8704335644465719
 40
1.0
 40
1.0
 40
1.0
 40
1.0
 10
44.13829758974207
 20
368.4705796157971
 30
0.0
 10
44.13785815270089
 20
368.4713066830869
 30
0.0
 10
44.13691526639568
 20
368.472866728614
 30
0.0
 10
44.1251584389848
 20
368.4733210549502
 30
0.0
 10
44.10529600597388
 20
368.4725924535747
 30
0.0
 10
44.07682609756125
 20
368.4707311162182
 30
0.0
 10
44.04006154127131
 20
368.46814451378
 30
0.0
 10
43.99485857098389
 20
368.4652954194792
 30
0.0
 10
43.94198548546792
 20
368.4625635743434
 30
0.0
 10
43.90013585775229
 20
368.4615184691446
 30
0.0
 10
43.87919087752444
 20
368.4609954129331
 30
0.0
  0
SPLINE
  5
E0
330
1F
100
AcDbEntity
  8
0
  6
Continuous
 62
     7
370
    30
100
AcDbSpline
210
0.0
220
0.0
230
1.0
 70
     8
 71
     3
 72
    31
 73
    27
 74
     0
 42
0.000000001
 43
0.00000001
 40
0.0
 40
0.0
 40
0.0
 40
0.0
 40
0.0436667654917993
 40
0.0873340807085709
 40
0.1314290075436264
 40
0.1755243972087634
 40
0.2202341171082653
 40
0.264944257177638
 40
0.310068464586336
 40
0.3551930447741261
 40
0.3879072101583201
 40
0.4206214619266621
 40
0.4572239905020076
 40
0.4938352858438224
 40
0.5304381782770903
 40
0.5748893254948261
 40
0.619340749819473
 40
0.6641129635107015
 40
0.7088857929687108
 40
0.7450896849757583
 40
0.7812937819318875
 40
0.8298112775287628
 40
0.8783428238980218
 40
0.9268619268975313
 40
0.9634309162929465
 40
1.0
 40
1.0
 40
1.0
 40
1.0
 10
43.87919178264893
 20
368.4609954367388
 30
0.0
 10
43.85639485607848
 20
368.4604690230033
 30
0.0
 10
43.81080071594494
 20
368.4594161889053
 30
0.0
 10
43.73262607011704
 20
368.4575427663455
 30
0.0
 10
43.64748803234222
 20
368.4557904699953
 30
0.0
 10
43.55446668858741
 20
368.4542426307764
 30
0.0
 10
43.45418813211634
 20
368.4530500615638
 30
0.0
 10
43.34646058473092
 20
368.45222156532
 30
0.0
 10
43.23196137197474
 20
368.4517764330661
 30
0.0
 10
43.12200813632637
 20
368.4516443144448
 30
0.0
 10
43.01898100027833
 20
368.4516752904035
 30
0.0
 10
42.92076737024668
 20
368.4517594030626
 30
0.0
 10
42.81547251915305
 20
368.4518473743386
 30
0.0
 10
42.70281346966448
 20
368.4518421058212
 30
0.0
 10
42.57850469832336
 20
368.4516353047496
 30
0.0
 10
42.44181846831697
 20
368.4510303756655
 30
0.0
 10
42.29172105433616
 20
368.4497856470912
 30
0.0
 10
42.13700156089389
 20
368.4479027480116
 30
0.0
 10
41.98812282610123
 20
368.4457445308153
 30
0.0
 10
41.84652333463929
 20
368.4435091167454
 30
0.0
 10
41.69792047698988
 20
368.4410759660259
 30
0.0
 10
41.53116390521122
 20
368.4383316806127
 30
0.0
 10
41.34557347924231
 20
368.4354059845026
 30
0.0
 10
41.1722856509423
 20
368.4329410683832
 30
0.0
 10
41.01251761784896
 20
368.4309493757605
 30
0.0
 10
40.91519300809328
 20
368.4300097842403
 30
0.0
 10
40.86653064046532
 20
368.4295399878743
 30
0.0
  0
SPLINE
  5
E1
330
1F
100
AcDbEntity
  8
0
  6
Continuous
 62
     7
370
    30
100
AcDbSpline
210
0.0
220
0.0
230
1.0
 70
     8
 71
     3
 72
    75
 73
    71
 74
     0
 42
0.000000001
 43
0.00000001
 40
0.0
 40
0.0
 40
0.0
 40
0.0
 40
0.0134949832378431
 40
0.0269967256925866
 40
0.0432106659284835
 40
0.0649098888610322
 40
0.0866355108749653
 40
0.1086594475955078
 40
0.1307102144948407
 40
0.1528419333622943
 40
0.1750007861863689
 40
0.1965913498300564
 40
0.2181819761892758
 40
0.2397726940164442
 40
0.2613635138833139
 40
0.2829542490192778
 40
0.3045448909564081
 40
0.3261354632584897
 40
0.3477259887949911
 40
0.3610246459477128
 40
0.3743291485670984
 40
0.3959196393074024
 40
0.4175351829520753
 40
0.4392273853076717
 40
0.4609458525564569
 40
0.4829699106000665
 40
0.5050233819183235
 40
0.5188655791360784
 40
0.5327156737055948
 40
0.549350394412493
 40
0.5601507186575357
 40
0.5709626871999978
 40
0.5817790017400585
 40
0.5926180029999694
 40
0.6034617010470171
 40
0.6143583126344084
 40
0.6252600824615675
 40
0.6362366693350151
 40
0.6472190122638395
 40
0.6583558579684442
 40
0.6695120601688613
 40
0.6806748847736692
 40
0.6919119527517449
 40
0.7031559946935587
 40
0.7144213529391727
 40
0.7256939793299426
 40
0.737910857078713
 40
0.7501373713189057
 40
0.7609319110087316
 40
0.7717333342927248
 40
0.7825279020853397
 40
0.7933295824760791
 40
0.8041241809060347
 40
0.81492614544267
 40
0.8257207791078025
 40
0.8365230730280663
 40
0.8473177482229469
 40
0.8581204308448838
 40
0.871619409799235
 40
0.8851349462727992
 40
0.9013842605939791
 40
0.9121791045422979
 40
0.9229833515103673
 40
0.9337928462482549
 40
0.9449697581256254
 40
0.9561577022341596
 40
0.9677155127385921
 40
0.9799961492146191
 40
0.9936991431165304
 40
1.0
 40
1.0
 40
1.0
 40
1.0
 10
40.866509219623
 20
368.429509541579
 30
0.0
 10
40.81885711791435
 20
368.4291110357825
 30
0.0
 10
40.72352904704304
 20
368.4283138245902
 30
0.0
 10
40.56921153912782
 20
368.42710243102
 30
0.0
 10
40.38406337540787
 20
368.4258893077063
 30
0.0
 10
40.1670083488644
 20
368.4249020228489
 30
0.0
 10
39.9263288332328
 20
368.424461791288
 30
0.0
 10
39.68213590315739
 20
368.4247063082444
 30
0.0
 10
39.4345008473196
 20
368.425621385226
 30
0.0
 10
39.18471879685222
 20
368.4271181005772
 30
0.0
 10
38.9353331855519
 20
368.4290272829183
 30
0.0
 10
38.68698025638434
 20
368.431124565004
 30
0.0
 10
38.440073683462
 20
368.4331402603858
 30
0.0
 10
38.19274256765458
 20
368.4347968394951
 30
0.0
 10
37.94528948025442
 20
368.4356693705921
 30
0.0
 10
37.69803205802665
 20
368.4357285368472
 30
0.0
 10
37.45127172928974
 20
368.4351595665067
 30
0.0
 10
37.20529958136787
 20
368.43405017182
 30
0.0
 10
36.99174495017284
 20
368.4326653950359
 30
0.0
 10
36.81033985513967
 20
368.4312050862605
 30
0.0
 10
36.62963157992944
 20
368.4295231542909
 30
0.0
 10
36.41891961617149
 20
368.4273515140757
 30
0.0
 10
36.17891157959893
 20
368.4248908022381
 30
0.0
 10
35.94070437604741
 20
368.4227409336659
 30
0.0
 10
35.70360496699898
 20
368.4211434640416
 30
0.0
 10
35.46816897972878
 20
368.4203181584279
 30
0.0
 10
35.26387060230689
 20
368.4204295202261
 30
0.0
 10
35.09072848315405
 20
368.4211786060487
 30
0.0
 10
34.93815049761393
 20
368.4223105491108
 30
0.0
 10
34.79790945911293
 20
368.4238469249744
 30
0.0
 10
34.66968499111167
 20
368.4256620598287
 30
0.0
 10
34.56215609147464
 20
368.4274514428717
 30
0.0
 10
34.45575516260166
 20
368.4294770142431
 30
0.0
 10
34.35057584707901
 20
368.4317153900519
 30
0.0
 10
34.24653799350645
 20
368.4341394468709
 30
0.0
 10
34.14378205286044
 20
368.436708875765
 30
0.0
 10
34.04217957151381
 20
368.4393802324512
 30
0.0
 10
33.94197732620824
 20
368.4420883968253
 30
0.0
 10
33.8428318289138
 20
368.4447742599039
 30
0.0
 10
33.7450441801595
 20
368.4473334726003
 30
0.0
 10
33.64872527442349
 20
368.4497423387593
 30
0.0
 10
33.55419472695691
 20
368.451994568589
 30
0.0
 10
33.46157920108238
 20
368.4540746151617
 30
0.0
 10
33.37093191565696
 20
368.4559626308413
 30
0.0
 10
33.28251918750571
 20
368.4576251589903
 30
0.0
 10
33.19403833298131
 20
368.4590646655905
 30
0.0
 10
33.10584758730526
 20
368.4601965350673
 30
0.0
 10
33.02174252982817
 20
368.4609222465288
 30
0.0
 10
32.9437293613402
 20
368.461277169577
 30
0.0
 10
32.87152455877726
 20
368.4613271603489
 30
0.0
 10
32.80187953749196
 20
368.4611157521372
 30
0.0
 10
32.73489391774123
 20
368.4606805089318
 30
0.0
 10
32.67060844154079
 20
368.4600669414301
 30
0.0
 10
32.60912219330203
 20
368.4593279205623
 30
0.0
 10
32.55047807192341
 20
368.4585216115615
 30
0.0
 10
32.49477441547281
 20
368.4577116329076
 30
0.0
 10
32.44205631924765
 20
368.4569647357075
 30
0.0
 10
32.38827769511234
 20
368.4563001453754
 30
0.0
 10
32.33445616012514
 20
368.4558540674473
 30
0.0
 10
32.27828442377774
 20
368.4558418846269
 30
0.0
 10
32.23135275570932
 20
368.4565064060035
 30
0.0
 10
32.19257739606406
 20
368.4578683161129
 30
0.0
 10
32.16287204557425
 20
368.4596090736942
 30
0.0
 10
32.13642777680709
 20
368.4620593884654
 30
0.0
 10
32.11344952825185
 20
368.4651641602756
 30
0.0
 10
32.09398174894541
 20
368.4686794671185
 30
0.0
 10
32.07805726977372
 20
368.472437437286
 30
0.0
 10
32.06626830613851
 20
368.4761712914026
 30
0.0
 10
32.05940657265288
 20
368.4791447887698
 30
0.0
 10
32.05971140089422
 20
368.4802062767336
 30
0.0
 10
32.05980741636363
 20
368.4805406265453
 30
0.0
  0
LINE
  5
E2
330
1F
100
AcDbEntity
  8
0
  6
Continuous
 62
     7
370
    30
100
AcDbLine
 10
32.7279393594
 20
367.9505843303
 30
0.0
 11
32.7284918511
 21
367.9505756226
 31
0.0
  0
LINE
  5
E3
330
1F
100
AcDbEntity
  8
0
  6
Continuous
 62
     7
370
    30
100
AcDbLine
 10
43.4735223534
 20
367.9506301341
 30
0.0
 11
43.47370222
 21
367.9506321652
 31
0.0
  0
LINE
  5
E4
330
1F
100
AcDbEntity
  8
0
  6
Continuous
 62
     7
370
    30
100
AcDbLine
 10
48.8499999998
 20
397.0001053311
 30
0.0
 11
48.8499999998
 21
372.5043823081
 31
0.0
  0
LINE
  5
E5
330
1F
100
AcDbEntity
  8
0
  6
Continuous
 62
     7
370
    30
100
AcDbLine
 10
48.8499999998
 20
421.4956176919
 30
0.0
 11
48.8499999998
 21
397.0001053311
 31
0.0
  0
LINE
  5
E6
330
1F
100
AcDbEntity
  8
0
  6
Continuous
 62
     7
370
    30
100
AcDbLine
 10
49.5499999998
 20
421.0
 30
0.0
 11
49.5499999998
 21
373.0
 31
0.0
  0
LINE
  5
E7
330
1F
100
AcDbEntity
  8
0
  6
Continuous
 62
     7
370
    30
100
AcDbLine
 10
119.1499999998
 20
397.0003633507
 30
0.0
 11
119.1499999998
 21
312.4998286625
 31
0.0
  0
LINE
  5
E8
330
1F
100
AcDbEntity
  8
0
  6
Continuous
 62
     7
370
    30
100
AcDbLine
 10
119.1499999998
 20
481.5001713375
 30
0.0
 11
119.1499999998
 21
397.0003633507
 31
0.0
  0
LWPOLYLINE
  5
E9
330
1F
100
AcDbEntity
  8
0
  6
Continuous
 62
     7
370
    30
100
AcDbPolyline
 90
      122
 70
   128
 43
0.0
 10
105.3205950466
 20
422.4067452624
 10
105.3205950286
 20
422.398041911
 10
105.3205950094
 20
422.3719321018
 10
105.320594989
 20
422.3284337294
 10
105.3205949674
 20
422.2675766052
 10
105.3205949446
 20
422.1894024377
 10
105.3205949207
 20
422.0939648036
 10
105.3205948956
 20
421.9813291112
 10
105.3205948694
 20
421.8515725551
 10
105.3205948421
 20
421.7047840642
 10
105.3205948137
 20
421.5410642399
 10
105.3205947842
 20
421.3605252876
 10
105.3205947537
 20
421.1632909397
 10
105.3205947222
 20
420.9494963708
 10
105.3205946896
 20
420.7192881049
 10
105.3205946561
 20
420.4728239154
 10
105.3205946216
 20
420.2102727164
 10
105.3205945861
 20
419.9318144475
 10
105.3205945497
 20
419.63763995
 10
105.3205945125
 20
419.3279508365
 10
105.3205944744
 20
419.0029593523
 10
105.3205944354
 20
418.6628882304
 10
105.3205943957
 20
418.3079705387
 10
105.3205943551
 20
417.9384495198
 10
105.3205943138
 20
417.5545784252
 10
105.3205942718
 20
417.1566203407
 10
105.320594229
 20
416.7448480072
 10
105.3205941856
 20
416.3195436327
 10
105.3205941416
 20
415.8809986996
 10
105.3205940969
 20
415.4295137647
 10
105.3205940517
 20
414.9653982532
 10
105.3205940059
 20
414.4889702467
 10
105.3205939596
 20
414.0005562652
 10
105.3205939129
 20
413.5004910433
 10
105.3205938656
 20
412.9891173005
 10
105.320593818
 20
412.4667855071
 10
105.3205937699
 20
411.933853643
 10
105.3205937215
 20
411.3906869532
 10
105.3205936728
 20
410.8376576969
 10
105.3205936238
 20
410.2751448929
 10
105.3205935745
 20
409.7035340592
 10
105.320593525
 20
409.1232169494
 10
105.3205934754
 20
408.5345912839
 10
105.3205934255
 20
407.9380604773
 10
105.3205933756
 20
407.334033362
 10
105.3205933256
 20
406.722923908
 10
105.3205932755
 20
406.1051509392
 10
105.3205932254
 20
405.4811378463
 10
105.3205931753
 20
404.8513122968
 10
105.3205931253
 20
404.2161059416
 10
105.3205930754
 20
403.5759541194
 10
105.3205930255
 20
402.9312955584
 10
105.3205929759
 20
402.2825720752
 10
105.3205929264
 20
401.6302282726
 10
105.3205928771
 20
400.9747112344
 10
105.3205928281
 20
400.3164702192
 10
105.3205927794
 20
399.6559563526
 10
105.3205927311
 20
398.9936223178
 10
105.320592683
 20
398.3299220454
 10
105.3205926354
 20
397.6653104024
 10
105.3205925882
 20
397.0002428805
 10
105.3205925414
 20
396.3351752838
 10
105.3205924952
 20
395.6705634162
 10
105.3205924494
 20
395.0068627697
 10
105.3205924042
 20
394.3445282115
 10
105.3205923596
 20
393.6840136726
 10
105.3205923156
 20
393.0257718366
 10
105.3205922722
 20
392.3702538297
 10
105.3205922295
 20
391.7179089112
 10
105.3205921875
 20
391.0691841656
 10
105.3205921462
 20
390.4245241965
 10
105.3205921057
 20
389.7843708217
 10
105.320592066
 20
389.1491627703
 10
105.3205920271
 20
388.5193353821
 10
105.320591989
 20
387.8953203094
 10
105.3205919518
 20
387.277545221
 10
105.3205919155
 20
386.6664335091
 10
105.3205918801
 20
386.062403999
 10
105.3205918456
 20
385.4658706624
 10
105.3205918122
 20
384.8772423336
 10
105.3205917796
 20
384.2969224289
 10
105.3205917481
 20
383.7253086706
 10
105.3205917177
 20
383.1627928142
 10
105.3205916883
 20
382.60976038
 10
105.3205916599
 20
382.0665903889
 10
105.3205916326
 20
381.5336551024
 10
105.3205916065
 20
381.0113197676
 10
105.3205915815
 20
380.4999423673
 10
105.3205915576
 20
379.9998733738
 10
105.3205915349
 20
379.5114555095
 10
105.3205915134
 20
379.0350235116
 10
105.320591493
 20
378.5709039029
 10
105.3205914739
 20
378.1194147676
 10
105.320591456
 20
377.6808655339
 10
105.3205914393
 20
377.2555567615
 10
105.3205914238
 20
376.8437799359
 10
105.3205914096
 20
376.4458172683
 10
105.3205913967
 20
376.0619415024
 10
105.320591385
 20
375.6924157275
 10
105.3205913746
 20
375.3374931981
 10
105.3205913655
 20
374.9974171604
 10
105.3205913577
 20
374.6724206855
 10
105.3205913512
 20
374.3627265097
 10
105.320591346
 20
374.068546882
 10
105.3205913421
 20
373.7900834185
 10
105.3205913395
 20
373.5275269639
 10
105.3205913383
 20
373.2810574615
 10
105.3205913383
 20
373.0508438292
 10
105.3205913396
 20
372.8370438437
 10
105.3205913423
 20
372.639804033
 10
105.3205913463
 20
372.4592595754
 10
105.3205913515
 20
372.2955342071
 10
105.3205913581
 20
372.1487401371
 10
105.320591366
 20
372.018977971
 10
105.3205913751
 20
371.906336641
 10
105.3205913856
 20
371.8108933461
 10
105.3205913973
 20
371.7327134982
 10
105.3205914103
 20
371.6718506779
 10
105.3205914246
 20
371.6283465976
 10
105.3205914401
 20
371.6022310728
 10
105.3205914568
 20
371.5935220018
 10
105.3205914568
 20
371.5935220018
  0
SPLINE
  5
EA
330
1F
100
AcDbEntity
  8
0
  6
Continuous
 62
   252
370
     0
100
AcDbSpline
210
0.0
220
0.0
230
1.0
 70
     8
 71
     3
 72
    16
 73
    12
 74
     0
 42
0.000000001
 43
0.00000001
 40
0.0
 40
0.0
 40
0.0
 40
0.0
 40
0.1049205756305259
 40
0.2125712451237031
 40
0.322612876137128
 40
0.4346514475642201
 40
0.548244237127272
 40
0.6608562556919014
 40
0.7740184564679367
 40
0.8872328029432112
 40
1.0
 40
1.0
 40
1.0
 40
1.0
 10
40.61350059330749
 20
367.9287731498359
 30
0.0
 10
40.62424715809038
 20
367.9369688944076
 30
0.0
 10
40.64601991946699
 20
367.9535736415497
 30
0.0
 10
40.67776301150123
 20
367.9882333409533
 30
0.0
 10
40.70887149217157
 20
368.0306002064197
 30
0.0
 10
40.73880798900112
 20
368.0813119389857
 30
0.0
 10
40.76695254845536
 20
368.1395358352881
 30
0.0
 10
40.79291972681859
 20
368.2046261488512
 30
0.0
 10
40.81629352519884
 20
368.2758123205458
 30
0.0
 10
40.83717553933103
 20
368.3522210427989
 30
0.0
 10
40.84861193217887
 20
368.4070555894336
 30
0.0
 10
40.85431881401415
 20
368.4344186122241
 30
0.0
  0
SPLINE
  5
EB
330
1F
100
AcDbEntity
  8
0
  6
Continuous
 62
   252
370
     0
100
AcDbSpline
210
0.0
220
0.0
230
1.0
 70
     8
 71
     3
 72
    30
 73
    26
 74
     0
 42
0.000000001
 43
0.00000001
 40
0.0
 40
0.0
 40
0.0
 40
0.0
 40
0.0414165793541906
 40
0.0828086441022075
 40
0.1241917606017805
 40
0.1655791037518645
 40
0.2069817299651829
 40
0.2484088562669703
 40
0.2981629313560299
 40
0.3479741459564658
 40
0.3978514494783018
 40
0.4478025825853711
 40
0.4978347876082754
 40
0.5395968052544157
 40
0.5814250492381278
 40
0.6233222347597374
 40
0.6652675979588705
 40
0.7072304745112047
 40
0.7491844824723302
 40
0.79110841605409
 40
0.8329870452718704
 40
0.8748119439246924
 40
0.9165823406573843
 40
0.9583059831590645
 40
1.0
 40
1.0
 40
1.0
 40
1.0
 10
40.61286226039
 20
367.9283331752039
 30
0.0
 10
40.53154040314996
 20
367.9280055728944
 30
0.0
 10
40.36894482333807
 20
367.9273505621844
 30
0.0
 10
40.11991676303672
 20
367.9264866591087
 30
0.0
 10
39.86778318345209
 20
367.9257127825338
 30
0.0
 10
39.61253710964576
 20
367.9250392611833
 30
0.0
 10
39.35468637664316
 20
367.924465886124
 30
0.0
 10
39.07724852369916
 20
367.9239638702737
 30
0.0
 10
38.78017144338321
 20
367.9235609130271
 30
0.0
 10
38.46371195686834
 20
367.9232885249128
 30
0.0
 10
38.14600166578693
 20
367.9231738384308
 30
0.0
 10
37.82773333105519
 20
367.9232203629005
 30
0.0
 10
37.52730648410093
 20
367.9234198247386
 30
0.0
 10
37.24523790332285
 20
367.9237445870571
 30
0.0
 10
36.98172928741043
 20
367.9241677650782
 30
0.0
 10
36.71965656225376
 20
367.9247123047708
 30
0.0
 10
36.45957676087225
 20
367.9253734283047
 30
0.0
 10
36.20213975433102
 20
367.9261439289102
 30
0.0
 10
35.94802335593925
 20
367.927017143413
 30
0.0
 10
35.69790152056676
 20
367.9279862179583
 30
0.0
 10
35.45246640153157
 20
367.9290444658324
 30
0.0
 10
35.21234323302873
 20
367.9301847308826
 30
0.0
 10
34.978408613485
 20
367.9314015698558
 30
0.0
 10
34.75060526281128
 20
367.9326831681153
 30
0.0
 10
34.60508862306333
 20
367.9335888129315
 30
0.0
 10
34.53235614320113
 20
367.9340414745204
 30
0.0
  0
SPLINE
  5
EC
330
1F
100
AcDbEntity
  8
0
  6
Continuous
 62
   252
370
     0
100
AcDbSpline
210
0.0
220
0.0
230
1.0
 70
     8
 71
     3
 72
    25
 73
    21
 74
     0
 42
0.000000001
 43
0.00000001
 40
0.0
 40
0.0
 40
0.0
 40
0.0
 40
0.0615848285583534
 40
0.1232100789888609
 40
0.1849312239278736
 40
0.2468161760467531
 40
0.30894570054189
 40
0.3713867695758828
 40
0.4340687346476407
 40
0.4968849765755887
 40
0.5471789400547087
 40
0.5974715843354887
 40
0.6477426925290595
 40
0.6979856097622407
 40
0.7482088622133296
 40
0.7984377754167377
 40
0.8487147133010443
 40
0.8990693992189387
 40
0.9495015247193491
 40
1.0
 40
1.0
 40
1.0
 40
1.0
 10
34.53235613219263
 20
367.9340414745905
 30
0.0
 10
34.46930549642975
 20
367.9344507832752
 30
0.0
 10
34.34316284093335
 20
367.935269669299
 30
0.0
 10
34.16245841973796
 20
367.9365478374853
 30
0.0
 10
33.98856921034795
 20
367.937856567155
 30
0.0
 10
33.82254537403585
 20
367.9391951421066
 30
0.0
 10
33.66473116790447
 20
367.9405572798676
 30
0.0
 10
33.51579340970103
 20
367.9419381270548
 30
0.0
 10
33.3765289461615
 20
367.9433117269082
 30
0.0
 10
33.25652020858268
 20
367.9445595245672
 30
0.0
 10
33.15421223487731
 20
367.9456669366597
 30
0.0
 10
33.06780693742767
 20
367.946631963768
 30
0.0
 10
32.98998273963976
 20
367.9475245723252
 30
0.0
 10
32.92127573083425
 20
367.9483296922938
 30
0.0
 10
32.86222428265684
 20
367.9490321151356
 30
0.0
 10
32.81336652503676
 20
367.9496170261368
 30
0.0
 10
32.77525637702103
 20
367.9500679217876
 30
0.0
 10
32.74832174525972
 20
367.9503771184159
 30
0.0
 10
32.73139964474655
 20
367.950562159773
 30
0.0
 10
32.72909331359761
 20
367.9505769375443
 30
0.0
 10
32.7279393899549
 20
367.9505843312874
 30
0.0
  0
SPLINE
  5
ED
330
1F
100
AcDbEntity
  8
0
  6
Continuous
 62
   252
370
     0
100
AcDbSpline
210
0.0
220
0.0
230
1.0
 70
     8
 71
     3
 72
    12
 73
     8
 74
     0
 42
0.000000001
 43
0.00000001
 40
0.0
 40
0.0
 40
0.0
 40
0.0
 40
0.2010653982349377
 40
0.401825169431471
 40
0.602066249529548
 40
0.801546443673466
 40
1.0
 40
1.0
 40
1.0
 40
1.0
 10
41.68334589461863
 20
367.9342255517239
 30
0.0
 10
41.61579602434217
 20
367.933776625399
 30
0.0
 10
41.48079896215651
 20
367.9328794551343
 30
0.0
 10
41.27055744027341
 20
367.9316075558815
 30
0.0
 10
41.05568639601513
 20
367.9304127469183
 30
0.0
 10
40.83676085290048
 20
367.9293037181449
 30
0.0
 10
40.68736664945698
 20
367.928656132611
 30
0.0
 10
40.61286226039
 20
367.9283331752039
 30
0.0
  0
SPLINE
  5
EE
330
1F
100
AcDbEntity
  8
0
  6
Continuous
 62
   252
370
     0
100
AcDbSpline
210
0.0
220
0.0
230
1.0
 70
     8
 71
     3
 72
     9
 73
     5
 74
     0
 42
0.000000001
 43
0.00000001
 40
0.0
 40
0.0
 40
0.0
 40
0.0
 40
0.4999680449088427
 40
1.0
 40
1.0
 40
1.0
 40
1.0
 10
42.04033235522019
 20
367.9367912388205
 30
0.0
 10
41.982541621108
 20
367.9364106371134
 30
0.0
 10
41.86695276557878
 20
367.9356493850475
 30
0.0
 10
41.74505145049707
 20
367.9349186139932
 30
0.0
 10
41.6840968975886
 20
367.9345532051142
 30
0.0
  0
SPLINE
  5
EF
330
1F
100
AcDbEntity
  8
0
  6
Continuous
 62
   252
370
     0
100
AcDbSpline
210
0.0
220
0.0
230
1.0
 70
     8
 71
     3
 72
    17
 73
    13
 74
     0
 42
0.000000001
 43
0.00000001
 40
0.0
 40
0.0
 40
0.0
 40
0.0
 40
0.1012411108316943
 40
0.2018593886741385
 40
0.3020339626814451
 40
0.4019147413692651
 40
0.5016231433377376
 40
0.6012532277534753
 40
0.7008731320570847
 40
0.8005267281418603
 40
0.9002354176887021
 40
1.0
 40
1.0
 40
1.0
 40
1.0
 10
43.26144963967977
 20
367.948082931135
 30
0.0
 10
43.2356421663396
 20
367.9477857492339
 30
0.0
 10
43.18418598664268
 20
367.9471932136879
 30
0.0
 10
43.09274681105236
 20
367.9462011743977
 30
0.0
 10
42.99188243035736
 20
367.9451502857208
 30
0.0
 10
42.88105459466307
 20
367.9440422514311
 30
0.0
 10
42.76107681048677
 20
367.9428892060789
 30
0.0
 10
42.63238886757946
 20
367.9417005189987
 30
0.0
 10
42.49557537863646
 20
367.940486173104
 30
0.0
 10
42.35100880509179
 20
367.9392563864422
 30
0.0
 10
42.19976099695677
 20
367.9380197652068
 30
0.0
 10
42.09348517971112
 20
367.9372008242399
 30
0.0
 10
42.0403323817521
 20
367.9367912390221
 30
0.0
  0
SPLINE
  5
F0
330
1F
100
AcDbEntity
  8
0
  6
Continuous
 62
   252
370
     0
100
AcDbSpline
210
0.0
220
0.0
230
1.0
 70
     8
 71
     3
 72
    12
 73
     8
 74
     0
 42
0.000000001
 43
0.00000001
 40
0.0
 40
0.0
 40
0.0
 40
0.0
 40
0.1994384476953583
 40
0.3991411499309647
 40
0.5991231361350807
 40
0.7994020749456842
 40
0.9999999999999999
 40
0.9999999999999999
 40
0.9999999999999999
 40
0.9999999999999999
 10
43.44102140085086
 20
367.9502306146659
 30
0.0
 10
43.43363579962005
 20
367.9501413046864
 30
0.0
 10
43.41885481128874
 20
367.9499625663923
 30
0.0
 10
43.38879071683574
 20
367.9496011951217
 30
0.0
 10
43.35283944453323
 20
367.9491707912806
 30
0.0
 10
43.31100748735317
 20
367.948671648034
 30
0.0
 10
43.27798420289238
 20
367.9482793515512
 30
0.0
 10
43.2614594219972
 20
367.9480830472303
 30
0.0
  0
SPLINE
  5
F1
330
1F
100
AcDbEntity
  8
0
  6
Continuous
 62
   252
370
     0
100
AcDbSpline
210
0.0
220
0.0
230
1.0
 70
     8
 71
     3
 72
    10
 73
     6
 74
     0
 42
0.000000001
 43
0.00000001
 40
0.0
 40
0.0
 40
0.0
 40
0.0
 40
0.3329691089299048
 40
0.6662914360307435
 40
1.0
 40
1.0
 40
1.0
 40
1.0
 10
43.47444591288305
 20
367.9508040586225
 30
0.0
 10
43.47353148923999
 20
367.9507738634375
 30
0.0
 10
43.47170167192085
 20
367.9507134410361
 30
0.0
 10
43.46052646184121
 20
367.9505216423484
 30
0.0
 10
43.44752559839883
 20
367.9503276613489
 30
0.0
 10
43.44102140267449
 20
367.9502306146879
 30
0.0
  0
SPLINE
  5
F2
330
1F
100
AcDbEntity
  8
0
  6
Continuous
 62
   252
370
     0
100
AcDbSpline
210
0.0
220
0.0
230
1.0
 70
     8
 71
     3
 72
    17
 73
    13
 74
     0
 42
0.000000001
 43
0.00000001
 40
0.0
 40
0.0
 40
0.0
 40
0.0
 40
0.0956909074007072
 40
0.1918144897316908
 40
0.2880426708038322
 40
0.3840452313624355
 40
0.4794965661180253
 40
0.5740822071888444
 40
0.6840320601531135
 40
0.7919215916950303
 40
0.8973563833056725
 40
1.0
 40
1.0
 40
1.0
 40
1.0
 10
43.87918991369283
 20
368.4609954034906
 30
0.0
 10
43.86680727614786
 20
368.4368913840069
 30
0.0
 10
43.84198601186337
 20
368.388574356576
 30
0.0
 10
43.79774333237922
 20
368.3205077468695
 30
0.0
 10
43.74870022348039
 20
368.2562699255226
 30
0.0
 10
43.69485121086025
 20
368.1968008040769
 30
0.0
 10
43.63694032773451
 20
368.1425690421401
 30
0.0
 10
43.57202955737312
 20
368.0912108379192
 30
0.0
 10
43.50023801089703
 20
368.0442242175873
 30
0.0
 10
43.4219665631333
 20
368.0034234304018
 30
0.0
 10
43.34245841910354
 20
367.9706420294661
 30
0.0
 10
43.28821000243187
 20
367.9555350821117
 30
0.0
 10
43.26144963967977
 20
367.948082931135
 30
0.0
  0
LINE
  5
F3
330
1F
100
AcDbEntity
  8
0
  6
Continuous
 62
   252
370
     0
100
AcDbLine
 10
48.345636732
 20
397.000107481
 30
0.0
 11
48.345636732
 21
421.9955986534
 31
0.0
  0
LINE
  5
F4
330
1F
100
AcDbEntity
  8
0
  6
Continuous
 62
   252
370
     0
100
AcDbLine
 10
48.345636732
 20
372.0044013466
 30
0.0
 11
48.345636732
 21
397.000107481
 31
0.0
  0
LINE
  5
F5
330
1F
100
AcDbEntity
  8
0
  6
Continuous
 62
   252
370
     0
100
AcDbLine
 10
28.1252743733
 20
397.0001067223
 30
0.0
 11
28.1252743733
 21
372.1808617753
 31
0.0
  0
LINE
  5
F6
330
1F
100
AcDbEntity
  8
0
  6
Continuous
 62
   252
370
     0
100
AcDbLine
 10
28.1252743733
 20
421.8191382246
 30
0.0
 11
28.1252743733
 21
397.0001067223
 31
0.0
  0
LINE
  5
F7
330
1F
100
AcDbEntity
  8
0
  6
Continuous
 62
   252
370
     0
100
AcDbLine
 10
27.134285194
 20
397.000102525
 30
0.0
 11
27.134285194
 21
420.8430193207
 31
0.0
  0
LINE
  5
F8
330
1F
100
AcDbEntity
  8
0
  6
Continuous
 62
   252
370
     0
100
AcDbLine
 10
27.134285194
 20
373.1569806793
 30
0.0
 11
27.134285194
 21
397.000102525
 31
0.0
  0
LINE
  5
F9
330
1F
100
AcDbEntity
  8
0
  6
Continuous
 62
   252
370
     0
100
AcDbLine
 10
50.0499999998
 20
421.5
 30
0.0
 11
50.0499999998
 21
372.5
 31
0.0
  0
LINE
  5
FA
330
1F
100
AcDbEntity
  8
0
  6
Continuous
 62
   252
370
     0
100
AcDbLine
 10
118.6369115256
 20
397.0003655
 30
0.0
 11
118.6369115256
 21
312.0
 31
0.0
  0
LINE
  5
FB
330
1F
100
AcDbEntity
  8
0
  6
Continuous
 62
   252
370
     0
100
AcDbLine
 10
118.6369115256
 20
482.0
 30
0.0
 11
118.6369115256
 21
397.0003655
 31
0.0
  0
LINE
  5
FC
330
1F
100
AcDbEntity
  8
0
  6
Continuous
 62
   252
370
     0
100
AcDbLine
 10
108.9098630736
 20
397.0003644048
 30
0.0
 11
108.9098630728
 21
312.2547117279
 31
0.0
  0
LINE
  5
FD
330
1F
100
AcDbEntity
  8
0
  6
Continuous
 62
   252
370
     0
100
AcDbLine
 10
108.9098630744
 20
481.7452882721
 30
0.0
 11
108.9098630736
 21
397.0003644048
 31
0.0
  0
LINE
  5
FE
330
1F
100
AcDbEntity
  8
0
  6
Continuous
 62
   252
370
     0
100
AcDbLine
 10
106.9641346602
 20
397.0003561842
 30
0.0
 11
106.9641346594
 21
314.166464501
 31
0.0
  0
LINE
  5
FF
330
1F
100
AcDbEntity
  8
0
  6
Continuous
 62
   252
370
     0
100
AcDbLine
 10
106.964134661
 20
479.833535499
 30
0.0
 11
106.9641346602
 21
397.0003561842
 31
0.0
  0
ARC
  5
100
330
1F
100
AcDbEntity
  8
0
  6
Continuous
 62
     7
370
    30
100
AcDbCircle
 10
263.5043823083
 20
187.3499999998
 30
0.0
 40
0.5000000000000223
100
AcDbArc
 50
90.0
 51
180.5000000059
  0
ARC
  5
101
330
1F
100
AcDbEntity
  8
0
  6
Continuous
 62
     7
370
    30
100
AcDbCircle
 10
312.4956176921
 20
187.3499999998
 30
0.0
 40
0.5
100
AcDbArc
 50
359.4999999941
 51
90.0
  0
LINE
  5
102
330
1F
100
AcDbEntity
  8
0
  6
Continuous
 62
     7
370
    30
100
AcDbLine
 10
263.0044013468
 20
187.345636732
 30
0.0
 11
263.1808617756
 21
167.1252743733
 31
0.0
  0
LINE
  5
103
330
1F
100
AcDbEntity
  8
0
  6
Continuous
 62
     7
370
    30
100
AcDbLine
 10
312.8191382249
 20
167.1252743733
 30
0.0
 11
312.9955986537
 21
187.345636732
 31
0.0
  0
ARC
  5
104
330
1F
100
AcDbEntity
  8
0
  6
Continuous
 62
     7
370
    30
100
AcDbCircle
 10
264.1808236988
 20
167.1340009088
 30
0.0
 40
1.000000000000026
100
AcDbArc
 50
180.5
 51
268.6337661541
  0
ARC
  5
105
330
1F
100
AcDbEntity
  8
0
  6
Continuous
 62
     7
370
    30
100
AcDbCircle
 10
311.8191763016
 20
167.1340009088
 30
0.0
 40
1.000000000000002
100
AcDbArc
 50
271.3662338459
 51
359.5
  0
ARC
  5
106
330
1F
100
AcDbEntity
  8
0
  6
Continuous
 62
     7
370
    30
100
AcDbCircle
 10
288.0000000002
 20
1165.8500000002
 30
0.0
 40
1000.000000000204
100
AcDbArc
 50
268.6337661534
 51
271.3662338466
  0
LINE
  5
107
330
1F
100
AcDbEntity
  8
0
  6
Continuous
 62
     7
370
    30
100
AcDbLine
 10
309.3952021343
 20
187.8499999998
 30
0.0
 11
309.3952021343
 21
188.5499999998
 31
0.0
  0
LINE
  5
108
330
1F
100
AcDbEntity
  8
0
  6
Continuous
 62
     7
370
    30
100
AcDbLine
 10
266.6047978662
 20
188.5499999998
 30
0.0
 11
266.6047978662
 21
187.8499999998
 31
0.0
  0
LINE
  5
109
330
1F
100
AcDbEntity
  8
0
  6
Continuous
 62
     7
370
    30
100
AcDbLine
 10
263.5
 20
244.3205934164
 30
0.0
 11
263.5
 21
189.0499999998
 31
0.0
  0
LINE
  5
10A
330
1F
100
AcDbEntity
  8
0
  6
Continuous
 62
     7
370
    30
100
AcDbLine
 10
312.5
 20
189.0499999998
 30
0.0
 11
312.5
 21
244.3205921367
 31
0.0
  0
ARC
  5
10B
330
1F
100
AcDbEntity
  8
0
  6
Continuous
 62
     7
370
    30
100
AcDbCircle
 10
264.0
 20
189.0499999998
 30
0.0
 40
0.5
100
AcDbArc
 50
180.0
 51
270.0
  0
ARC
  5
10C
330
1F
100
AcDbEntity
  8
0
  6
Continuous
 62
     7
370
    30
100
AcDbCircle
 10
312.0
 20
189.0499999998
 30
0.0
 40
0.5
100
AcDbArc
 50
270.0
 51
0.0
  0
ARC
  5
10D
330
1F
100
AcDbEntity
  8
0
  6
Continuous
 62
     7
370
    30
100
AcDbCircle
 10
203.4998286625
 20
257.6499999998
 30
0.0
 40
0.5000000000000061
100
AcDbArc
 50
89.9999999999
 51
181.4999999999
  0
ARC
  5
10E
330
1F
100
AcDbEntity
  8
0
  6
Continuous
 62
     7
370
    30
100
AcDbCircle
 10
372.5001713375
 20
257.6499999998
 30
0.0
 40
0.5000000000000105
100
AcDbArc
 50
358.5000000001
 51
90.0000000001
  0
LINE
  5
10F
330
1F
100
AcDbEntity
  8
0
  6
Continuous
 62
     7
370
    30
100
AcDbLine
 10
203.0
 20
257.6369115256
 30
0.0
 11
203.2547117279
 21
247.9098630736
 31
0.0
  0
LINE
  5
110
330
1F
100
AcDbEntity
  8
0
  6
Continuous
 62
     7
370
    30
100
AcDbLine
 10
372.7452882721
 20
247.9098630736
 30
0.0
 11
373.0
 21
257.6369115256
 31
0.0
  0
ARC
  5
111
330
1F
100
AcDbEntity
  8
0
  6
Continuous
 62
     7
370
    30
100
AcDbCircle
 10
370.7459736222
 20
247.9622169702
 30
0.0
 40
2.000000000000011
100
AcDbArc
 50
272.5092650435
 51
358.5000000004
  0
ARC
  5
112
330
1F
100
AcDbEntity
  8
0
  6
Continuous
 62
     7
370
    30
100
AcDbCircle
 10
205.2540263778
 20
247.9622169702
 30
0.0
 40
1.999999999999984
100
AcDbArc
 50
181.4999999996
 51
267.4907349565
  0
ARC
  5
113
330
1F
100
AcDbEntity
  8
0
  6
Continuous
 62
     7
370
    30
100
AcDbCircle
 10
288.0
 20
2136.1499999598
 30
0.0
 40
1892.000000000004
100
AcDbArc
 50
270.7694146615
 51
272.5092650465
  0
ARC
  5
114
330
1F
100
AcDbEntity
  8
0
  6
Continuous
 62
     7
370
    30
100
AcDbCircle
 10
288.0
 20
2136.1499999598
 30
0.0
 40
1892.000000000004
100
AcDbArc
 50
267.4907349535
 51
269.2305823457
  0
LINE
  5
115
330
1F
100
AcDbEntity
  8
0
  6
Continuous
 62
     7
370
    30
100
AcDbLine
 10
263.5043823083
 20
187.8499999998
 30
0.0
 11
312.4956176919
 21
187.8499999998
 31
0.0
  0
LINE
  5
116
330
1F
100
AcDbEntity
  8
0
  6
Continuous
 62
     7
370
    30
100
AcDbLine
 10
264.0
 20
188.5499999998
 30
0.0
 11
312.0
 21
188.5499999998
 31
0.0
  0
LINE
  5
117
330
1F
100
AcDbEntity
  8
0
  6
Continuous
 62
     7
370
    30
100
AcDbLine
 10
203.4998286625
 20
258.1499999998
 30
0.0
 11
372.5001713367
 21
258.1499999998
 31
0.0
  0
LWPOLYLINE
  5
118
330
1F
100
AcDbEntity
  8
0
  6
Continuous
 62
     7
370
    30
100
AcDbPolyline
 90
       12
 70
   128
 43
0.0
 10
313.4065622213
 20
244.3205925882
 10
313.3978588702
 20
244.3205925414
 10
313.3717490611
 20
244.3205924952
 10
313.3282506886
 20
244.3205924494
 10
313.2673935644
 20
244.3205924042
 10
313.1892193969
 20
244.3205923596
 10
313.0937817629
 20
244.3205923156
 10
312.9811460704
 20
244.3205922722
 10
312.8513895144
 20
244.3205922295
 10
312.7046010235
 20
244.3205921875
 10
312.5408811992
 20
244.3205921462
 10
312.5
 20
244.3205921367
  0
LWPOLYLINE
  5
119
330
1F
100
AcDbEntity
  8
0
  6
Continuous
 62
     7
370
    30
100
AcDbPolyline
 90
       12
 70
   128
 43
0.0
 10
263.5
 20
244.3205934164
 10
263.4590765347
 20
244.3205934281
 10
263.2953511663
 20
244.3205934779
 10
263.1485570964
 20
244.3205935276
 10
263.0187949302
 20
244.3205935771
 10
262.9061536003
 20
244.3205936263
 10
262.8107103053
 20
244.3205936753
 10
262.7325304574
 20
244.320593724
 10
262.6716676372
 20
244.3205937724
 10
262.6281635569
 20
244.3205938204
 10
262.6020480321
 20
244.320593868
 10
262.5933389614
 20
244.3205939153
  0
LINE
  5
11A
330
1F
100
AcDbEntity
  8
0
  6
Continuous
 62
   252
370
     0
100
AcDbLine
 10
312.9955986534
 20
187.345636732
 30
0.0
 11
263.0044013468
 21
187.345636732
 31
0.0
  0
LINE
  5
11B
330
1F
100
AcDbEntity
  8
0
  6
Continuous
 62
   252
370
     0
100
AcDbLine
 10
263.1808617756
 20
167.1252743733
 30
0.0
 11
312.8191382247
 21
167.1252743733
 31
0.0
  0
LINE
  5
11C
330
1F
100
AcDbEntity
  8
0
  6
Continuous
 62
   252
370
     0
100
AcDbLine
 10
311.8430193207
 20
166.134285194
 30
0.0
 11
264.1569806795
 21
166.134285194
 31
0.0
  0
LINE
  5
11D
330
1F
100
AcDbEntity
  8
0
  6
Continuous
 62
   252
370
     0
100
AcDbLine
 10
263.5
 20
189.0499999998
 30
0.0
 11
312.5
 21
189.0499999998
 31
0.0
  0
LINE
  5
11E
330
1F
100
AcDbEntity
  8
0
  6
Continuous
 62
   252
370
     0
100
AcDbLine
 10
203.0
 20
257.6369115256
 30
0.0
 11
372.9999999992
 21
257.6369115256
 31
0.0
  0
LINE
  5
11F
330
1F
100
AcDbEntity
  8
0
  6
Continuous
 62
   252
370
     0
100
AcDbLine
 10
203.2547117279
 20
247.9098630736
 30
0.0
 11
372.7452882713
 21
247.9098630736
 31
0.0
  0
LINE
  5
120
330
1F
100
AcDbEntity
  8
0
  6
Continuous
 62
   252
370
     0
100
AcDbLine
 10
205.166464501
 20
245.9641346602
 30
0.0
 11
370.8335354982
 21
245.9641346602
 31
0.0
  0
LWPOLYLINE
  5
121
330
1F
100
AcDbEntity
  8
0
  6
Continuous
 62
   252
370
     0
100
AcDbPolyline
 90
       62
 70
   128
 43
0.0
 10
287.9998413429
 20
244.3205950466
 10
288.6649089397
 20
244.3205950286
 10
289.3295208072
 20
244.3205950094
 10
289.9932214537
 20
244.320594989
 10
290.655556012
 20
244.3205949674
 10
291.3160705509
 20
244.3205949446
 10
291.9743123868
 20
244.3205949207
 10
292.6298303937
 20
244.3205948956
 10
293.2821753123
 20
244.3205948694
 10
293.9309000579
 20
244.3205948421
 10
294.5755600269
 20
244.3205948137
 10
295.2157134017
 20
244.3205947842
 10
295.8509214532
 20
244.3205947537
 10
296.4807488413
 20
244.3205947222
 10
297.104763914
 20
244.3205946896
 10
297.7225390024
 20
244.3205946561
 10
298.3336507144
 20
244.3205946216
 10
298.9376802245
 20
244.3205945861
 10
299.534213561
 20
244.3205945497
 10
300.1228418899
 20
244.3205945125
 10
300.7031617946
 20
244.3205944744
 10
301.2747755529
 20
244.3205944354
 10
301.8372914093
 20
244.3205943957
 10
302.3903238434
 20
244.3205943551
 10
302.9334938345
 20
244.3205943138
 10
303.4664291211
 20
244.3205942718
 10
303.9887644558
 20
244.320594229
 10
304.5001418562
 20
244.3205941856
 10
305.0002108497
 20
244.3205941416
 10
305.488628714
 20
244.3205940969
 10
305.9650607118
 20
244.3205940517
 10
306.4291803206
 20
244.3205940059
 10
306.8806694559
 20
244.3205939596
 10
307.3192186896
 20
244.3205939129
 10
307.7445274619
 20
244.3205938656
 10
308.1563042875
 20
244.320593818
 10
308.5542669552
 20
244.3205937699
 10
308.9381427211
 20
244.3205937215
 10
309.307668496
 20
244.3205936728
 10
309.6625910254
 20
244.3205936238
 10
310.0026670631
 20
244.3205935745
 10
310.327663538
 20
244.320593525
 10
310.6373577138
 20
244.3205934754
 10
310.9315373414
 20
244.3205934255
 10
311.210000805
 20
244.3205933756
 10
311.4725572595
 20
244.3205933256
 10
311.7190267619
 20
244.3205932755
 10
311.9492403943
 20
244.3205932254
 10
312.1630403797
 20
244.3205931753
 10
312.3602801904
 20
244.3205931253
 10
312.540824648
 20
244.3205930754
 10
312.7045500164
 20
244.3205930255
 10
312.8513440863
 20
244.3205929759
 10
312.9811062525
 20
244.3205929264
 10
313.0937475824
 20
244.3205928771
 10
313.1891908774
 20
244.3205928281
 10
313.2673707253
 20
244.3205927794
 10
313.3282335455
 20
244.3205927311
 10
313.3717376258
 20
244.320592683
 10
313.3978531506
 20
244.3205926354
 10
313.4065622217
 20
244.3205925882
 10
313.4065622213
 20
244.3205925882
  0
LWPOLYLINE
  5
122
330
1F
100
AcDbEntity
  8
0
  6
Continuous
 62
   252
370
     0
100
AcDbPolyline
 90
       62
 70
   128
 43
0.0
 10
262.5933389614
 20
244.3205939153
 10
262.593338961
 20
244.3205939153
 10
262.6020423125
 20
244.320593962
 10
262.6281521216
 20
244.3205940083
 10
262.6716504941
 20
244.320594054
 10
262.7325076183
 20
244.3205940992
 10
262.8106817857
 20
244.3205941439
 10
262.9061194198
 20
244.3205941879
 10
263.0187551123
 20
244.3205942312
 10
263.1485116683
 20
244.3205942739
 10
263.2953001592
 20
244.3205943159
 10
263.4590199835
 20
244.3205943572
 10
263.6395589358
 20
244.3205943977
 10
263.8367932837
 20
244.3205944374
 10
264.0505878527
 20
244.3205944763
 10
264.2807961185
 20
244.3205945144
 10
264.5272603081
 20
244.3205945516
 10
264.789811507
 20
244.3205945879
 10
265.068269776
 20
244.3205946233
 10
265.3624442734
 20
244.3205946578
 10
265.672133387
 20
244.3205946913
 10
265.9971248712
 20
244.3205947238
 10
266.337195993
 20
244.3205947553
 10
266.6921136848
 20
244.3205947858
 10
267.0616347036
 20
244.3205948152
 10
267.4455057983
 20
244.3205948435
 10
267.8434638827
 20
244.3205948708
 10
268.2552362163
 20
244.3205948969
 10
268.6805405908
 20
244.320594922
 10
269.1190855239
 20
244.3205949458
 10
269.5705704588
 20
244.3205949686
 10
270.0346859703
 20
244.3205949901
 10
270.5111139767
 20
244.3205950104
 10
270.9995279582
 20
244.3205950296
 10
271.4995931802
 20
244.3205950475
 10
272.0109669229
 20
244.3205950642
 10
272.5332987164
 20
244.3205950796
 10
273.0662305805
 20
244.3205950938
 10
273.6093972703
 20
244.3205951068
 10
274.1624265266
 20
244.3205951184
 10
274.7249393306
 20
244.3205951288
 10
275.2965501643
 20
244.3205951379
 10
275.876867274
 20
244.3205951457
 10
276.4654929395
 20
244.3205951522
 10
277.0620237462
 20
244.3205951574
 10
277.6660508615
 20
244.3205951613
 10
278.2771603155
 20
244.3205951639
 10
278.8949332843
 20
244.3205951652
 10
279.5189463772
 20
244.3205951652
 10
280.1487719267
 20
244.3205951638
 10
280.7839782818
 20
244.3205951612
 10
281.424130104
 20
244.3205951572
 10
282.0687886651
 20
244.3205951519
 10
282.7175121482
 20
244.3205951453
 10
283.3698559509
 20
244.3205951375
 10
284.0253729891
 20
244.3205951283
 10
284.6836140042
 20
244.3205951179
 10
285.3441278708
 20
244.3205951061
 10
286.0064619057
 20
244.3205950931
 10
286.6701621781
 20
244.3205950789
 10
287.334773821
 20
244.3205950634
 10
287.9998413429
 20
244.3205950466
  0
SPLINE
  5
123
330
1F
100
AcDbEntity
  8
0
  6
Continuous
 62
     7
370
    30
100
AcDbSpline
210
0.0
220
0.0
230
1.0
 70
     8
 71
     3
 72
    32
 73
    28
 74
     0
 42
0.000000001
 43
0.00000001
 40
0.0
 40
0.0
 40
0.0
 40
0.0
 40
0.0319210570599332
 40
0.061536200852103
 40
0.0918628215003547
 40
0.1470566565597029
 40
0.2063479931351394
 40
0.2716764903956726
 40
0.3430229660300138
 40
0.3763192110765263
 40
0.4053167895569569
 40
0.4290993443845626
 40
0.4476808152703423
 40
0.4610717448588238
 40
0.4694445795245233
 40
0.4778391347072409
 40
0.4949995889857741
 40
0.517579864719978
 40
0.5455712595909209
 40
0.5825109601977684
 40
0.6259398681400828
 40
0.6758376821717632
 40
0.732179581958708
 40
0.793335076824764
 40
0.852704156582468
 40
0.9409572787240285
 40
1.0
 40
1.0
 40
1.0
 40
1.0
 10
428.1314601889944
 20
109.6353864762718
 30
0.0
 10
428.146925169716
 20
109.6286688932476
 30
0.0
 10
428.1767379719068
 20
109.6157189919509
 30
0.0
 10
428.221678590528
 20
109.5969375615707
 30
0.0
 10
428.2784010514274
 20
109.5738625498433
 30
0.0
 10
428.35052759568
 20
109.5457676696483
 30
0.0
 10
428.4413335329152
 20
109.5124163059695
 30
0.0
 10
428.5417069873922
 20
109.4778674303212
 30
0.0
 10
428.6300541072814
 20
109.4495767291435
 30
0.0
 10
428.7002328672467
 20
109.4283286118326
 30
0.0
 10
428.7457118832275
 20
109.4150181358727
 30
0.0
 10
428.7835991626034
 20
109.4042470878662
 30
0.0
 10
428.8133065094125
 20
109.3959979756305
 30
0.0
 10
428.83485472225
 20
109.3901206007586
 30
0.0
 10
428.8509728094788
 20
109.3857778114683
 30
0.0
 10
428.8690736914032
 20
109.3809466693081
 30
0.0
 10
428.8947730944108
 20
109.3741859449525
 30
0.0
 10
428.9310225692282
 20
109.3648632279274
 30
0.0
 10
428.9780299250519
 20
109.3531205222993
 30
0.0
 10
429.0365197993045
 20
109.3390529646692
 30
0.0
 10
429.1072506528766
 20
109.3228360804153
 30
0.0
 10
429.189047909139
 20
109.3051197619027
 30
0.0
 10
429.2811690767798
 20
109.2864638184917
 30
0.0
 10
429.3791818911823
 20
109.2680732262591
 30
0.0
 10
429.4956341151423
 20
109.2480285457798
 30
0.0
 10
429.611625207785
 20
109.22982210465
 30
0.0
 10
429.6949813575667
 20
109.2188323109988
 30
0.0
 10
429.7283942075426
 20
109.214427113212
 30
0.0
  0
SPLINE
  5
124
330
1F
100
AcDbEntity
  8
0
  6
Continuous
 62
     7
370
    30
100
AcDbSpline
210
0.0
220
0.0
230
1.0
 70
     8
 71
     3
 72
   285
 73
   281
 74
     0
 42
0.000000001
 43
0.00000001
 40
0.0
 40
0.0
 40
0.0
 40
0.0
 40
0.0028794592149625
 40
0.0063682695125535
 40
0.0098573823079105
 40
0.0133470741019862
 40
0.0168376183088523
 40
0.0203292839000378
 40
0.0238223340817571
 40
0.0273170250139019
 40
0.0308136045803513
 40
0.0343123112192202
 40
0.0378133728212646
 40
0.0413170057046457
 40
0.0448234136734442
 40
0.0483327871664657
 40
0.0518453025030888
 40
0.0553611212309997
 40
0.058880389580647
 40
0.0624032380300117
 40
0.065929780982194
 40
0.0694601165574616
 40
0.0729943264996476
 40
0.0765324761967475
 40
0.0800746148131448
 40
0.0836207755301059
 40
0.0871709758906994
 40
0.0907252182429601
 40
0.094283490274892
 40
0.0978457656336169
 40
0.101412004620571
 40
0.104982154953083
 40
0.1085561525830491
 40
0.1121339225624607
 40
0.1157153799455767
 40
0.1193004307174145
 40
0.1228889727384095
 40
0.1264808966952693
 40
0.1300760870485645
 40
0.1336744229685183
 40
0.1372757792503638
 40
0.1408800272019032
 40
0.1444870354974806
 40
0.1480966709913721
 40
0.1517087994872099
 40
0.1553232864588754
 40
0.158939997720079
 40
0.162558800040826
 40
0.1661795617095736
 40
0.1698021530402956
 40
0.1734264468253614
 40
0.1770523187345686
 40
0.1806796476621384
 40
0.1843083160236372
 40
0.1879382100043803
 40
0.1915692197635493
 40
0.1952012395947725
 40
0.1988341680477911
 40
0.2024679080134774
 40
0.2061023667758344
 40
0.2097374560335933
 40
0.2133730918945289
 40
0.2170091948463011
 40
0.2206456897052501
 40
0.2242825055475175
 40
0.2279195756234927
 40
0.2315568372592597
 40
0.2351942317465219
 40
0.2388317042234304
 40
0.2424691979619251
 40
0.246106655912976
 40
0.2497440350991237
 40
0.2533812958082833
 40
0.2570184014543263
 40
0.2606553184362075
 40
0.2642920159984019
 40
0.2679284660925073
 40
0.2715646432418755
 40
0.2752005244083032
 40
0.2788360888624669
 40
0.2824713180580056
 40
0.2861061955095592
 40
0.2897407066747
 40
0.293374838840887
 40
0.2970085810161896
 40
0.3006419238250295
 40
0.3042748594080898
 40
0.3079073813272784
 40
0.3115394844748201
 40
0.315171164986897
 40
0.3188024201616387
 40
0.3224332483815981
 40
0.3260636490399564
 40
0.3296936224712681
 40
0.3333231698856214
 40
0.3369522933068769
 40
0.3405809955143245
 40
0.3442092799880158
 40
0.3478371508572244
 40
0.35146461285203
 40
0.3550916712581501
 40
0.3587183318744273
 40
0.3623446009732031
 40
0.3659704852633058
 40
0.3695959918551056
 40
0.3732211282286764
 40
0.3768459022032707
 40
0.3804703219096375
 40
0.384094395763726
 40
0.3877181324426427
 40
0.3913415408620886
 40
0.3949646301556947
 40
0.3985874096555625
 40
0.4022098888746082
 40
0.4058320774900775
 40
0.4094539853282537
 40
0.4130756223505929
 40
0.4166969986408022
 40
0.4203181243929577
 40
0.4239390099008216
 40
0.4275596655476962
 40
0.4311801017974965
 40
0.4348003291864047
 40
0.4384203583151824
 40
0.442040199842508
 40
0.4456598644785472
 40
0.4492793629793715
 40
0.4528987061418261
 40
0.4565179047987747
 40
0.4601369698150505
 40
0.4637559120837548
 40
0.4673747425226909
 40
0.470993472071436
 40
0.4746121116885754
 40
0.478230672349243
 40
0.4818491650429787
 40
0.4854676007716572
 40
0.4890859905476294
 40
0.4927043453923363
 40
0.4963226763343956
 40
0.4999409944085767
 40
0.5035593106541015
 40
0.5071776343494946
 40
0.5107959746228765
 40
0.514414342520264
 40
0.5180327490875356
 40
0.5216512053692179
 40
0.5252697224068157
 40
0.5288883112375504
 40
0.5325069828925532
 40
0.5361257483951208
 40
0.5397446187588174
 40
0.543363604985002
 40
0.5469827180607615
 40
0.5506019689558664
 40
0.5542213686199546
 40
0.5578409279790298
 40
0.5614606579317488
 40
0.5650805693453688
 40
0.5687006730509044
 40
0.5723209798382264
 40
0.5759415004502424
 40
0.5795622455767825
 40
0.5831832258476791
 40
0.5868044518251629
 40
0.5904259339957185
 40
0.5940476827608275
 40
0.5976697084271522
 40
0.6012920211957259
 40
0.6049146311500048
 40
0.6085375482431712
 40
0.612160782283957
 40
0.615784342921636
 40
0.6194082396294718
 40
0.6230324816868827
 40
0.6266570781601901
 40
0.6302820378818228
 40
0.633907369427761
 40
0.6375330810934012
 40
0.6411591808673516
 40
0.6447856764035034
 40
0.6484125749907453
 40
0.6520398835207405
 40
0.6556676084530426
 40
0.6592957557780574
 40
0.662924330977153
 40
0.6665533389802334
 40
0.6701827841200436
 40
0.6738126700839612
 40
0.6774429998621204
 40
0.6810737756924587
 40
0.6847049990022098
 40
0.6883366703456911
 40
0.6919687893383899
 40
0.6956013545870161
 40
0.6992343636155974
 40
0.702867812787258
 40
0.7065016972216811
 40
0.7101360107082574
 40
0.7137707456145697
 40
0.7174058927902638
 40
0.7210414414663945
 40
0.72467737915017
 40
0.7283136915146312
 40
0.7319503622844052
 40
0.7355873731162886
 40
0.7392247034760165
 40
0.742862330510635
 40
0.7465002289170347
 40
0.7501383708071868
 40
0.753776725570124
 40
0.7574152597314863
 40
0.7610539368113083
 40
0.7646927171805477
 40
0.7683315579174307
 40
0.7719704026570149
 40
0.7756091940286219
 40
0.7792478771219147
 40
0.7828863931385158
 40
0.7865246792678652
 40
0.7901626685721658
 40
0.7938002898826865
 40
0.7974374677091316
 40
0.8010741221646254
 40
0.8047101689090193
 40
0.8083455191134017
 40
0.8119800794482609
 40
0.8156137520990309
 40
0.8192464348113121
 40
0.8228780209700243
 40
0.8265083997145728
 40
0.8301374560943076
 40
0.833765071266431
 40
0.8373911227400781
 40
0.8410154846688733
 40
0.8446380281946195
 40
0.8482586218440532
 40
0.8518771319805201
 40
0.8554934233113046
 40
0.8591073594515616
 40
0.8627188035440648
 40
0.8663276189340552
 40
0.869933669897201
 40
0.873536822417945
 40
0.8771369450143205
 40
0.8807339096045753
 40
0.8843275924101232
 40
0.8879178748877248
 40
0.8915046446837965
 40
0.8950877966021287
 40
0.8986672335761043
 40
0.9022428676354514
 40
0.9058146208573462
 40
0.9093824262913545
 40
0.9129462288473418
 40
0.916505986135577
 40
0.9200616692486864
 40
0.9236132634750992
 40
0.9271607689345769
 40
0.930704201126784
 40
0.9342435913853135
 40
0.9377789872297873
 40
0.9413104526106654
 40
0.9448380680419399
 40
0.9483619306184974
 40
0.9518821539162126
 40
0.9553988677739893
 40
0.9589122179583883
 40
0.9624223657126565
 40
0.9659294871932079
 40
0.9694337727974868
 40
0.9729354263883365
 40
0.9764346644211118
 40
0.9799317149796994
 40
0.9834268167295068
 40
0.986920217794985
 40
0.9904121745704416
 40
0.9939029504729429
 40
0.9973928146464751
 40
1.0
 40
1.0
 40
1.0
 40
1.0
 10
412.2843649954935
 20
153.1319531067774
 30
0.0
 10
412.2448500532032
 20
153.1084449632198
 30
0.0
 10
412.1574580175842
 20
153.0564538833892
 30
0.0
 10
412.0241000023524
 20
152.9727468806127
 30
0.0
 10
411.8839416977179
 20
152.881479119643
 30
0.0
 10
411.7454550458948
 20
152.7874689881769
 30
0.0
 10
411.6085972593817
 20
152.6908237256893
 30
0.0
 10
411.4733983433922
 20
152.5915264539461
 30
0.0
 10
411.3398689070357
 20
152.4895936031652
 30
0.0
 10
411.2080249009695
 20
152.3850327565075
 30
0.0
 10
411.0778810091329
 20
152.2778539950311
 30
0.0
 10
410.949452439091
 20
152.1680669033583
 30
0.0
 10
410.8227544559617
 20
152.0556814222271
 30
0.0
 10
410.6978025165345
 20
151.9407076714148
 30
0.0
 10
410.5746122375122
 20
151.823156050052
 30
0.0
 10
410.4531994032646
 20
151.7030372632122
 30
0.0
 10
410.3335799580256
 20
151.5803623683253
 30
0.0
 10
410.2157699973644
 20
151.4551428156887
 30
0.0
 10
410.0997857550771
 20
151.3273904893512
 30
0.0
 10
409.9856435867068
 20
151.1971177460637
 30
0.0
 10
409.8733599495996
 20
151.0643374523147
 30
0.0
 10
409.7629513798094
 20
150.9290630188779
 30
0.0
 10
409.6544344661007
 20
150.7913084324898
 30
0.0
 10
409.5478258213676
 20
150.6510882842796
 30
0.0
 10
409.4431420518069
 20
150.5084177946215
 30
0.0
 10
409.3403997242162
 20
150.363312834138
 30
0.0
 10
409.2396153318091
 20
150.2157899406361
 30
0.0
 10
409.1408052589491
 20
150.0658663318169
 30
0.0
 10
409.0439857452255
 20
149.9135599136718
 30
0.0
 10
408.9491728492814
 20
149.7588892845335
 30
0.0
 10
408.8563824128086
 20
149.60187373482
 30
0.0
 10
408.765630025108
 20
149.4425332425714
 30
0.0
 10
408.6769309885971
 20
149.2808884649415
 30
0.0
 10
408.590300285617
 20
149.1169607258564
 30
0.0
 10
408.5057525468657
 20
148.9507720001071
 30
0.0
 10
408.4233020217413
 20
148.7823448941798
 30
0.0
 10
408.3429625508485
 20
148.6117026241692
 30
0.0
 10
408.2647475408727
 20
148.4388689911441
 30
0.0
 10
408.1886699419799
 20
148.263868354352
 30
0.0
 10
408.1147422278672
 20
148.0867256026609
 30
0.0
 10
408.0429763785297
 20
147.9074661246431
 30
0.0
 10
407.9733838657787
 20
147.7261157776902
 30
0.0
 10
407.905975641499
 20
147.5427008565535
 30
0.0
 10
407.8407621285967
 20
147.3572480616608
 30
0.0
 10
407.7777532145581
 20
147.1697844675655
 30
0.0
 10
407.7169582475042
 20
146.9803374918304
 30
0.0
 10
407.6583860346077
 20
146.7889348646338
 30
0.0
 10
407.6020448427105
 20
146.5956045993443
 30
0.0
 10
407.5479424009717
 20
146.4003749642779
 30
0.0
 10
407.4960859053551
 20
146.2032744558138
 30
0.0
 10
407.446482024768
 20
146.004331773016
 30
0.0
 10
407.3991369086502
 20
145.8035757938625
 30
0.0
 10
407.3540561958173
 20
145.6010355531641
 30
0.0
 10
407.3112450243682
 20
145.396740222222
 30
0.0
 10
407.2707080424624
 20
145.1907190902307
 30
0.0
 10
407.2324494197956
 20
144.9830015474381
 30
0.0
 10
407.1964728595993
 20
144.7736170700169
 30
0.0
 10
407.1627816110113
 20
144.5625952066243
 30
0.0
 10
407.1313784816691
 20
144.3499655665619
 30
0.0
 10
407.1022658503986
 20
144.1357578094787
 30
0.0
 10
407.0754456798772
 20
143.9200016365307
 30
0.0
 10
407.0509195291714
 20
143.7027267828971
 30
0.0
 10
407.0286885660565
 20
143.4839630115684
 30
0.0
 10
407.0087535790388
 20
143.2637401082827
 30
0.0
 10
406.9911149890213
 20
143.0420878775389
 30
0.0
 10
406.9757728605532
 20
142.819036139556
 30
0.0
 10
406.9627269126261
 20
142.5946147281015
 30
0.0
 10
406.9519765289797
 20
142.3688534890744
 30
0.0
 10
406.9435207722258
 20
142.1417823959977
 30
0.0
 10
406.9373583888665
 20
141.9134316352485
 30
0.0
 10
406.9334878033033
 20
141.6838313887401
 30
0.0
 10
406.9319071283211
 20
141.4530117153855
 30
0.0
 10
406.9326141819424
 20
141.2210024651114
 30
0.0
 10
406.9356065004401
 20
140.98783350357
 30
0.0
 10
406.9408813448168
 20
140.7535347138287
 30
0.0
 10
406.9484357067842
 20
140.5181359982206
 30
0.0
 10
406.9582663142662
 20
140.2816672802616
 30
0.0
 10
406.9703696364461
 20
140.0441585066169
 30
0.0
 10
406.9847418883783
 20
139.8056396490576
 30
0.0
 10
407.0013790351912
 20
139.5661407063905
 30
0.0
 10
407.0202767959045
 20
139.3256917063131
 30
0.0
 10
407.0414306468837
 20
139.0843227071864
 30
0.0
 10
407.0648358249595
 20
138.8420637996846
 30
0.0
 10
407.0904873302327
 20
138.5989451083233
 30
0.0
 10
407.1183799285928
 20
138.3549967928284
 30
0.0
 10
407.1485081539675
 20
138.1102490493608
 30
0.0
 10
407.1808663103325
 20
137.8647321115579
 30
0.0
 10
407.2154484734966
 20
137.618476251404
 30
0.0
 10
407.2522484926893
 20
137.3715117799135
 30
0.0
 10
407.2912599919639
 20
137.1238690476345
 30
0.0
 10
407.3324763714412
 20
136.8755784449574
 30
0.0
 10
407.3758908084066
 20
136.6266704022391
 30
0.0
 10
407.4214962582813
 20
136.3771753897318
 30
0.0
 10
407.46928545548
 20
136.1271239173329
 30
0.0
 10
407.5192509141733
 20
135.8765465341437
 30
0.0
 10
407.5713849289638
 20
135.6254738278531
 30
0.0
 10
407.6256795754953
 20
135.373936423938
 30
0.0
 10
407.6821267110016
 20
135.1219649846932
 30
0.0
 10
407.7407179748071
 20
134.8695902080956
 30
0.0
 10
407.8014447887917
 20
134.6168428265049
 30
0.0
 10
407.864298357827
 20
134.3637536052103
 30
0.0
 10
407.9292696701932
 20
134.1103533408204
 30
0.0
 10
407.9963494979863
 20
133.8566728595117
 30
0.0
 10
408.0655283975191
 20
133.602743015142
 30
0.0
 10
408.136796709727
 20
133.3485946872227
 30
0.0
 10
408.2101445605808
 20
133.0942587787755
 30
0.0
 10
408.2855618615158
 20
132.8397662140551
 30
0.0
 10
408.3630383098781
 20
132.5851479361724
 30
0.0
 10
408.4425633893956
 20
132.3304349045966
 30
0.0
 10
408.5241263706765
 20
132.0756580925654
 30
0.0
 10
408.6077163117391
 20
131.8208484843879
 30
0.0
 10
408.6933220585764
 20
131.5660370726663
 30
0.0
 10
408.7809322457578
 20
131.3112548554236
 30
0.0
 10
408.8705352970704
 20
131.0565328331571
 30
0.0
 10
408.9621194262036
 20
130.801902005813
 30
0.0
 10
409.0556726374761
 20
130.547393369693
 30
0.0
 10
409.1511827266094
 20
130.2930379142964
 30
0.0
 10
409.2486372815484
 20
130.0388666190998
 30
0.0
 10
409.3480236833309
 20
129.7849104502809
 30
0.0
 10
409.4493291070052
 20
129.5312003573941
 30
0.0
 10
409.5525405225994
 20
129.277767269994
 30
0.0
 10
409.6576446961397
 20
129.0246420942211
 30
0.0
 10
409.7646281907213
 20
128.771855709347
 30
0.0
 10
409.873477367631
 20
128.5194389642824
 30
0.0
 10
409.9841783875199
 20
128.2674226740574
 30
0.0
 10
410.0967172116316
 20
128.0158376162697
 30
0.0
 10
410.2110796030784
 20
127.7647145275129
 30
0.0
 10
410.3272511281709
 20
127.5140840997834
 30
0.0
 10
410.4452171577997
 20
127.263976976869
 30
0.0
 10
410.5649628688684
 20
127.0144237507208
 30
0.0
 10
410.6864732457771
 20
126.7654549578162
 30
0.0
 10
410.8097330819564
 20
126.5171010755135
 30
0.0
 10
410.9347269814504
 20
126.2693925184033
 30
0.0
 10
411.0614393605501
 20
126.0223596346532
 30
0.0
 10
411.1898544494755
 20
125.776032702354
 30
0.0
 10
411.319956294106
 20
125.530441925869
 30
0.0
 10
411.4517287577549
 20
125.2856174321902
 30
0.0
 10
411.585155522996
 20
125.0415892672972
 30
0.0
 10
411.7202200935282
 20
124.798387392534
 30
0.0
 10
411.8569057960935
 20
124.5560416809882
 30
0.0
 10
411.9951957824274
 20
124.3145819138991
 30
0.0
 10
412.1350730085309
 20
124.0740378161602
 30
0.0
 10
412.2765202333163
 20
123.8344390552829
 30
0.0
 10
412.4195200444784
 20
123.5958151946916
 30
0.0
 10
412.5640548845569
 20
123.358195651704
 30
0.0
 10
412.7101070565905
 20
123.1216096915727
 30
0.0
 10
412.8576587013355
 20
122.8860864663322
 30
0.0
 10
413.0066917995001
 20
122.651655011364
 30
0.0
 10
413.1571881740077
 20
122.4183442419999
 30
0.0
 10
413.309129492297
 20
122.1861829501517
 30
0.0
 10
413.462497268651
 20
121.9551998009817
 30
0.0
 10
413.6172728665528
 20
121.7254233296135
 30
0.0
 10
413.7734375010739
 20
121.4968819378756
 30
0.0
 10
413.9309722412817
 20
121.2696038910965
 30
0.0
 10
414.0898580126781
 20
121.0436173149336
 30
0.0
 10
414.2500755996518
 20
120.8189501922589
 30
0.0
 10
414.4116056479558
 20
120.595630360085
 30
0.0
 10
414.5744286672006
 20
120.3736855065438
 30
0.0
 10
414.7385250333606
 20
120.1531431679187
 30
0.0
 10
414.9038749912962
 20
119.9340307257275
 30
0.0
 10
415.0704586572812
 20
119.7163754038663
 30
0.0
 10
415.2382560215422
 20
119.5002042658049
 30
0.0
 10
415.4072469507993
 20
119.2855442118464
 30
0.0
 10
415.5774111908084
 20
119.0724219764466
 30
0.0
 10
415.7487283689022
 20
118.8608641255956
 30
0.0
 10
415.9211779965244
 20
118.6508970542681
 30
0.0
 10
416.094739471756
 20
118.442546983936
 30
0.0
 10
416.2693920818286
 20
118.2358399601524
 30
0.0
 10
416.4451150056199
 20
118.0308018502041
 30
0.0
 10
416.6218873161305
 20
117.8274583408356
 30
0.0
 10
416.7996879829306
 20
117.6258349360488
 30
0.0
 10
416.9784958745819
 20
117.4259569549723
 30
0.0
 10
417.1582897610198
 20
117.227849529811
 30
0.0
 10
417.3390483158979
 20
117.0315376038684
 30
0.0
 10
417.5207501188845
 20
116.8370459296501
 30
0.0
 10
417.7033736579093
 20
116.6443990670425
 30
0.0
 10
417.8868973313499
 20
116.4536213815723
 30
0.0
 10
418.0712994501566
 20
116.2647370427441
 30
0.0
 10
418.2565582399023
 20
116.0777700224607
 30
0.0
 10
418.4426518427576
 20
115.8927440935171
 30
0.0
 10
418.6295583193781
 20
115.7096828281797
 30
0.0
 10
418.8172556506994
 20
115.5286095968372
 30
0.0
 10
419.005721739629
 20
115.3495475667349
 30
0.0
 10
419.1949344126297
 20
115.1725197007773
 30
0.0
 10
419.384871421182
 20
114.9975487564109
 30
0.0
 10
419.575510443122
 20
114.8246572845695
 30
0.0
 10
419.7668290838362
 20
114.6538676286947
 30
0.0
 10
419.9588048773139
 20
114.4852019238136
 30
0.0
 10
420.151415287037
 20
114.3186820956796
 30
0.0
 10
420.3446377067079
 20
114.1543298599622
 30
0.0
 10
420.5384494607932
 20
113.9921667214868
 30
0.0
 10
420.7328278048808
 20
113.8322139735139
 30
0.0
 10
420.9277499258363
 20
113.6744926970488
 30
0.0
 10
421.1231929417463
 20
113.5190237601753
 30
0.0
 10
421.3191339016422
 20
113.3658278173996
 30
0.0
 10
421.5155497849879
 20
113.2149253089955
 30
0.0
 10
421.7124175009245
 20
113.0663364603361
 30
0.0
 10
421.9097138872609
 20
112.9200812811977
 30
0.0
 10
422.107415709199
 20
112.7761795650194
 30
0.0
 10
422.3054996577862
 20
112.6346508881026
 30
0.0
 10
422.5039423480824
 20
112.4955146087278
 30
0.0
 10
422.7027203170422
 20
112.3587898661677
 30
0.0
 10
422.9018100210955
 20
112.2244955795772
 30
0.0
 10
423.1011878334322
 20
112.0926504467268
 30
0.0
 10
423.3008300409751
 20
111.9632729425636
 30
0.0
 10
423.5007128410571
 20
111.836381317556
 30
0.0
 10
423.7008123377856
 20
111.711993595805
 30
0.0
 10
423.9011045381121
 20
111.5901275728762
 30
0.0
 10
424.1015653476086
 20
111.4708008133242
 30
0.0
 10
424.3021705659598
 20
111.3540306478683
 30
0.0
 10
424.502895882192
 20
111.2398341701801
 30
0.0
 10
424.7037168696515
 20
111.1282282332413
 30
0.0
 10
424.904608980763
 20
111.0192294452283
 30
0.0
 10
425.1055475415923
 20
110.9128541648807
 30
0.0
 10
425.3065075620274
 20
110.809118591403
 30
0.0
 10
425.5074637774007
 20
110.7080387214734
 30
0.0
 10
425.7083907567537
 20
110.6096302769363
 30
0.0
 10
425.9092630808404
 20
110.513908611973
 30
0.0
 10
426.1100552884247
 20
110.4208887381317
 30
0.0
 10
426.3107417564514
 20
110.33058537296
 30
0.0
 10
426.5112966949281
 20
110.2430129302368
 30
0.0
 10
426.7116941421594
 20
110.1581855093393
 30
0.0
 10
426.91190796043
 20
110.076116883722
 30
0.0
 10
427.1119118322424
 20
109.9968204884904
 30
0.0
 10
427.3116792572311
 20
109.9203094070566
 30
0.0
 10
427.511183549876
 20
109.8465963568767
 30
0.0
 10
427.7103978381508
 20
109.7756936742795
 30
0.0
 10
427.9092950632348
 20
109.7076132984114
 30
0.0
 10
428.107847980442
 20
109.6423667543323
 30
0.0
 10
428.3060291614977
 20
109.5799651353194
 30
0.0
 10
428.5038109983205
 20
109.5204190844458
 30
0.0
 10
428.7011657084338
 20
109.4637387755284
 30
0.0
 10
428.8980653421588
 20
109.4099338935509
 30
0.0
 10
429.0944817917025
 20
109.3590136146933
 30
0.0
 10
429.2903868022686
 20
109.3109865861202
 30
0.0
 10
429.4857519852829
 20
109.2658609056976
 30
0.0
 10
429.6805488338189
 20
109.2236441018349
 30
0.0
 10
429.8747487402805
 20
109.1843431136628
 30
0.0
 10
430.0683230163774
 20
109.1479642717794
 30
0.0
 10
430.2612429153908
 20
109.1145132798136
 30
0.0
 10
430.4534796567
 20
109.0839951970655
 30
0.0
 10
430.6450044524996
 20
109.0564144224991
 30
0.0
 10
430.8357885366
 20
109.0317746803607
 30
0.0
 10
431.0258031951651
 20
109.0100790077075
 30
0.0
 10
431.2150197991897
 20
108.9913297441184
 30
0.0
 10
431.4034098384911
 20
108.9755285238564
 30
0.0
 10
431.5909449569331
 20
108.9626762707319
 30
0.0
 10
431.7775969885773
 20
108.952773195898
 30
0.0
 10
431.9633379944046
 20
108.945818798779
 30
0.0
 10
432.1481402992364
 20
108.9418118713015
 30
0.0
 10
432.3319765284415
 20
108.9407505055571
 30
0.0
 10
432.5148196440094
 20
108.9426321049821
 30
0.0
 10
432.6966429795525
 20
108.9474533990912
 30
0.0
 10
432.8774202737952
 20
108.9552104617511
 30
0.0
 10
433.0571257021187
 20
108.9658987329237
 30
0.0
 10
433.235733905736
 20
108.9795130437572
 30
0.0
 10
433.4132200181005
 20
108.9960476448453
 30
0.0
 10
433.5895596881804
 20
109.0154962374245
 30
0.0
 10
433.7647291002648
 20
109.0378520072255
 30
0.0
 10
433.9387049900229
 20
109.0631076606534
 30
0.0
 10
434.1114646565761
 20
109.0912554629238
 30
0.0
 10
434.2829859704128
 20
109.1222872777523
 30
0.0
 10
434.4532473770201
 20
109.1561946081622
 30
0.0
 10
434.6222278961793
 20
109.192968637957
 30
0.0
 10
434.7899071169325
 20
109.2326002733798
 30
0.0
 10
434.9562651882631
 20
109.2750801845236
 30
0.0
 10
435.1212828056993
 20
109.3203988458654
 30
0.0
 10
435.2849411936932
 20
109.3685465760335
 30
0.0
 10
435.4472220852238
 20
109.4195135742127
 30
0.0
 10
435.60810769435
 20
109.4732899607552
 30
0.0
 10
435.767580698979
 20
109.529865791789
 30
0.0
 10
435.9256241710164
 20
109.5892311585599
 30
0.0
 10
436.0822216898054
 20
109.6513759569862
 30
0.0
 10
436.2373567611494
 20
109.7162908712789
 30
0.0
 10
436.3910148163552
 20
109.7839638140198
 30
0.0
 10
436.5431755832606
 20
109.8543932909289
 30
0.0
 10
436.6938413583129
 20
109.9275386286052
 30
0.0
 10
436.8429313731515
 20
110.0035056685339
 30
0.0
 10
436.9782288394956
 20
110.0752535942936
 30
0.0
 10
437.0631230265062
 20
110.1229112082782
 30
0.0
 10
437.0994249919063
 20
110.1432902838643
 30
0.0
  0
LINE
  5
125
330
1F
100
AcDbEntity
  8
0
  6
Continuous
 62
     7
370
    30
100
AcDbLine
 10
426.4930525613
 20
161.5384577866
 30
0.0
 11
412.2838631255
 21
153.1319177737
 31
0.0
  0
LINE
  5
126
330
1F
100
AcDbEntity
  8
0
  6
Continuous
 62
     7
370
    30
100
AcDbLine
 10
437.100511776
 20
110.1435635598
 30
0.0
 11
451.4861439401
 21
118.2444626859
 31
0.0
  0
SPLINE
  5
127
330
1F
100
AcDbEntity
  8
0
  6
Continuous
 62
     7
370
    30
100
AcDbSpline
210
0.0
220
0.0
230
1.0
 70
     8
 71
     3
 72
    79
 73
    75
 74
     0
 42
0.000000001
 43
0.00000001
 40
0.0
 40
0.0
 40
0.0
 40
0.0
 40
0.0073313002365294
 40
0.021295922861264
 40
0.0352606301191517
 40
0.0492260287676089
 40
0.0631927475443461
 40
0.0771614067942527
 40
0.0911326147521532
 40
0.1051069639515043
 40
0.1190850277953608
 40
0.1330673573231296
 40
0.147054478203103
 40
0.1610468879788024
 40
0.1750450535932598
 40
0.1890494092105175
 40
0.2030603543520065
 40
0.217078252357423
 40
0.2311034291800168
 40
0.245136172517234
 40
0.2591767312772225
 40
0.2732253153737718
 40
0.2872820958421083
 40
0.3013472052609243
 40
0.3154207384637689
 40
0.3295027535213084
 40
0.3435932729698124
 40
0.3576922852631037
 40
0.3717997464206172
 40
0.385915581844161
 40
0.400039688274871
 40
0.4141719358629471
 40
0.4283121703207315
 40
0.4424602151331106
 40
0.4566158737976561
 40
0.4707789320713187
 40
0.484949160198575
 40
0.4991263151029485
 40
0.5133101425198943
 40
0.527500379057274
 40
0.5416967541672733
 40
0.5558989920199175
 40
0.5701068132663989
 40
0.5843199366871493
 40
0.5985380807183086
 40
0.6127609648540837
 40
0.6269883109234062
 40
0.6412198442411756
 40
0.6554552946362084
 40
0.669694397358962
 40
0.6839368938721835
 40
0.698182532531382
 40
0.7124310691586473
 40
0.7266822675173137
 40
0.740935899694146
 40
0.7551917463948523
 40
0.7694495971603551
 40
0.7837092505112765
 40
0.797970514026684
 40
0.8122332043641705
 40
0.826497147227049
 40
0.8407621772860708
 40
0.8550281380599705
 40
0.8692948817615158
 40
0.8835622691134936
 40
0.8978301691399213
 40
0.9120984589357501
 40
0.9263670234203075
 40
0.940635755078004
 40
0.9549045481889467
 40
0.9691732854692641
 40
0.9834418826448581
 40
0.9969602525959481
 40
1.0
 40
1.0
 40
1.0
 40
1.0
 10
451.5449423713074
 20
118.2783253599334
 30
0.0
 10
451.5699531227284
 20
118.2925905378702
 30
0.0
 10
451.6426042235946
 20
118.3340279526726
 30
0.0
 10
451.7611871525172
 20
118.4055886674147
 30
0.0
 10
451.9007814471548
 20
118.4927918809994
 30
0.0
 10
452.0386904251778
 20
118.5828091305209
 30
0.0
 10
452.17499811915
 20
118.6754576836676
 30
0.0
 10
452.3096625775942
 20
118.7707737795336
 30
0.0
 10
452.4426756750743
 20
118.8687348093909
 30
0.0
 10
452.574020241457
 20
118.9693337267186
 30
0.0
 10
452.7036815337902
 20
119.0725590770039
 30
0.0
 10
452.8316441475688
 20
119.1784003198446
 30
0.0
 10
452.9578928341677
 20
119.2868463706429
 30
0.0
 10
453.0824122749956
 20
119.3978859586642
 30
0.0
 10
453.2051871390889
 20
119.5115074976585
 30
0.0
 10
453.3262020685086
 20
119.6276990870978
 30
0.0
 10
453.4454416868151
 20
119.7464484788309
 30
0.0
 10
453.562890604969
 20
119.8677430539261
 30
0.0
 10
453.6785334313648
 20
119.9915697981483
 30
0.0
 10
453.7923547839869
 20
120.1179152795944
 30
0.0
 10
453.904339304964
 20
120.2467656279249
 30
0.0
 10
454.0144716771518
 20
120.3781065156857
 30
0.0
 10
454.1227366425134
 20
120.5119231418788
 30
0.0
 10
454.2291190220037
 20
120.6482002179784
 30
0.0
 10
454.3336037366647
 20
120.7869219565243
 30
0.0
 10
454.4361758296257
 20
120.9280720623788
 30
0.0
 10
454.5368204887052
 20
121.071633726697
 30
0.0
 10
454.6355230693118
 20
121.217589623602
 30
0.0
 10
454.7322691173555
 20
121.3659219095304
 30
0.0
 10
454.8270443918889
 20
121.5166122251575
 30
0.0
 10
454.9198348872239
 20
121.6696416997892
 30
0.0
 10
455.0106268542839
 20
121.8249909580673
 30
0.0
 10
455.0994068209859
 20
121.9826401288137
 30
0.0
 10
455.1861616114641
 20
122.1425688558114
 30
0.0
 10
455.2708783639857
 20
122.3047563103105
 30
0.0
 10
455.3535445474286
 20
122.4691812050262
 30
0.0
 10
455.434147976234
 20
122.6358218094025
 30
0.0
 10
455.5126768237599
 20
122.8046559658983
 30
0.0
 10
455.5891196340055
 20
122.9756611070718
 30
0.0
 10
455.6634653316888
 20
123.1488142732282
 30
0.0
 10
455.7357032306959
 20
123.3240921304261
 30
0.0
 10
455.8058230409318
 20
123.5014709886308
 30
0.0
 10
455.8738148736294
 20
123.6809268198347
 30
0.0
 10
455.9396692451856
 20
123.8624352759714
 30
0.0
 10
456.0033770796079
 20
124.045971706477
 30
0.0
 10
456.0649297096671
 20
124.2315111753662
 30
0.0
 10
456.1243188768557
 20
124.4190284777107
 30
0.0
 10
456.181536730263
 20
124.6084981554274
 30
0.0
 10
456.2365758244746
 20
124.7998945123063
 30
0.0
 10
456.2894291166098
 20
124.9931916282176
 30
0.0
 10
456.3400899626068
 20
125.1883633724637
 30
0.0
 10
456.3885521128656
 20
125.385383416249
 30
0.0
 10
456.4348097073491
 20
125.5842252442601
 30
0.0
 10
456.4788572702463
 20
125.784862165358
 30
0.0
 10
456.5206897042864
 20
125.9872673223962
 30
0.0
 10
456.5603022847928
 20
126.1914137011861
 30
0.0
 10
456.5976906535558
 20
126.3972741386413
 30
0.0
 10
456.6328508125956
 20
126.604821330138
 30
0.0
 10
456.6657791178835
 20
126.8140278361337
 30
0.0
 10
456.6964722730689
 20
127.0248660880889
 30
0.0
 10
456.7249273232923
 20
127.237308393731
 30
0.0
 10
456.7511416490242
 20
127.4513269417583
 30
0.0
 10
456.7751129603459
 20
127.6668938058378
 30
0.0
 10
456.7968392902938
 20
127.8839809487014
 30
0.0
 10
456.8163189925456
 20
128.102560223558
 30
0.0
 10
456.8335507238638
 20
128.3226033834525
 30
0.0
 10
456.848533484478
 20
128.5440820591082
 30
0.0
 10
456.861266443342
 20
128.7669678527676
 30
0.0
 10
456.8717495660892
 20
128.9912319688771
 30
0.0
 10
456.8799812427501
 20
129.2168463944998
 30
0.0
 10
456.8859671240143
 20
129.4437792675629
 30
0.0
 10
456.8896219841862
 20
129.6680137707147
 30
0.0
 10
456.8907662894771
 20
129.8332422257452
 30
0.0
 10
456.8908245309156
 20
129.9222984170196
 30
0.0
 10
456.8908352229078
 20
129.9386473968242
 30
0.0
  0
SPLINE
  5
128
330
1F
100
AcDbEntity
  8
0
  6
Continuous
 62
     7
370
    30
100
AcDbSpline
210
0.0
220
0.0
230
1.0
 70
     8
 71
     3
 72
   218
 73
   214
 74
     0
 42
0.000000001
 43
0.00000001
 40
0.0
 40
0.0
 40
0.0
 40
0.0
 40
0.0025211448456921
 40
0.0073019644777541
 40
0.0120825958491778
 40
0.0168630747639436
 40
0.0216433838552672
 40
0.0264235073658468
 40
0.0312034310613355
 40
0.035983142147524
 40
0.0407626291905523
 40
0.0455418820394579
 40
0.0503208917522472
 40
0.055099650524433
 40
0.059878151621009
 40
0.0646563893111901
 40
0.06943435880612
 40
0.0742120561996983
 40
0.0789894784121872
 40
0.0837666231366661
 40
0.0885434887882315
 40
0.0933200744560162
 40
0.0980963798575546
 40
0.1028724052959696
 40
0.1076481516192907
 40
0.1124236201823084
 40
0.1171988128105817
 40
0.1219737317665319
 40
0.1267483797177081
 40
0.1315227597068553
 40
0.1362968751238524
 40
0.1410707296796932
 40
0.1458443273816354
 40
0.1506176725104366
 40
0.1553907695987769
 40
0.1601636234112846
 40
0.164936238925822
 40
0.1697086213160661
 40
0.1744807759353504
 40
0.1792527083014941
 40
0.1840244240829586
 40
0.1887959290857238
 40
0.1935672292413772
 40
0.1983383305957944
 40
0.2031092392990178
 40
0.2078799615956381
 40
0.2126505038159543
 40
0.2174208723680501
 40
0.2221910737301604
 40
0.2269611144439752
 40
0.2317310011082515
 40
0.2365007403732064
 40
0.2412703389350782
 40
0.246039803531473
 40
0.2508091409369198
 40
0.2555783579589636
 40
0.260347461434484
 40
0.2651164582264798
 40
0.2698853552210491
 40
0.2746541593248276
 40
0.2794228774624898
 40
0.2841915165746832
 40
0.2889600836159753
 40
0.2937285855532367
 40
0.2984970293640354
 40
0.3032654220352115
 40
0.3080337705617108
 40
0.3128020819454266
 40
0.3175703631941192
 40
0.3223386213206776
 40
0.327106863342051
 40
0.331875096278683
 40
0.3366433271536144
 40
0.3414115621429044
 40
0.3461798067801555
 40
0.3509480680925199
 40
0.3557163531072752
 40
0.3604846688510571
 40
0.3652530223490924
 40
0.3700214206244493
 40
0.3747898706970501
 40
0.379558379582691
 40
0.3843269542920446
 40
0.3890956018293123
 40
0.3938643291910343
 40
0.3986331433643815
 40
0.4034020513256584
 40
0.4081710600382937
 40
0.4129401764507681
 40
0.4177094074943783
 40
0.4224787600804341
 40
0.4272482410975767
 40
0.4320178574084553
 40
0.4367876158462609
 40
0.441557523210857
 40
0.4463275862644628
 40
0.4510978117269647
 40
0.4558682062707864
 40
0.4606387765152711
 40
0.465409529020467
 40
0.4701804702804889
 40
0.4749516067161594
 40
0.4797229446670939
 40
0.4844944903830519
 40
0.4892662500145779
 40
0.4940382296028946
 40
0.4988104350688785
 40
0.5035828722013
 40
0.5083555466439645
 40
0.513128463881951
 40
0.5179016292267887
 40
0.5226750478004386
 40
0.5274487245181725
 40
0.5322226640701085
 40
0.5369968709015004
 40
0.5417713491914448
 40
0.5465461028302985
 40
0.5513211353953433
 40
0.5560964501248744
 40
0.5608720498904995
 40
0.5656479371676549
 40
0.5704241140040263
 40
0.5752005819861231
 40
0.5799773422035857
 40
0.5847543952113727
 40
0.589531740989517
 40
0.5943093789005043
 40
0.5990873076442292
 40
0.6038655252101836
 40
0.6086440288270607
 40
0.6134228149095533
 40
0.618201879002285
 40
0.6229812157208842
 40
0.6277608186899409
 40
0.6325406804781505
 40
0.6373207925301556
 40
0.6421011450955935
 40
0.6468817271548505
 40
0.6516625263419793
 40
0.6564435288645707
 40
0.661224719420803
 40
0.6660060811137786
 40
0.6707875953633237
 40
0.6755692418154414
 40
0.6803509982497782
 40
0.685132840485374
 40
0.6899147422850982
 40
0.6946966752593351
 40
0.699478599508821
 40
0.7042604797958698
 40
0.709042279865353
 40
0.713823960898798
 40
0.7186054814253885
 40
0.7233867972374138
 40
0.7281678613112601
 40
0.7329486237353514
 40
0.7377290316464719
 40
0.7425090291761534
 40
0.7472885574086482
 40
0.7520675543526123
 40
0.7568459549283246
 40
0.7616236909724685
 40
0.7664006912628512
 40
0.7711768815651219
 40
0.775952184704019
 40
0.7807265206612887
 40
0.7854998067028013
 40
0.7902719575372006
 40
0.7950428855081434
 40
0.7998125008226301
 40
0.8045807118168623
 40
0.8093474252619626
 40
0.8141125467104728
 40
0.8188759808849176
 40
0.8236376321092785
 40
0.8283974047830228
 40
0.8331552038978238
 40
0.8379109355955939
 40
0.8426645077663335
 40
0.8474158306832285
 40
0.8521648176717166
 40
0.8569113858088087
 40
0.8616554566475985
 40
0.8663969569611919
 40
0.8711358194999951
 40
0.8758719837549782
 40
0.8806053967187643
 40
0.8853360136366136
 40
0.8900637987376548
 40
0.894788725937619
 40
0.899510779502665
 40
0.904229954665475
 40
0.9089462581830055
 40
0.9136597088270518
 40
0.9183703377985609
 40
0.9230781890569534
 40
0.9277833195573484
 40
0.9324857993883181
 40
0.9371857118052629
 40
0.9418831531545795
 40
0.9465782326853671
 40
0.9512710722477964
 40
0.9559618058771165
 40
0.9606505792649125
 40
0.9653375491208882
 40
0.9700228824286903
 40
0.974706755602344
 40
0.9793893535497664
 40
0.9840708686525153
 40
0.9887514996705529
 40
0.9934314505834301
 40
0.9981109293787317
 40
1.0
 40
1.0
 40
1.0
 40
1.0
 10
456.8908352229078
 20
129.9386473968242
 30
0.0
 10
456.8907721929003
 20
129.9791646094342
 30
0.0
 10
456.890589639773
 20
130.0965141729555
 30
0.0
 10
456.8885682736872
 20
130.2916289392525
 30
0.0
 10
456.8840372144832
 20
130.5243565113126
 30
0.0
 10
456.8772317884323
 20
130.7582556097768
 30
0.0
 10
456.8681927068452
 20
130.9932763628066
 30
0.0
 10
456.8569118725938
 20
131.2293950858514
 30
0.0
 10
456.8433946042608
 20
131.4665807276924
 30
0.0
 10
456.8276429569185
 20
131.7048041004844
 30
0.0
 10
456.809660188736
 20
131.9440354079905
 30
0.0
 10
456.7894495620932
 20
132.1842449092151
 30
0.0
 10
456.7670146628403
 20
132.4254027420451
 30
0.0
 10
456.7423593129561
 20
132.6674789720559
 30
0.0
 10
456.7154875922937
 20
132.9104435810911
 30
0.0
 10
456.6864038312286
 20
133.1542664720911
 30
0.0
 10
456.6551126112225
 20
133.3989174696824
 30
0.0
 10
456.6216187633706
 20
133.6443663220217
 30
0.0
 10
456.585927367583
 20
133.8905827024241
 30
0.0
 10
456.5480437516779
 20
134.1375362111706
 30
0.0
 10
456.5079734905702
 20
134.3851963773884
 30
0.0
 10
456.4657224054941
 20
134.6335326610329
 30
0.0
 10
456.4212965632687
 20
134.8825144549637
 30
0.0
 10
456.3747022755936
 20
135.1321110871106
 30
0.0
 10
456.32594609837
 20
135.3822918227355
 30
0.0
 10
456.2750348310406
 20
135.6330258667793
 30
0.0
 10
456.2219755159426
 20
135.8842823662985
 30
0.0
 10
456.1667754376687
 20
136.1360304129854
 30
0.0
 10
456.1094421224311
 20
136.3882390457692
 30
0.0
 10
456.0499833374238
 20
136.6408772534963
 30
0.0
 10
455.988407090179
 20
136.8939139776884
 30
0.0
 10
455.9247216279145
 20
137.1473181153718
 30
0.0
 10
455.8589354368664
 20
137.4010585219788
 30
0.0
 10
455.7910572416086
 20
137.6551040143128
 30
0.0
 10
455.7210960043495
 20
137.9094233735821
 30
0.0
 10
455.649060924209
 20
138.1639853484909
 30
0.0
 10
455.5749614364712
 20
138.4187586583903
 30
0.0
 10
455.4988072118093
 20
138.6737119964841
 30
0.0
 10
455.4206081554839
 20
138.9288140330844
 30
0.0
 10
455.3403744065096
 20
139.1840334189204
 30
0.0
 10
455.258116336791
 20
139.43933878849
 30
0.0
 10
455.1738445502244
 20
139.6946987634577
 30
0.0
 10
455.0875698817669
 20
139.9500819560896
 30
0.0
 10
454.9993033964685
 20
140.2054569727303
 30
0.0
 10
454.9090563884694
 20
140.4607924173119
 30
0.0
 10
454.8168403799586
 20
140.7160568948985
 30
0.0
 10
454.7226671200959
 20
140.9712190152601
 30
0.0
 10
454.6265485838961
 20
141.2262473964729
 30
0.0
 10
454.5284969710714
 20
141.4811106685491
 30
0.0
 10
454.4285247048396
 20
141.7357774770848
 30
0.0
 10
454.3266444306873
 20
141.9902164869353
 30
0.0
 10
454.2228690150981
 20
142.2443963859026
 30
0.0
 10
454.1172115442379
 20
142.4982858884457
 30
0.0
 10
454.0096853226026
 20
142.7518537394004
 30
0.0
 10
453.9003038716236
 20
143.0050687177179
 30
0.0
 10
453.7890809282351
 20
143.2578996402096
 30
0.0
 10
453.6760304434013
 20
143.5103153653035
 30
0.0
 10
453.5611665806043
 20
143.7622847968055
 30
0.0
 10
453.4445037142916
 20
144.0137768876701
 30
0.0
 10
453.326056428286
 20
144.2647606437706
 30
0.0
 10
453.2058395141545
 20
144.5152051276762
 30
0.0
 10
453.0838679695416
 20
144.7650794624244
 30
0.0
 10
452.9601569964613
 20
145.0143528352971
 30
0.0
 10
452.8347219995539
 20
145.2629945015907
 30
0.0
 10
452.7075785843036
 20
145.5109737883843
 30
0.0
 10
452.5787425552197
 20
145.7582600983016
 30
0.0
 10
452.4482299139821
 20
146.0048229132659
 30
0.0
 10
452.3160568575493
 20
146.250631798246
 30
0.0
 10
452.1822397762319
 20
146.4956564049948
 30
0.0
 10
452.0467952517316
 20
146.7398664757723
 30
0.0
 10
451.9097400551439
 20
146.9832318470619
 30
0.0
 10
451.7710911449296
 20
147.2257224532673
 30
0.0
 10
451.6308656731731
 20
147.4673083160611
 30
0.0
 10
451.4890809903773
 20
147.7079595375267
 30
0.0
 10
451.3457546292472
 20
147.9476463294031
 30
0.0
 10
451.200904293759
 20
148.1863390308613
 30
0.0
 10
451.0545478497635
 20
148.4240081224519
 30
0.0
 10
450.9067033375617
 20
148.6606242045823
 30
0.0
 10
450.7573889696548
 20
148.8961580010857
 30
0.0
 10
450.6066231284671
 20
149.1305803627646
 30
0.0
 10
450.4544243640408
 20
149.3638622709108
 30
0.0
 10
450.3008113917043
 20
149.5959748407998
 30
0.0
 10
450.1458030897152
 20
149.8268893251564
 30
0.0
 10
449.9894184968768
 20
150.0565771175967
 30
0.0
 10
449.8316768101336
 20
150.2850097560339
 30
0.0
 10
449.672597382141
 20
150.5121589260609
 30
0.0
 10
449.5121997188162
 20
150.7379964642954
 30
0.0
 10
449.350503476865
 20
150.9624943616963
 30
0.0
 10
449.1875284612917
 20
151.1856247668449
 30
0.0
 10
449.02329462289
 20
151.40735998919
 30
0.0
 10
448.8578220557158
 20
151.6276725022599
 30
0.0
 10
448.6911309945459
 20
151.8465349468325
 30
0.0
 10
448.5232418123202
 20
152.0639201340726
 30
0.0
 10
448.3541750175724
 20
152.279801048626
 30
0.0
 10
448.183951251848
 20
152.4941508516756
 30
0.0
 10
448.0125912871134
 20
152.706942883954
 30
0.0
 10
447.8401160231555
 20
152.9181506687146
 30
0.0
 10
447.6665464849762
 20
153.1277479146599
 30
0.0
 10
447.4919038201799
 20
153.335708518824
 30
0.0
 10
447.3162092963597
 20
153.5420065694105
 30
0.0
 10
447.1394842984827
 20
153.7466163485829
 30
0.0
 10
446.9617503262751
 20
153.9495123352099
 30
0.0
 10
446.783028991612
 20
154.1506692075598
 30
0.0
 10
446.6033420159113
 20
154.350061845948
 30
0.0
 10
446.4227112275382
 20
154.5476653353334
 30
0.0
 10
446.2411585592171
 20
154.7434549678648
 30
0.0
 10
446.058706045459
 20
154.9374062453773
 30
0.0
 10
445.8753758200043
 20
155.1294948818345
 30
0.0
 10
445.6911901132841
 20
155.319696805721
 30
0.0
 10
445.5061712499044
 20
155.5079881623811
 30
0.0
 10
445.3203416461553
 20
155.6943453163047
 30
0.0
 10
445.1337238075483
 20
155.8787448533606
 30
0.0
 10
444.9463403263867
 20
156.0611635829764
 30
0.0
 10
444.7582138793704
 20
156.2415785402673
 30
0.0
 10
444.569367225242
 20
156.4199669881091
 30
0.0
 10
444.3798232024755
 20
156.5963064191626
 30
0.0
 10
444.1896047270135
 20
156.7705745578442
 30
0.0
 10
443.9987347900557
 20
156.9427493622474
 30
0.0
 10
443.8072364559054
 20
157.1128090260149
 30
0.0
 10
443.615132859875
 20
157.280731980163
 30
0.0
 10
443.4224472062599
 20
157.4464968948598
 30
0.0
 10
443.2292027663816
 20
157.61008268116
 30
0.0
 10
443.0354228767088
 20
157.7714684926974
 30
0.0
 10
442.8411309370562
 20
157.9306337273407
 30
0.0
 10
442.6463504088733
 20
158.0875580288125
 30
0.0
 10
442.4511048136224
 20
158.2422212882777
 30
0.0
 10
442.2554177312549
 20
158.3946036459048
 30
0.0
 10
442.0593127987891
 20
158.5446854924048
 30
0.0
 10
441.8628137089964
 20
158.6924474705535
 30
0.0
 10
441.6659442092007
 20
158.8378704767028
 30
0.0
 10
441.4687281001957
 20
158.980935662288
 30
0.0
 10
441.2711892352845
 20
159.1216244353391
 30
0.0
 10
441.0733515194497
 20
159.2599184620028
 30
0.0
 10
440.8752389086528
 20
159.3957996680867
 30
0.0
 10
440.6768754092736
 20
159.5292502406319
 30
0.0
 10
440.4782850776861
 20
159.6602526295293
 30
0.0
 10
440.279492019981
 20
159.788789549187
 30
0.0
 10
440.0805203918306
 20
159.9148439802646
 30
0.0
 10
439.8813943985031
 20
160.0383991714858
 30
0.0
 10
439.6821382950222
 20
160.1594386415455
 30
0.0
 10
439.4827763864748
 20
160.2779461811258
 30
0.0
 10
439.283333028462
 20
160.393905855039
 30
0.0
 10
439.0838326276929
 20
160.5073020045126
 30
0.0
 10
438.8842996427129
 20
160.618119249638
 30
0.0
 10
438.6847585847621
 20
160.7263424919996
 30
0.0
 10
438.485234018753
 20
160.8319569175067
 30
0.0
 10
438.2857505643573
 20
160.9349479994467
 30
0.0
 10
438.0863330259127
 20
161.0353014370047
 30
0.0
 10
437.8870062960128
 20
161.1330032159571
 30
0.0
 10
437.6877953367453
 20
161.2280396243744
 30
0.0
 10
437.4887250528367
 20
161.3203973145788
 30
0.0
 10
437.2898203908154
 20
161.4100632570461
 30
0.0
 10
437.091106360447
 20
161.497024735475
 30
0.0
 10
436.8926080358955
 20
161.5812693521342
 30
0.0
 10
436.694350556769
 20
161.6627850336045
 30
0.0
 10
436.4963591290054
 20
161.7415600369303
 30
0.0
 10
436.298659025551
 20
161.8175829561952
 30
0.0
 10
436.1012755867764
 20
161.8908427295302
 30
0.0
 10
435.9042342205771
 20
161.9613286465608
 30
0.0
 10
435.707560402094
 20
162.0290303562945
 30
0.0
 10
435.5112796729902
 20
162.0939378754451
 30
0.0
 10
435.3154176402161
 20
162.1560415971826
 30
0.0
 10
435.1199999741938
 20
162.2153323002919
 30
0.0
 10
434.9250524063424
 20
162.2718011587165
 30
0.0
 10
434.7306007258768
 20
162.3254397514524
 30
0.0
 10
434.5366707758002
 20
162.3762400727505
 30
0.0
 10
434.3432884480192
 20
162.4241945425743
 30
0.0
 10
434.1504796775097
 20
162.4692960172508
 30
0.0
 10
433.9582704354648
 20
162.5115378002398
 30
0.0
 10
433.7666867213654
 20
162.5509136529361
 30
0.0
 10
433.5757545539139
 20
162.5874178054091
 30
0.0
 10
433.3854999607922
 20
162.6210449669691
 30
0.0
 10
433.195948967202
 20
162.6517903364447
 30
0.0
 10
433.0071275831723
 20
162.6796496120392
 30
0.0
 10
432.8190617896258
 20
162.704619000628
 30
0.0
 10
432.6317775232163
 20
162.7266952263518
 30
0.0
 10
432.4453006599715
 20
162.7458755383499
 30
0.0
 10
432.2596569977869
 20
162.7621577174806
 30
0.0
 10
432.0748722378536
 20
162.7755400818655
 30
0.0
 10
431.8909719651139
 20
162.7860214911041
 30
0.0
 10
431.7079816278699
 20
162.7936013490024
 30
0.0
 10
431.5259265166911
 20
162.798279604672
 30
0.0
 10
431.3448317427944
 20
162.8000567518642
 30
0.0
 10
431.1647222160904
 20
162.7989338264195
 30
0.0
 10
430.9856226231135
 20
162.7949124017333
 30
0.0
 10
430.8075574050694
 20
162.787994582159
 30
0.0
 10
430.630550736253
 20
162.7781829942969
 30
0.0
 10
430.4546265031028
 20
162.7654807761467
 30
0.0
 10
430.279808284158
 20
162.7498915641333
 30
0.0
 10
430.1061193312024
 20
162.7314194780514
 30
0.0
 10
429.9335825518577
 20
162.7100691040079
 30
0.0
 10
429.7622204939042
 20
162.6858454754812
 30
0.0
 10
429.5920553315707
 20
162.6587540526518
 30
0.0
 10
429.4231088540367
 20
162.6288007001964
 30
0.0
 10
429.2554024563498
 20
162.5959916637707
 30
0.0
 10
429.0889571329375
 20
162.5603335454408
 30
0.0
 10
428.9237934738674
 20
162.5218332783463
 30
0.0
 10
428.7599316639398
 20
162.480498100925
 30
0.0
 10
428.5973914847293
 20
162.436335530957
 30
0.0
 10
428.4361923194267
 20
162.3893533400553
 30
0.0
 10
428.2763531610627
 20
162.3395595279021
 30
0.0
 10
428.1178926217659
 20
162.2869623005164
 30
0.0
 10
427.9608289514201
 20
162.2315700382457
 30
0.0
 10
427.8051800338934
 20
162.1733913084841
 30
0.0
 10
427.6509634787228
 20
162.1124347195546
 30
0.0
 10
427.498196367533
 20
162.0487093765135
 30
0.0
 10
427.3468962978852
 20
161.9822231025542
 30
0.0
 10
427.1970775954898
 20
161.9129890075217
 30
0.0
 10
427.0487655576902
 20
161.8410009302899
 30
0.0
 10
426.901943431454
 20
161.7663250195912
 30
0.0
 10
426.7567503626925
 20
161.688758016086
 30
0.0
 10
426.6413640394811
 20
161.6249336752576
 30
0.0
 10
426.5749391490053
 20
161.5860073166967
 30
0.0
 10
426.5558357973883
 20
161.5748123578577
 30
0.0
  0
LINE
  5
129
330
1F
100
AcDbEntity
  8
0
  6
Continuous
 62
     7
370
    30
100
AcDbLine
 10
467.1051073709
 20
184.4115950675
 30
0.0
 11
429.3446193996
 21
162.6129293593
 31
0.0
  0
LINE
  5
12A
330
1F
100
AcDbEntity
  8
0
  6
Continuous
 62
     7
370
    30
100
AcDbLine
 10
453.8426363841
 20
120.1765397411
 30
0.0
 11
491.6031139497
 21
141.9751994422
 31
0.0
  0
SPLINE
  5
12B
330
1F
100
AcDbEntity
  8
0
  6
Continuous
 62
     7
370
    30
100
AcDbSpline
210
0.0
220
0.0
230
1.0
 70
     8
 71
     3
 72
   213
 73
   209
 74
     0
 42
0.000000001
 43
0.00000001
 40
0.0
 40
0.0
 40
0.0
 40
0.0
 40
0.0039225012742974
 40
0.0086907582590231
 40
0.013459297020489
 40
0.0182281897658606
 40
0.0229975080774314
 40
0.0277673227906951
 40
0.0325377038744268
 40
0.0373087203132873
 40
0.0420804399931555
 40
0.0468529295896056
 40
0.0516262544599936
 40
0.0564004785388487
 40
0.061175664237705
 40
0.0659518723489442
 40
0.0707291619540952
 40
0.0755075903369734
 40
0.0802872129018149
 40
0.0850680830963762
 40
0.0898502523403901
 40
0.0946337699597254
 40
0.0994186831256035
 40
0.104205036800241
 40
0.1089928736876369
 40
0.1137822341907609
 40
0.1185731563742069
 40
0.1233656759331937
 40
0.1281598261683177
 40
0.1329556379662561
 40
0.1377531397865145
 40
0.1425523576538502
 40
0.1473533151566198
 40
0.1521560334506396
 40
0.1569605312688392
 40
0.1617668249360467
 40
0.1665749283893581
 40
0.1713848532031916
 40
0.1761966086197901
 40
0.1810102015839713
 40
0.1858256367824435
 40
0.1906429166877328
 40
0.1954620416056617
 40
0.200283009726956
 40
0.2051058171822144
 40
0.209930458100086
 40
0.2147569246687466
 40
0.2195852071996568
 40
0.2244152941940875
 40
0.2292471724117997
 40
0.234080826941388
 40
0.2389162412725205
 40
0.2437533973692705
 40
0.2485922757448555
 40
0.2534328555369669
 40
0.2582751145835246
 40
0.2631190294992449
 40
0.26796457575167
 40
0.2728117277375901
 40
0.2776604588588155
 40
0.2825107415972362
 40
0.2873625475895453
 40
0.2922158477004236
 40
0.2970706120951392
 40
0.3019268103103602
 40
0.3067844113237781
 40
0.3116433836221202
 40
0.3165036952673573
 40
0.3213653139609611
 40
0.3262282071065338
 40
0.3310923418701324
 40
0.3359576852385633
 40
0.3408242040755797
 40
0.3456918651758779
 40
0.3505606353165235
 40
0.3554304813065355
 40
0.3603013700338555
 40
0.3651732685100262
 40
0.3700461439126582
 40
0.3749199636253769
 40
0.3797946952756751
 40
0.3846703067704244
 40
0.3895467663288135
 40
0.3944240425135416
 40
0.3993021042596539
 40
0.4041809209009846
 40
0.4090604621948672
 40
0.4139406983445011
 40
0.4188216000196552
 40
0.4237031383751966
 40
0.4285852850678609
 40
0.43346801227125
 40
0.4383512926890707
 40
0.4432350995667119
 40
0.4481194067013031
 40
0.4530041884502978
 40
0.457889419738188
 40
0.4627750760626533
 40
0.4676611334986751
 40
0.472547568701682
 40
0.4774343589095826
 40
0.4823214819437036
 40
0.4872089162084514
 40
0.4920966406904841
 40
0.4969846349562932
 40
0.5018728791497277
 40
0.5067613539881628
 40
0.5116500407579951
 40
0.5165389213097288
 40
0.5214279780523482
 40
0.5263171939470015
 40
0.5312065525001849
 40
0.5360960377566696
 40
0.5409856342917045
 40
0.5458753272031885
 40
0.5507651021029709
 40
0.555654945108634
 40
0.5605448428341381
 40
0.5654347823809242
 40
0.5703247513284923
 40
0.5752147377249199
 40
0.5801047287687688
 40
0.5849947111398385
 40
0.589884674378076
 40
0.5947746084497263
 40
0.5996645037371412
 40
0.6045543510290595
 40
0.609444141510554
 40
0.6143338667532017
 40
0.6192235187053033
 40
0.6241130896820448
 40
0.6290025723557708
 40
0.6338919597464384
 40
0.6387812452120605
 40
0.643670422439461
 40
0.6485594854347682
 40
0.6534484285144037
 40
0.6583372462960142
 40
0.6632259336897367
 40
0.6681144858892224
 40
0.6730028983633606
 40
0.6778911668476194
 40
0.6827792873359506
 40
0.6876672560725908
 40
0.6925550695442458
 40
0.6974427244722986
 40
0.70233021780518
 40
0.7072175467109734
 40
0.7121047085702267
 40
0.7169917009688611
 40
0.7218785216911964
 40
0.7267651687134224
 40
0.7316516401967204
 40
0.7365379344811782
 40
0.7414240500794398
 40
0.7463099856706621
 40
0.7511957400945947
 40
0.7560813123458762
 40
0.7609667015685561
 40
0.7658519070505427
 40
0.7707369282183804
 40
0.775621764632184
 40
0.7805064159807699
 40
0.785390882076732
 40
0.7902751628517704
 40
0.7951592583522508
 40
0.8000431687348217
 40
0.8049268942621893
 40
0.8098104352989786
 40
0.8146937923077434
 40
0.8195769658451376
 40
0.8244599565582662
 40
0.8293427651810305
 40
0.8342253925305833
 40
0.8391078395040186
 40
0.8439901070752849
 40
0.8488721962916613
 40
0.8537541082711665
 40
0.858635844199345
 40
0.8635174053264962
 40
0.8683987929650522
 40
0.8732800084867448
 40
0.878161053320327
 40
0.883041928948943
 40
0.8879226369077419
 40
0.8928031787818644
 40
0.8976835562039133
 40
0.9025637708520956
 40
0.907443824448072
 40
0.9123237187550883
 40
0.9172034555760326
 40
0.9220830367516268
 40
0.926962464158686
 40
0.9318417397085104
 40
0.9367208653452449
 40
0.9415998430442871
 40
0.9464786748108862
 40
0.9513573626786735
 40
0.9562359087082605
 40
0.9611143149860285
 40
0.9659925836227156
 40
0.970870716752474
 40
0.9757487165313902
 40
0.9806265851365581
 40
0.9855043247651176
 40
0.990381937632968
 40
0.9952594259739601
 40
1.0
 40
1.0
 40
1.0
 40
1.0
 10
438.6949821894979
 20
237.5548444217022
 30
0.0
 10
438.6242792559541
 20
237.5106185208641
 30
0.0
 10
438.4676286749436
 20
237.4126308884597
 30
0.0
 10
438.2269600248601
 20
237.2576636050878
 30
0.0
 10
437.9726095332807
 20
237.0905728269074
 30
0.0
 10
437.7199235127097
 20
236.9207339661228
 30
0.0
 10
437.4688517104239
 20
236.7482501341732
 30
0.0
 10
437.2194181478111
 20
236.5731003827121
 30
0.0
 10
436.9716269476534
 20
236.3952970621541
 30
0.0
 10
436.7254875742128
 20
236.2148436570954
 30
0.0
 10
436.4810080721877
 20
236.0317460911198
 30
0.0
 10
436.2381968813467
 20
235.8460097025029
 30
0.0
 10
435.9970623525757
 20
235.6576400602463
 30
0.0
 10
435.757612879604
 20
235.4666427510479
 30
0.0
 10
435.5198568653733
 20
235.2730234422015
 30
0.0
 10
435.283802732366
 20
235.0767878706477
 30
0.0
 10
435.0494589207914
 20
234.8779418519017
 30
0.0
 10
434.8168338896626
 20
234.6764912837076
 30
0.0
 10
434.5859361167329
 20
234.4724421511381
 30
0.0
 10
434.3567740983759
 20
234.2658005313114
 30
0.0
 10
434.1293563491182
 20
234.0565725981908
 30
0.0
 10
433.903691400911
 20
233.8447646273198
 30
0.0
 10
433.6797878021151
 20
233.6303830005006
 30
0.0
 10
433.4576541162232
 20
233.4134342103987
 30
0.0
 10
433.2372989203087
 20
233.1939248650439
 30
0.0
 10
433.0187308032282
 20
232.9718616922248
 30
0.0
 10
432.8019583635692
 20
232.7472515437455
 30
0.0
 10
432.5869902073641
 20
232.5201013995373
 30
0.0
 10
432.373834945575
 20
232.2904183716035
 30
0.0
 10
432.1625011913633
 20
232.0582097077866
 30
0.0
 10
431.9529975571588
 20
231.8234827953426
 30
0.0
 10
431.7453326515347
 20
231.5862451643089
 30
0.0
 10
431.539515075912
 20
231.3465044906561
 30
0.0
 10
431.3355534210971
 20
231.10426859921
 30
0.0
 10
431.1334562636762
 20
230.8595454663386
 30
0.0
 10
430.9332321622742
 20
230.6123432223895
 30
0.0
 10
430.7348896537035
 20
230.3626701538814
 30
0.0
 10
430.5384372490047
 20
230.1105347054303
 30
0.0
 10
430.3438834294095
 20
229.8559454814186
 30
0.0
 10
430.1512366422313
 20
229.5989112473958
 30
0.0
 10
429.9605052967048
 20
229.3394409312148
 30
0.0
 10
429.7716977597906
 20
229.0775436238983
 30
0.0
 10
429.5848223519539
 20
228.8132285802378
 30
0.0
 10
429.3998873429438
 20
228.5465052191304
 30
0.0
 10
429.2169009475789
 20
228.2773831236531
 30
0.0
 10
429.0358713215575
 20
228.0058720408761
 30
0.0
 10
428.8568065573069
 20
227.7319818814297
 30
0.0
 10
428.6797146798842
 20
227.4557227188195
 30
0.0
 10
428.5046036429428
 20
227.1771047885076
 30
0.0
 10
428.3314813247764
 20
226.896138486761
 30
0.0
 10
428.1603555244511
 20
226.6128343692782
 30
0.0
 10
427.9912339580411
 20
226.3272031496093
 30
0.0
 10
427.8241242549695
 20
226.0392556973675
 30
0.0
 10
427.659033954472
 20
225.7490030362541
 30
0.0
 10
427.4959705021888
 20
225.4564563419055
 30
0.0
 10
427.33494124689
 20
225.161626939572
 30
0.0
 10
427.1759534373483
 20
224.8645263016454
 30
0.0
 10
427.0190142193536
 20
224.5651660450388
 30
0.0
 10
426.8641306328862
 20
224.2635579284415
 30
0.0
 10
426.7113096094463
 20
223.9597138494559
 30
0.0
 10
426.5605579695431
 20
223.65364584163
 30
0.0
 10
426.4118824203512
 20
223.3453660714025
 30
0.0
 10
426.2652895535275
 20
223.0348868349624
 30
0.0
 10
426.1207858431989
 20
222.7222205550507
 30
0.0
 10
425.9783776441144
 20
222.4073797777018
 30
0.0
 10
425.8380711899632
 20
222.0903771689484
 30
0.0
 10
425.6998725918578
 20
221.7712255114901
 30
0.0
 10
425.5637878369814
 20
221.4499377013487
 30
0.0
 10
425.4298227873943
 20
221.1265267445123
 30
0.0
 10
425.2979831789994
 20
220.8010057535822
 30
0.0
 10
425.1682746206604
 20
220.4733879444299
 30
0.0
 10
425.0407025934721
 20
220.1436866328765
 30
0.0
 10
424.9152724501733
 20
219.8119152313996
 30
0.0
 10
424.7919894147055
 20
219.4780872458805
 30
0.0
 10
424.6708585819035
 20
219.1422162723944
 30
0.0
 10
424.5518849173196
 20
218.8043159940557
 30
0.0
 10
424.4350732571705
 20
218.4644001779168
 30
0.0
 10
424.320428308405
 20
218.1224826719345
 30
0.0
 10
424.2079546488854
 20
217.7785774020079
 30
0.0
 10
424.0976567276745
 20
217.4326983690854
 30
0.0
 10
423.9895388654245
 20
217.0848596463518
 30
0.0
 10
423.8836052548619
 20
216.7350753765002
 30
0.0
 10
423.7798599613593
 20
216.3833597690854
 30
0.0
 10
423.6783069235906
 20
216.0297270979655
 30
0.0
 10
423.578949954262
 20
215.6741916988307
 30
0.0
 10
423.4817927409131
 20
215.3167679668236
 30
0.0
 10
423.3868388467842
 20
214.9574703542582
 30
0.0
 10
423.2940917117386
 20
214.5963133684203
 30
0.0
 10
423.2035546532403
 20
214.2333115694683
 30
0.0
 10
423.115230867377
 20
213.8684795684216
 30
0.0
 10
423.0291234299255
 20
213.501832025246
 30
0.0
 10
422.9452352974538
 20
213.1333836470268
 30
0.0
 10
422.8635693084544
 20
212.7631491862351
 30
0.0
 10
422.7841281845033
 20
212.3911434390807
 30
0.0
 10
422.7069145314418
 20
212.0173812439512
 30
0.0
 10
422.6319308405768
 20
211.6418774799441
 30
0.0
 10
422.5591794898928
 20
211.2646470654719
 30
0.0
 10
422.488662745274
 20
210.8857049569581
 30
0.0
 10
422.4203827617326
 20
210.5050661476022
 30
0.0
 10
422.3543415846395
 20
210.1227456662331
 30
0.0
 10
422.2905411509529
 20
209.7387585762278
 30
0.0
 10
422.2289832904451
 20
209.3531199745057
 30
0.0
 10
422.1696697269192
 20
208.9658449905865
 30
0.0
 10
422.1126020794204
 20
208.5769487857244
 30
0.0
 10
422.0577818634316
 20
208.1864465520911
 30
0.0
 10
422.0052104920579
 20
207.7943535120308
 30
0.0
 10
421.9548892771932
 20
207.4006849173654
 30
0.0
 10
421.9068194306707
 20
207.0054560487614
 30
0.0
 10
421.8610020653923
 20
206.6086822151421
 30
0.0
 10
421.8174381964379
 20
206.2103787531475
 30
0.0
 10
421.7761287421526
 20
205.8105610266458
 30
0.0
 10
421.7370745252105
 20
205.4092444262849
 30
0.0
 10
421.7002762736543
 20
205.0064443690871
 30
0.0
 10
421.6657346219092
 20
204.6021762980742
 30
0.0
 10
421.6334501117726
 20
204.1964556819404
 30
0.0
 10
421.6034231933753
 20
203.7892980147434
 30
0.0
 10
421.5756542261183
 20
203.3807188156408
 30
0.0
 10
421.5501434795801
 20
202.9707336286401
 30
0.0
 10
421.5268911343993
 20
202.5593580223876
 30
0.0
 10
421.505897283127
 20
202.1466075899682
 30
0.0
 10
421.4871619327249
 20
201.7324979856695
 30
0.0
 10
421.470685005344
 20
201.3170449528983
 30
0.0
 10
421.456466334822
 20
200.900264256385
 30
0.0
 10
421.4445056667901
 20
200.4821716445676
 30
0.0
 10
421.4348026602033
 20
200.062782821048
 30
0.0
 10
421.4273568907487
 20
199.6421135131523
 30
0.0
 10
421.4221678515027
 20
199.220179471859
 30
0.0
 10
421.4192349535634
 20
198.7969964717267
 30
0.0
 10
421.4185575266584
 20
198.3725803108312
 30
0.0
 10
421.4201348197269
 20
197.9469468107076
 30
0.0
 10
421.4239660014779
 20
197.5201118162968
 30
0.0
 10
421.430050160926
 20
197.0920911958958
 30
0.0
 10
421.4383863079025
 20
196.6629008411081
 30
0.0
 10
421.4489733735456
 20
196.2325566667899
 30
0.0
 10
421.4618102107687
 20
195.8010746110034
 30
0.0
 10
421.4768955947073
 20
195.3684706349641
 30
0.0
 10
421.4942282231457
 20
194.9347607229909
 30
0.0
 10
421.513806716925
 20
194.4999608824424
 30
0.0
 10
421.5356296203307
 20
194.0640871436613
 30
0.0
 10
421.5596954014632
 20
193.6271555599025
 30
0.0
 10
421.5860024525902
 20
193.1891822072693
 30
0.0
 10
421.6145490904826
 20
192.7501831846293
 30
0.0
 10
421.6453335567338
 20
192.3101746135373
 30
0.0
 10
421.6783540180638
 20
191.8691726381406
 30
0.0
 10
421.7136085666081
 20
191.4271934250824
 30
0.0
 10
421.751095220193
 20
190.9842531633957
 30
0.0
 10
421.7908119225968
 20
190.5403680643919
 30
0.0
 10
421.8327565437981
 20
190.0955543615381
 30
0.0
 10
421.8769268802126
 20
189.6498283103246
 30
0.0
 10
421.9233206549171
 20
189.203206188127
 30
0.0
 10
421.9719355178641
 20
188.7557042940545
 30
0.0
 10
422.0227690460835
 20
188.307338948797
 30
0.0
 10
422.0758187438769
 20
187.8581264944527
 30
0.0
 10
422.1310820430013
 20
187.4080832943554
 30
0.0
 10
422.1885563028445
 20
186.9572257328811
 30
0.0
 10
422.248238810592
 20
186.5055702152565
 30
0.0
 10
422.310126781386
 20
186.0531331673521
 30
0.0
 10
422.3742173584783
 20
185.599931035463
 30
0.0
 10
422.4405076133754
 20
185.1459802860832
 30
0.0
 10
422.5089945459778
 20
184.6912974056708
 30
0.0
 10
422.5796750847131
 20
184.2358989004032
 30
0.0
 10
422.652546086665
 20
183.7798012959177
 30
0.0
 10
422.7276043376967
 20
183.3230211370452
 30
0.0
 10
422.8048465525694
 20
182.8655749875369
 30
0.0
 10
422.8842693750568
 20
182.4074794297812
 30
0.0
 10
422.9658693780571
 20
181.9487510645072
 30
0.0
 10
423.0496430637005
 20
181.4894065104789
 30
0.0
 10
423.135586863455
 20
181.0294624041823
 30
0.0
 10
423.223697138228
 20
180.568935399504
 30
0.0
 10
423.3139701784663
 20
180.1078421674012
 30
0.0
 10
423.4064022042553
 20
179.6461993955582
 30
0.0
 10
423.5009893654155
 20
179.1840237880364
 30
0.0
 10
423.5977277415975
 20
178.7213320649179
 30
0.0
 10
423.696613342376
 20
178.2581409619404
 30
0.0
 10
423.7976421073448
 20
177.7944672301183
 30
0.0
 10
423.9008099062077
 20
177.3303276353641
 30
0.0
 10
424.0061125388738
 20
176.8657389580904
 30
0.0
 10
424.1135457355481
 20
176.4007179928183
 30
0.0
 10
424.2231051568263
 20
175.9352815477632
 30
0.0
 10
424.334786393787
 20
175.4694464444247
 30
0.0
 10
424.4485849680859
 20
175.0032295171661
 30
0.0
 10
424.5644963320512
 20
174.5366476127801
 30
0.0
 10
424.6825158687792
 20
174.0697175900565
 30
0.0
 10
424.8026388922312
 20
173.6024563193381
 30
0.0
 10
424.9248606473325
 20
173.1348806820689
 30
0.0
 10
425.0491763100713
 20
172.6670075703419
 30
0.0
 10
425.1755809876022
 20
172.1988538864303
 30
0.0
 10
425.3040697183468
 20
171.7304365423261
 30
0.0
 10
425.4346374721022
 20
171.2617724592576
 30
0.0
 10
425.5672791501462
 20
170.7928785672123
 30
0.0
 10
425.7019895853485
 20
170.3237718044491
 30
0.0
 10
425.8387635422817
 20
169.8544691170086
 30
0.0
 10
425.9775957173334
 20
169.3849874582136
 30
0.0
 10
426.1184807388352
 20
168.9153437881656
 30
0.0
 10
426.2614131671394
 20
168.445555073236
 30
0.0
 10
426.4063874948994
 20
167.9756382855601
 30
0.0
 10
426.553398146605
 20
167.5056104024953
 30
0.0
 10
426.7024394809106
 20
167.03548840619
 30
0.0
 10
426.8535057825546
 20
166.5652892827198
 30
0.0
 10
427.0065912931396
 20
166.095030022812
 30
0.0
 10
427.1616900968977
 20
165.624727616634
 30
0.0
 10
427.3187965476621
 20
165.1543990706864
 30
0.0
 10
427.4779036761085
 20
164.6840613422297
 30
0.0
 10
427.6390091344607
 20
164.2137315814096
 30
0.0
 10
427.8020930121293
 20
163.7434262250875
 30
0.0
 10
427.9672006263211
 20
163.2731643759686
 30
0.0
 10
428.1325729787275
 20
162.8073509534304
 30
0.0
 10
428.2439460475566
 20
162.4983343877917
 30
0.0
 10
428.2988398772224
 20
162.3460255496099
 30
0.0
  0
SPLINE
  5
12C
330
1F
100
AcDbEntity
  8
0
  6
Continuous
 62
     7
370
    30
100
AcDbSpline
210
0.0
220
0.0
230
1.0
 70
     8
 71
     3
 72
   214
 73
   210
 74
     0
 42
0.000000001
 43
0.00000001
 40
0.0
 40
0.0
 40
0.0
 40
0.0
 40
0.0010030469585354
 40
0.0058805978544691
 40
0.0107582707546581
 40
0.0156360679512591
 40
0.0205139917212757
 40
0.0253920443255705
 40
0.0302702280081228
 40
0.0351485449949067
 40
0.0400269974930533
 40
0.0449055876897404
 40
0.0497843177511958
 40
0.0546631898214481
 40
0.0595422060211922
 40
0.0644213684467235
 40
0.0693006791684809
 40
0.0741801402298548
 40
0.0790597536455261
 40
0.0839395214004768
 40
0.0888194454480771
 40
0.0936995277088225
 40
0.0985797700684236
 40
0.1034601743764024
 40
0.1083407424440997
 40
0.1132214760430813
 40
0.1181023769028824
 40
0.1229834467094497
 40
0.1278646871027555
 40
0.1327460996748855
 40
0.1376276859676537
 40
0.142509447470435
 40
0.1473913856177515
 40
0.1522735017867364
 40
0.1571557972945799
 40
0.1620382733959838
 40
0.1669209312802586
 40
0.1718037720685338
 40
0.1766867968107017
 40
0.1815700064826209
 40
0.1864534019825776
 40
0.1913369841282701
 40
0.1962207536532848
 40
0.2011047112035512
 40
0.2059888573338174
 40
0.2108731925038214
 40
0.2157577170743344
 40
0.2206424313033584
 40
0.2255273353416059
 40
0.2304124292286683
 40
0.2352977128881646
 40
0.240183186123469
 40
0.2450688486129149
 40
0.2499546999049181
 40
0.2548407394128812
 40
0.2597269664102438
 40
0.2646133800250273
 40
0.2694999792343458
 40
0.2743867628589393
 40
0.2792737295571436
 40
0.2841608778190984
 40
0.289048205960606
 40
0.2939357121168068
 40
0.2988233942357424
 40
0.303711250071661
 40
0.3085992771783789
 40
0.3134874729020494
 40
0.3183758343743054
 40
0.3232643585046727
 40
0.3281530419732798
 40
0.333041881223047
 40
0.3379308724520115
 40
0.3428200116050998
 40
0.3477092943661341
 40
0.3525987161494507
 40
0.3574882720913957
 40
0.362377957041532
 40
0.3672677655540199
 40
0.3721576918785903
 40
0.3770477299514026
 40
0.381937873385794
 40
0.3868281154629082
 40
0.3917184491223187
 40
0.3966088669522894
 40
0.4014993611800313
 40
0.4063899236621181
 40
0.4112805458744204
 40
0.4161712189022502
 40
0.4210619334303789
 40
0.425952679733013
 40
0.4308434476638344
 40
0.435734226645815
 40
0.4406250023363108
 40
0.4455157626705649
 40
0.4504064955648744
 40
0.4552971884620668
 40
0.460187828322166
 40
0.4650784016127225
 40
0.4699688942998406
 40
0.4748592918388598
 40
0.479749579165965
 40
0.484639740689533
 40
0.4895297602822419
 40
0.4944196212731204
 40
0.4993093064406382
 40
0.5041987980056295
 40
0.5090880776251776
 40
0.5139771263868252
 40
0.5188659248037913
 40
0.5237544528101886
 40
0.5286426897577851
 40
0.53353061441298
 40
0.5384182049547585
 40
0.543305438973858
 40
0.5481922934724828
 40
0.5530787448653838
 40
0.5579647689819962
 40
0.5628503410695943
 40
0.5677354357979792
 40
0.5726200272651291
 40
0.5775040890046627
 40
0.5823875939944602
 40
0.5872705146668724
 40
0.5921528229206552
 40
0.5970344901344652
 40
0.6019154871821562
 40
0.6067957844498922
 40
0.611675351855087
 40
0.6165541588673937
 40
0.6214321745315566
 40
0.6263093674924204
 40
0.631185706022121
 40
0.6360611580492938
 40
0.6409356911905986
 40
0.6458092727843757
 40
0.65068186992692
 40
0.6555534495105114
 40
0.6604239782644515
 40
0.6652934227978848
 40
0.6701617496452449
 40
0.6750289253141044
 40
0.6798949163351438
 40
0.6847596893146624
 40
0.6896232109892316
 40
0.694485448282703
 40
0.6993463683652288
 40
0.7042059387145414
 40
0.7090641271793038
 40
0.7139209020443257
 40
0.7187762320975152
 40
0.7236300866988115
 40
0.7284824358505726
 40
0.7333332502693565
 40
0.7381825014591082
 40
0.7430301617854709
 40
0.7478762045510495
 40
0.7527206040712251
 40
0.7575633357509639
 40
0.7624043761614522
 40
0.7672437031172374
 40
0.772081295753104
 40
0.7769171346004407
 40
0.7817512016633175
 40
0.7865834804932025
 40
0.7914139562630765
 40
0.7962426158396672
 40
0.8010694478543271
 40
0.8058944427714828
 40
0.8107175929553684
 40
0.8155388927339549
 40
0.8203583384599347
 40
0.8251759285687916
 40
0.8299916636335172
 40
0.8348055464156772
 40
0.8396175819124
 40
0.8444277773996084
 40
0.849236142470562
 40
0.8540426890698604
 40
0.8588474315227623
 40
0.863650386559393
 40
0.8684515733337007
 40
0.8732510134372786
 40
0.8780487309072388
 40
0.8828447522289896
 40
0.8876391063327639
 40
0.8924318245845929
 40
0.8972229407712476
 40
0.902012491079252
 40
0.9068005140676886
 40
0.9115870506354432
 40
0.9163721439818809
 40
0.9211558395619958
 40
0.9259381850356183
 40
0.9307192302105296
 40
0.9354990269800616
 40
0.9402776292551468
 40
0.9450550928908423
 40
0.9498314756076177
 40
0.9546068369073925
 40
0.959381237985016
 40
0.9641547416348013
 40
0.9689274121526089
 40
0.9736993152340087
 40
0.9784705178683776
 40
0.9832410882294074
 40
0.9880110955621839
 40
0.9927806100676468
 40
0.9975497027838915
 40
0.9999999999999999
 40
0.9999999999999999
 40
0.9999999999999999
 40
0.9999999999999999
 10
453.0886843582043
 20
119.4043902416099
 30
0.0
 10
453.1107367364839
 20
119.3781451284737
 30
0.0
 10
453.2400239720351
 20
119.2242770022757
 30
0.0
 10
453.4775805488506
 20
118.9444111365549
 30
0.0
 10
453.8013949873023
 20
118.5648910078818
 30
0.0
 10
454.126337816771
 20
118.1872007583283
 30
0.0
 10
454.4522812648535
 20
117.8111715608514
 30
0.0
 10
454.7792448232133
 20
117.4368662097943
 30
0.0
 10
455.1072084812714
 20
117.0642853610024
 30
0.0
 10
455.4361627725482
 20
116.6934462470742
 30
0.0
 10
455.766095364773
 20
116.3243615843288
 30
0.0
 10
456.0969946537162
 20
115.9570452243828
 30
0.0
 10
456.4288488006974
 20
115.5915106392522
 30
0.0
 10
456.7616459910066
 20
115.2277713267903
 30
0.0
 10
457.0953743651687
 20
114.8658407015537
 30
0.0
 10
457.4300220378704
 20
114.5057321235615
 30
0.0
 10
457.7655770933965
 20
114.147458890108
 30
0.0
 10
458.102027587349
 20
113.7910342374918
 30
0.0
 10
458.4393615466906
 20
113.4364713400811
 30
0.0
 10
458.7775669702268
 20
113.0837833101087
 30
0.0
 10
459.1166318289758
 20
112.7329831972662
 30
0.0
 10
459.4565440665527
 20
112.3840839883737
 30
0.0
 10
459.7972915995566
 20
112.0370986070223
 30
0.0
 10
460.1388623179455
 20
111.692039913239
 30
0.0
 10
460.4812440854187
 20
111.3489207031422
 30
0.0
 10
460.8244247397813
 20
111.007753708619
 30
0.0
 10
461.1683920933194
 20
110.66855159699
 30
0.0
 10
461.5131339331589
 20
110.3313269706945
 30
0.0
 10
461.8586380216323
 20
109.9960923669654
 30
0.0
 10
462.2048920966282
 20
109.6628602575234
 30
0.0
 10
462.5518838719469
 20
109.3316430482656
 30
0.0
 10
462.8996010376446
 20
109.0024530789638
 30
0.0
 10
463.2480312603759
 20
108.6753026229651
 30
0.0
 10
463.5971621837274
 20
108.350203886901
 30
0.0
 10
463.9469814285499
 20
108.0271690103961
 30
0.0
 10
464.2974765932814
 20
107.7062100657844
 30
0.0
 10
464.6486352542673
 20
107.3873390578283
 30
0.0
 10
465.0004449660674
 20
107.070567923447
 30
0.0
 10
465.3528932617671
 20
106.7559085314392
 30
0.0
 10
465.7059676532715
 20
106.4433726822204
 30
0.0
 10
466.0596556316007
 20
106.1329721075555
 30
0.0
 10
466.4139446671682
 20
105.8247184703042
 30
0.0
 10
466.7688222100606
 20
105.5186233641628
 30
0.0
 10
467.124275690304
 20
105.2146983134128
 30
0.0
 10
467.4802925181252
 20
104.9129547726722
 30
0.0
 10
467.8368600842019
 20
104.6134041266503
 30
0.0
 10
468.1939657599078
 20
104.3160576899039
 30
0.0
 10
468.5515968975402
 20
104.0209267066032
 30
0.0
 10
468.9097408305511
 20
103.728022350288
 30
0.0
 10
469.268384873754
 20
103.4373557236413
 30
0.0
 10
469.6275163235351
 20
103.1489378582507
 30
0.0
 10
469.9871224580423
 20
102.8627797143822
 30
0.0
 10
470.3471905373734
 20
102.5788921807488
 30
0.0
 10
470.7077078037436
 20
102.2972860742869
 30
0.0
 10
471.0686614816496
 20
102.0179721399283
 30
0.0
 10
471.4300387780188
 20
101.7409610503754
 30
0.0
 10
471.7918268823491
 20
101.4662634058747
 30
0.0
 10
472.1540129668355
 20
101.1938897339923
 30
0.0
 10
472.516584186481
 20
100.9238504893893
 30
0.0
 10
472.8795276792018
 20
100.6561560535941
 30
0.0
 10
473.2428305659126
 20
100.3908167347759
 30
0.0
 10
473.6064799506061
 20
100.1278427675129
 30
0.0
 10
473.9704629204139
 20
99.8672443125611
 30
0.0
 10
474.3347665456546
 20
99.6090314566208
 30
0.0
 10
474.6993778798716
 20
99.35321421209595
 30
0.0
 10
475.0642839598509
 20
99.09980251685496
 30
0.0
 10
475.4294718056331
 20
98.84880623398065
 30
0.0
 10
475.7949284205014
 20
98.60023515152206
 30
0.0
 10
476.1606407909653
 20
98.3540989822332
 30
0.0
 10
476.5265958867205
 20
98.11040736331208
 30
0.0
 10
476.8927806606031
 20
97.86916985612572
 30
0.0
 10
477.2591820485206
 20
97.63039594593407
 30
0.0
 10
477.6257869693743
 20
97.3940950416
 30
0.0
 10
477.9925823249634
 20
97.1602764752927
 30
0.0
 10
478.359554999879
 20
96.9289495021776
 30
0.0
 10
478.7266918613761
 20
96.70012330010016
 30
0.0
 10
479.0939797592363
 20
96.4738069692531
 30
0.0
 10
479.4614055256156
 20
96.2500095318322
 30
0.0
 10
479.8289559748794
 20
96.0287399316767
 30
0.0
 10
480.1966179034184
 20
95.81000703389735
 30
0.0
 10
480.5643780894538
 20
95.5938196244878
 30
0.0
 10
480.9322232928307
 20
95.38018640991686
 30
0.0
 10
481.3001402547972
 20
95.16911601670427
 30
0.0
 10
481.6681156977688
 20
94.96061699097851
 30
0.0
 10
482.0361363250839
 20
94.75469779801207
 30
0.0
 10
482.4041888207454
 20
94.5513668217374
 30
0.0
 10
482.7722598491555
 20
94.35063236423743
 30
0.0
 10
483.1403360548344
 20
94.15250264521676
 30
0.0
 10
483.5084040621347
 20
93.95698580144393
 30
0.0
 10
483.8764504749474
 20
93.76408988616902
 30
0.0
 10
484.2444618763956
 20
93.57382286851583
 30
0.0
 10
484.6124247451394
 20
93.38619267536369
 30
0.0
 10
484.9803255235489
 20
93.20120715298617
 30
0.0
 10
485.3481506285144
 20
93.01887406024825
 30
0.0
 10
485.7158865343916
 20
92.83920102792732
 30
0.0
 10
486.0835197041735
 20
92.66219559330932
 30
0.0
 10
486.451036578026
 20
92.48786520498558
 30
0.0
 10
486.8184235729859
 20
92.31621722200333
 30
0.0
 10
487.1856670826494
 20
92.14725891298565
 30
0.0
 10
487.5527534768823
 20
91.9809974552073
 30
0.0
 10
487.9196691015276
 20
91.81743993363585
 30
0.0
 10
488.2864002781378
 20
91.65659333992873
 30
0.0
 10
488.6529333037055
 20
91.49846457139408
 30
0.0
 10
489.0192544504257
 20
91.34306042990492
 30
0.0
 10
489.3853499654645
 20
91.19038762077514
 30
0.0
 10
489.7512060707603
 20
91.04045275158832
 30
0.0
 10
490.1168089628379
 20
90.89326233098701
 30
0.0
 10
490.4821448126648
 20
90.74882276741307
 30
0.0
 10
490.8471997655244
 20
90.60714036780715
 30
0.0
 10
491.2119599409355
 20
90.46822133626029
 30
0.0
 10
491.5764114325986
 20
90.33207177262373
 30
0.0
 10
491.940540308391
 20
90.19869767107102
 30
0.0
 10
492.3043326104027
 20
90.06810491861759
 30
0.0
 10
492.6677743550196
 20
89.94029929359523
 30
0.0
 10
493.0308515330635
 20
89.81528646408296
 30
0.0
 10
493.3935501099826
 20
89.6930719862956
 30
0.0
 10
493.7558560261053
 20
89.57366130293036
 30
0.0
 10
494.1177551969578
 20
89.45705974147282
 30
0.0
 10
494.4792335136444
 20
89.34327251246576
 30
0.0
 10
494.8402768433072
 20
89.23230470773808
 30
0.0
 10
495.200871029656
 20
89.12416129860154
 30
0.0
 10
495.5610018935811
 20
89.01884713401225
 30
0.0
 10
495.9206552338493
 20
88.9163669387043
 30
0.0
 10
496.279816827885
 20
88.81672531129531
 30
0.0
 10
496.6384724326489
 20
88.71992672236753
 30
0.0
 10
496.9966077856073
 20
88.62597551252935
 30
0.0
 10
497.3542086058031
 20
88.53487589046013
 30
0.0
 10
497.71126059503
 20
88.44663193094233
 30
0.0
 10
498.0677494391103
 20
88.36124757288658
 30
0.0
 10
498.4236608092845
 20
88.2787266173536
 30
0.0
 10
498.7789803637126
 20
88.19907272557762
 30
0.0
 10
499.1336937490908
 20
88.12228941699924
 30
0.0
 10
499.4877866023858
 20
88.04838006730995
 30
0.0
 10
499.8412445526847
 20
87.9773479065189
 30
0.0
 10
500.1940532231721
 20
87.9091960170442
 30
0.0
 10
500.5461982332229
 20
87.84392733183832
 30
0.0
 10
500.8976652006263
 20
87.78154463255335
 30
0.0
 10
501.2484397439241
 20
87.72205054775421
 30
0.0
 10
501.5985074848807
 20
87.66544755118713
 30
0.0
 10
501.9478540510689
 20
87.6117379601111
 30
0.0
 10
502.2964650785809
 20
87.56092393370074
 30
0.0
 10
502.6443262148597
 20
87.51300747152784
 30
0.0
 10
502.991423121643
 20
87.46799041213163
 30
0.0
 10
503.3377414780291
 20
87.42587443168367
 30
0.0
 10
503.6832669836452
 20
87.38666104275889
 30
0.0
 10
504.0279853619255
 20
87.35035159321879
 30
0.0
 10
504.3718823634904
 20
87.31694726521609
 30
0.0
 10
504.7149437696218
 20
87.28644907433015
 30
0.0
 10
505.0571553958247
 20
87.25885786883906
 30
0.0
 10
505.398503095471
 20
87.23417432914019
 30
0.0
 10
505.7389727635168
 20
87.21239896732263
 30
0.0
 10
506.0785503402865
 20
87.19353212690277
 30
0.0
 10
506.41722181531
 20
87.17757398272795
 30
0.0
 10
506.7549732312063
 20
87.1645245410562
 30
0.0
 10
507.0917906876045
 20
87.15438363981725
 30
0.0
 10
507.4276603450832
 20
87.14715094906202
 30
0.0
 10
507.7625684291291
 20
87.14282597160437
 30
0.0
 10
508.0965012340866
 20
87.14140804386057
 30
0.0
 10
508.4294451271031
 20
87.14289633688966
 30
0.0
 10
508.7613865520407
 20
87.14728985763894
 30
0.0
 10
509.0923120333521
 20
87.1545874503949
 30
0.0
 10
509.4222081799018
 20
87.16478779844351
 30
0.0
 10
509.7510616887131
 20
87.17788942593806
 30
0.0
 10
510.0788593486423
 20
87.19389069997582
 30
0.0
 10
510.4055880439456
 20
87.21278983288114
 30
0.0
 10
510.7312347577449
 20
87.23458488469379
 30
0.0
 10
511.0557865753543
 20
87.25927376585733
 30
0.0
 10
511.3792306874759
 20
87.28685424010492
 30
0.0
 10
511.7015543932362
 20
87.31732392753634
 30
0.0
 10
512.0227451030581
 20
87.35068030787974
 30
0.0
 10
512.3427903413462
 20
87.38692072393029
 30
0.0
 10
512.6616777489776
 20
87.42604238515777
 30
0.0
 10
512.9793950855906
 20
87.4680423714732
 30
0.0
 10
513.2959302316491
 20
87.51291763714373
 30
0.0
 10
513.6112711902822
 20
87.56066501484482
 30
0.0
 10
513.9254060888795
 20
87.61128121983619
 30
0.0
 10
514.2383231804428
 20
87.66476285425004
 30
0.0
 10
514.5500108446757
 20
87.7211064114748
 30
0.0
 10
514.8604575888139
 20
87.78030828062222
 30
0.0
 10
515.1696520481821
 20
87.84236475106032
 30
0.0
 10
515.47758298648
 20
87.90727201699728
 30
0.0
 10
515.7842392957838
 20
87.97502618209741
 30
0.0
 10
516.0896099962728
 20
88.04562326411563
 30
0.0
 10
516.3936842356682
 20
88.11905919952855
 30
0.0
 10
516.6964512883949
 20
88.19532984814798
 30
0.0
 10
516.9979005544584
 20
88.27443099769643
 30
0.0
 10
517.2980215580463
 20
88.35635836832812
 30
0.0
 10
517.5968039458519
 20
88.44110761707452
 30
0.0
 10
517.8942374851323
 20
88.52867434220141
 30
0.0
 10
518.1903120615005
 20
88.61905408745221
 30
0.0
 10
518.4850176764655
 20
88.7122423461682
 30
0.0
 10
518.7783444447239
 20
88.80823456526154
 30
0.0
 10
519.0702825912175
 20
88.90702614903039
 30
0.0
 10
519.3608224479681
 20
89.00861246278407
 30
0.0
 10
519.6499544506734
 20
89.11298883632296
 30
0.0
 10
519.9376691352087
 20
89.22015056702664
 30
0.0
 10
520.2239571335574
 20
89.33009292341221
 30
0.0
 10
520.5088091710077
 20
89.44281114587159
 30
0.0
 10
520.7922160578278
 20
89.55830045680342
 30
0.0
 10
521.0741687008332
 20
89.67655603451662
 30
0.0
 10
521.3546580401016
 20
89.7975731210615
 30
0.0
 10
521.6336752644058
 20
89.92134662909338
 30
0.0
 10
521.911210986252
 20
90.04787261655808
 30
0.0
 10
522.1872582984186
 20
90.17714279088703
 30
0.0
 10
522.4618013474143
 20
90.3091650203248
 30
0.0
 10
522.7348579476279
 20
90.44388680308602
 30
0.0
 10
523.0063205482592
 20
90.58148083765936
 30
0.0
 10
523.2327601617075
 20
90.69862565156929
 30
0.0
 10
523.3681229693108
 20
90.77095582218539
 30
0.0
 10
523.4140657863277
 20
90.79550504550785
 30
0.0
  0
LINE
  5
12D
330
1F
100
AcDbEntity
  8
0
  6
Continuous
 62
     7
370
    30
100
AcDbLine
 10
445.4938420655
 20
241.7763383919
 30
0.0
 11
438.7454623583
 21
237.586524338
 31
0.0
  0
LINE
  5
12E
330
1F
100
AcDbEntity
  8
0
  6
Continuous
 62
     7
370
    30
100
AcDbLine
 10
523.4693336636
 20
90.8245726583
 30
0.0
 11
530.4723607284
 21
94.5732767577
 31
0.0
  0
SPLINE
  5
12F
330
1F
100
AcDbEntity
  8
0
  6
Continuous
 62
     7
370
    30
100
AcDbSpline
210
0.0
220
0.0
230
1.0
 70
     8
 71
     3
 72
   531
 73
   527
 74
     0
 42
0.000000001
 43
0.00000001
 40
0.0
 40
0.0
 40
0.0
 40
0.0
 40
0.0003486624053844
 40
0.002252981203073
 40
0.004157282798906
 40
0.0060615754525907
 40
0.007965866463749
 40
0.0098701623292049
 40
0.0117744713170491
 40
0.0136788016669985
 40
0.0155831615735355
 40
0.0174875591690675
 40
0.0193920025074197
 40
0.021296499547534
 40
0.0232010581376186
 40
0.0251056859996699
 40
0.0270103907145318
 40
0.0289151797073089
 40
0.030820060233627
 40
0.0327250393662744
 40
0.034630123982594
 40
0.0365353207526892
 40
0.0384406361281593
 40
0.0403460763318061
 40
0.0422516473479692
 40
0.0441573549138663
 40
0.0460632045115747
 40
0.0479692013609808
 40
0.0498753504136425
 40
0.0517816563473356
 40
0.053688123561667
 40
0.0555947561744072
 40
0.0575015580187703
 40
0.0594085326414592
 40
0.0613156833016622
 40
0.0632230129706964
 40
0.0651305243325956
 40
0.0670382197853722
 40
0.0689461014430685
 40
0.0708541711384636
 40
0.0727624304265419
 40
0.0746708805884882
 40
0.0765795226364031
 40
0.0784883573185585
 40
0.0803973851251104
 40
0.082306606294367
 40
0.0842160208195883
 40
0.0861256284559971
 40
0.0880354287283948
 40
0.0899454209389322
 40
0.0918556041752295
 40
0.0937659773187449
 40
0.0956765390534496
 40
0.0975872878744966
 40
0.0994982220971875
 40
0.1014093398658849
 40
0.1033206391632691
 40
0.1052321178192485
 40
0.1071437735201877
 40
0.1090556038179837
 40
0.1109676061390523
 40
0.1128797777933038
 40
0.1147921159830115
 40
0.1167046178115223
 40
0.1186172802917515
 40
0.120530100354677
 40
0.1224430748574888
 40
0.1243562005915915
 40
0.1262694742904466
 40
0.1281828926370458
 40
0.1300964522713144
 40
0.1320101497971514
 40
0.1339239817891601
 40
0.1358379447993606
 40
0.1377520353633036
 40
0.1396662500062268
 40
0.1415805852486308
 40
0.1434950376118962
 40
0.1454096036233603
 40
0.1473242798212692
 40
0.1492390627594259
 40
0.1511539490115208
 40
0.1530689351753211
 40
0.1549840178763945
 40
0.1568991937718236
 40
0.1588144595534252
 40
0.1607298119509845
 40
0.1626452477349264
 40
0.1645607637191528
 40
0.166476356763293
 40
0.1683920237749299
 40
0.1703077617115944
 40
0.1722235675825574
 40
0.1741394384503686
 40
0.1760553714322654
 40
0.177971363701469
 40
0.1798874124881754
 40
0.1818035150803923
 40
0.1837196688248252
 40
0.1856358711273777
 40
0.1875521194536234
 40
0.189468411329193
 40
0.1913847443399069
 40
0.1933011161319318
 40
0.1952175244117816
 40
0.1971339669461024
 40
0.1990504415616444
 40
0.2009669461448118
 40
0.2028834786413383
 40
0.2048000370559223
 40
0.2067166194516151
 40
0.2086332239492624
 40
0.2105498487269166
 40
0.2124664920190921
 40
0.2143831521160867
 40
0.2162998273631458
 40
0.2182165161596914
 40
0.2201332169584448
 40
0.2220499282645419
 40
0.2239666486346905
 40
0.2258833766760944
 40
0.2278001110456567
 40
0.2297168504489492
 40
0.2316335936391949
 40
0.2335503394163306
 40
0.2354670866260022
 40
0.237383833953367
 40
0.2393005801915279
 40
0.2412173243311735
 40
0.243134065404313
 40
0.2450508024832536
 40
0.246967534679654
 40
0.2488842611434409
 40
0.2508009810619032
 40
0.2527176936586356
 40
0.2546343981926388
 40
0.2565510939573593
 40
0.2584677802796176
 40
0.2603844565188628
 40
0.2623011220660903
 40
0.2642177763430226
 40
0.2661344188012352
 40
0.2680510489211593
 40
0.2699676662113483
 40
0.2718842702075534
 40
0.2738008604719595
 40
0.2757174365922801
 40
0.2776339981810423
 40
0.2795505448747588
 40
0.2814670763332059
 40
0.2833835922386619
 40
0.2853000922951374
 40
0.2872165762277328
 40
0.2891330437818627
 40
0.2910494947226734
 40
0.2929659288343046
 40
0.2948823459192947
 40
0.2967987457979236
 40
0.2987151283076064
 40
0.30063149330231
 40
0.3025478406519789
 40
0.3044641702419492
 40
0.3063804819724391
 40
0.3082967757579784
 40
0.3102130515268953
 40
0.3121293092208874
 40
0.3140455487943998
 40
0.3159617702143203
 40
0.3178779734593415
 40
0.3197941585196982
 40
0.3217103253965644
 40
0.3236264741017963
 40
0.3255426046574013
 40
0.3274587170952403
 40
0.3293748114565491
 40
0.3312908877916816
 40
0.3332069461596781
 40
0.3351229866279849
 40
0.3370390092720199
 40
0.3389550141749681
 40
0.3408710014273922
 40
0.3427869711269904
 40
0.3447029233782462
 40
0.3466188582922139
 40
0.3485347759861734
 40
0.350450676583427
 40
0.3523665602130757
 40
0.3542824270096581
 40
0.3561982771130423
 40
0.3581141106681377
 40
0.3600299278246789
 40
0.3619457287370497
 40
0.3638615135640182
 40
0.3657772824685998
 40
0.3676930356178792
 40
0.3696087731827652
 40
0.3715244953378486
 40
0.3734402022612892
 40
0.3753558941345667
 40
0.3772715711423499
 40
0.3791872334723913
 40
0.3811028813153823
 40
0.3830185148647349
 40
0.3849341343165211
 40
0.3868497398693602
 40
0.3887653317242397
 40
0.3906809100844527
 40
0.3925964751553915
 40
0.3945120271446083
 40
0.3964275662615336
 40
0.3983430927174756
 40
0.4002586067255414
 40
0.402174108500481
 40
0.4040895982586163
 40
0.4060050762178218
 40
0.4079205425973441
 40
0.4098359976178093
 40
0.4117514415011179
 40
0.4136668744703746
 40
0.4155822967498133
 40
0.4174977085647747
 40
0.4194131101415918
 40
0.421328501707564
 40
0.4232438834909016
 40
0.425159255720684
 40
0.4270746186267489
 40
0.4289899724397461
 40
0.4309053173910076
 40
0.4328206537125259
 40
0.4347359816369338
 40
0.4366513013974918
 40
0.4385666132279403
 40
0.4404819173625915
 40
0.4423972140362294
 40
0.4443125034840877
 40
0.4462277859418561
 40
0.4481430616455656
 40
0.4500583308316844
 40
0.4519735937369769
 40
0.4538888505985506
 40
0.45580410165381
 40
0.4577193471404406
 40
0.4596345872964081
 40
0.4615498223598841
 40
0.4634650525692906
 40
0.4653802781632413
 40
0.4672954993805699
 40
0.4692107164602546
 40
0.4711259296414484
 40
0.4730411391634895
 40
0.4749563452658099
 40
0.4768715481879656
 40
0.478786748169697
 40
0.4807019454507863
 40
0.4826171402711188
 40
0.4845323328707046
 40
0.4864475234895996
 40
0.4883627123679617
 40
0.4902778997459767
 40
0.4921930858639278
 40
0.4941082709621255
 40
0.4960234552809223
 40
0.4979386390607129
 40
0.4998538225419328
 40
0.5017690059650107
 40
0.5036841895366079
 40
0.5055993734508939
 40
0.5075145579483047
 40
0.5094297432693623
 40
0.5113449296545319
 40
0.513260117344288
 40
0.5151753065790872
 40
0.5170904975993562
 40
0.519005690645481
 40
0.520920885957842
 40
0.5228360837767263
 40
0.5247512843423983
 40
0.526666487895043
 40
0.5285816946748049
 40
0.5304969049216886
 40
0.5324121188756445
 40
0.5343273367765307
 40
0.5362425588640689
 40
0.5381577853778668
 40
0.5400730165573876
 40
0.5419882526419324
 40
0.5439034938706686
 40
0.5458187404825361
 40
0.5477339927163294
 40
0.5496492508105624
 40
0.5515645150035969
 40
0.5534797855334603
 40
0.5553950626379538
 40
0.5573103465545699
 40
0.5592256375204925
 40
0.5611409357725465
 40
0.5630562415471747
 40
0.5649715550804514
 40
0.5668868766080092
 40
0.5688022063650159
 40
0.5707175445861641
 40
0.572632891505617
 40
0.5745482473569461
 40
0.5764636123731787
 40
0.5783789867866672
 40
0.5802943708290489
 40
0.5822097647313154
 40
0.5841251687236039
 40
0.5860405830352893
 40
0.5879560078948275
 40
0.5898714435297603
 40
0.5917868901666234
 40
0.5937023480309723
 40
0.595617817347158
 40
0.5975332983384211
 40
0.599448791226736
 40
0.6013642962327495
 40
0.6032798135757402
 40
0.6051953434735091
 40
0.6071108861422837
 40
0.6090264417966764
 40
0.6109420106495437
 40
0.6128575929119319
 40
0.6147731887929945
 40
0.6166887984998013
 40
0.6186044222373044
 40
0.620520060208268
 40
0.6224357126130203
 40
0.6243513796494671
 40
0.626267061512852
 40
0.6281827583957512
 40
0.6300984704878099
 40
0.6320141979756506
 40
0.6339299410427536
 40
0.6358456998693063
 40
0.6377614746319437
 40
0.639677265503732
 40
0.6415930726538452
 40
0.6435088962474854
 40
0.6454247364457135
 40
0.6473405934051365
 40
0.6492564672778096
 40
0.6511723582110083
 40
0.6530882663469633
 40
0.6550041918227205
 40
0.656920134769787
 40
0.6588360953140582
 40
0.660752073575351
 40
0.6626680696673607
 40
0.6645840836972464
 40
0.6665001157654146
 40
0.6684161659651816
 40
0.6703322343825202
 40
0.672248321095762
 40
0.6741644261752276
 40
0.6760805496829017
 40
0.6779966916721438
 40
0.6799128521872738
 40
0.6818290312632272
 40
0.6837452289251928
 40
0.6856614451881924
 40
0.6875776800567028
 40
0.6894939335242504
 40
0.6914102055729259
 40
0.6933264961729678
 40
0.6952428052823728
 40
0.6971591328462963
 40
0.699075478796672
 40
0.7009918430516736
 40
0.7029082255151792
 40
0.704824626076302
 40
0.706741044608744
 40
0.7086574809703424
 40
0.7105739350024218
 40
0.7124904065292362
 40
0.7144068953573075
 40
0.7163234012748562
 40
0.7182399240511579
 40
0.7201564634358025
 40
0.7220730191581185
 40
0.7239895909264191
 40
0.7259061784272831
 40
0.7278227813248943
 40
0.7297393992601909
 40
0.7316560318501898
 40
0.733572678687151
 40
0.7354893393378206
 40
0.7374060133425939
 40
0.7393227002146777
 40
0.7412393994392451
 40
0.7431561104725836
 40
0.7450728327412156
 40
0.7469895656409811
 40
0.7489063085361558
 40
0.7508230607584747
 40
0.7527398216062624
 40
0.7546565903434803
 40
0.756573366198645
 40
0.7584901483640393
 40
0.760406935994568
 40
0.7623237282068484
 40
0.7642405240781763
 40
0.7661573226455255
 40
0.7680741229045591
 40
0.7699909237105828
 40
0.7719077236986956
 40
0.77382452171944
 40
0.7757413165776519
 40
0.777658107031402
 40
0.7795748917910233
 40
0.781491669518113
 40
0.7834084388245541
 40
0.7853251982715309
 40
0.7872419463686293
 40
0.7891586815728727
 40
0.7910754022878793
 40
0.7929921068629091
 40
0.794908793592147
 40
0.7968254607138133
 40
0.7987421064094453
 40
0.8006587288031938
 40
0.8025753259612045
 40
0.8044918958909504
 40
0.8064084365407586
 40
0.8083249457992894
 40
0.8102414214952147
 40
0.8121578613968391
 40
0.8140742632118968
 40
0.8159906245874168
 40
0.8179069431097291
 40
0.8198232163044145
 40
0.8217394416366256
 40
0.8236556165113108
 40
0.8255717382736827
 40
0.8274878042097337
 40
0.8294038115470233
 40
0.8313197574554454
 40
0.8332356390483701
 40
0.8351514533837113
 40
0.8370671974653449
 40
0.8389828682446783
 40
0.8408984626223427
 40
0.8428139774501976
 40
0.844729409533387
 40
0.8466447556327765
 40
0.848560012467504
 40
0.850475176717801
 40
0.8523902450280655
 40
0.8543052140101124
 40
0.8562200802467931
 40
0.8581348402957333
 40
0.8600494906934004
 40
0.8619640279595115
 40
0.863878448601525
 40
0.8657927491195886
 40
0.8677069260116689
 40
0.8696209757789443
 40
0.871534894931568
 40
0.8734486799945431
 40
0.8753623275141179
 40
0.8772758340641376
 40
0.879189196252963
 40
0.8811024107304387
 40
0.8830154741952504
 40
0.8849283834023627
 40
0.8868411351709161
 40
0.8887537263921739
 40
0.8906661540376785
 40
0.892578415167696
 40
0.8944905069397694
 40
0.8964024266174543
 40
0.8983141715791666
 40
0.9002257393271105
 40
0.9021371274964106
 40
0.9040483338641843
 40
0.905959356358669
 40
0.9078701930683858
 40
0.9097808422513349
 40
0.9116913023439094
 40
0.913601571969988
 40
0.9155116499497095
 40
0.9174215353081483
 40
0.9193312272837502
 40
0.9212407253365557
 40
0.9231500291561501
 40
0.9250591386692291
 40
0.9269680540468276
 40
0.9288767757111529
 40
0.9307853043419829
 40
0.9326936408825299
 40
0.9346017865448057
 40
0.9365097428144306
 40
0.9384175114548012
 40
0.9403250945107123
 40
0.9422324943111101
 40
0.9441397134713653
 40
0.9460467548947483
 40
0.9479536217729334
 40
0.9498603175860441
 40
0.9517668461016274
 40
0.953673211372968
 40
0.955579417736409
 40
0.9574854698079263
 40
0.9593913724787678
 40
0.96129713091035
 40
0.9632027505280303
 40
0.9651082370143209
 40
0.9670135963010291
 40
0.9689188345606686
 40
0.9708239581969507
 40
0.9727289738345543
 40
0.9746338883081296
 40
0.9765387086504409
 40
0.9784434420799394
 40
0.9803480959875428
 40
0.9822526779229149
 40
0.9841571955799758
 40
0.986061656782088
 40
0.9879660694666021
 40
0.9898704416690299
 40
0.9917747815068585
 40
0.9936790971630531
 40
0.9955833968692949
 40
0.9974876888890128
 40
0.9993919801040992
 40
1.0
 40
1.0
 40
1.0
 40
1.0
 10
530.6681147145745
 20
94.67930790960934
 30
0.0
 10
530.6841888232179
 20
94.68798973034006
 30
0.0
 10
530.7880562435953
 20
94.74408978188765
 30
0.0
 10
530.9782236974621
 20
94.85024732698906
 30
0.0
 10
531.2385172143321
 20
94.99792562292387
 30
0.0
 10
531.4971108116907
 20
95.14855454415878
 30
0.0
 10
531.7541707170676
 20
95.30181784857972
 30
0.0
 10
532.0096407146137
 20
95.45779331376572
 30
0.0
 10
532.2635242969958
 20
95.61645306362013
 30
0.0
 10
532.5158091073582
 20
95.77779748761607
 30
0.0
 10
532.7664871126411
 20
95.94181931526253
 30
0.0
 10
533.0155491753676
 20
96.10851322848352
 30
0.0
 10
533.2629865069862
 20
96.2778732847395
 30
0.0
 10
533.508790277378
 20
96.44989360621551
 30
0.0
 10
533.7529517185344
 20
96.62456819376575
 30
0.0
 10
533.9954620959328
 20
96.80189097531525
 30
0.0
 10
534.2363127154753
 20
96.98185579136815
 30
0.0
 10
534.475494921025
 20
97.16445639731678
 30
0.0
 10
534.7130000945816
 20
97.34968646119981
 30
0.0
 10
534.9488196558814
 20
97.53753956264633
 30
0.0
 10
535.1829450622797
 20
97.72800919147495
 30
0.0
 10
535.4153678086896
 20
97.92108874636855
 30
0.0
 10
535.6460794276394
 20
98.11677153352535
 30
0.0
 10
535.8750714894255
 20
98.31505076531508
 30
0.0
 10
536.1023356023767
 20
98.51591955895232
 30
0.0
 10
536.3278634132126
 20
98.71937093518474
 30
0.0
 10
536.5516466075068
 20
98.9253978170105
 30
0.0
 10
536.7736769102448
 20
99.13399302842939
 30
0.0
 10
536.9939460864761
 20
99.34514929323386
 30
0.0
 10
537.2124459420595
 20
99.55885923384903
 30
0.0
 10
537.4291683244898
 20
99.77511537022151
 30
0.0
 10
537.644105123812
 20
99.99391011877141
 30
0.0
 10
537.8572482736095
 20
100.2152357914036
 30
0.0
 10
538.0685897520677
 20
100.4390845945912
 30
0.0
 10
538.278121583102
 20
100.6654486285273
 30
0.0
 10
538.48583583755
 20
100.894319886357
 30
0.0
 10
538.6917246344166
 20
101.1256902534839
 30
0.0
 10
538.8957801421743
 20
101.3595515069629
 30
0.0
 10
539.0979945801016
 20
101.5958953149745
 30
0.0
 10
539.2983602196648
 20
101.834713236386
 30
0.0
 10
539.4968693859277
 20
102.075996720398
 30
0.0
 10
539.6935144589899
 20
102.3197371062803
 30
0.0
 10
539.888287875445
 20
102.5659256231946
 30
0.0
 10
540.0811821298524
 20
102.8145533901057
 30
0.0
 10
540.2721897762154
 20
103.0656114157766
 30
0.0
 10
540.4613034294665
 20
103.3190905988521
 30
0.0
 10
540.6485157669449
 20
103.5749817280254
 30
0.0
 10
540.8338195298735
 20
103.83327548229
 30
0.0
 10
541.0172075248147
 20
104.0939624312666
 30
0.0
 10
541.1986726251147
 20
104.3570330356119
 30
0.0
 10
541.3782077723208
 20
104.6224776474972
 30
0.0
 10
541.5558059775784
 20
104.8902865111644
 30
0.0
 10
541.731460322993
 20
105.1604497635478
 30
0.0
 10
541.9051639629631
 20
105.4329574349627
 30
0.0
 10
542.0769101254691
 20
105.707799449848
 30
0.0
 10
542.2466921133322
 20
105.984965627579
 30
0.0
 10
542.4145033054219
 20
106.2644456833219
 30
0.0
 10
542.5803371578265
 20
106.5462292289481
 30
0.0
 10
542.7441872049693
 20
106.8303057739849
 30
0.0
 10
542.9060470606831
 20
107.1166647266155
 30
0.0
 10
543.0659104192312
 20
107.4052953947133
 30
0.0
 10
543.2237710562786
 20
107.6961869869104
 30
0.0
 10
543.3796228298139
 20
107.9893286136994
 30
0.0
 10
543.5334596810143
 20
108.2847092885564
 30
0.0
 10
543.6852756350628
 20
108.5823179290896
 30
0.0
 10
543.8350648019094
 20
108.8821433582046
 30
0.0
 10
543.9828213769839
 20
109.1841743052877
 30
0.0
 10
544.1285396418536
 20
109.4883994073998
 30
0.0
 10
544.2722139648308
 20
109.7948072104765
 30
0.0
 10
544.4138388015309
 20
110.1033861705388
 30
0.0
 10
544.5534086953809
 20
110.4141246549018
 30
0.0
 10
544.6909182780765
 20
110.7270109433838
 30
0.0
 10
544.8263622699983
 20
111.0420332295156
 30
0.0
 10
544.959735480574
 20
111.3591796217389
 30
0.0
 10
545.0910328086068
 20
111.6784381446072
 30
0.0
 10
545.2202492425494
 20
111.9997967399619
 30
0.0
 10
545.3473798607471
 20
112.3232432681123
 30
0.0
 10
545.4724198316347
 20
112.6487655089894
 30
0.0
 10
545.5953644139001
 20
112.9763511632957
 30
0.0
 10
545.7162089566092
 20
113.3059878536293
 30
0.0
 10
545.834948899298
 20
113.6376631255959
 30
0.0
 10
545.9515797720338
 20
113.971364448903
 30
0.0
 10
546.0660971954428
 20
114.3070792184278
 30
0.0
 10
546.1784968807136
 20
114.6447947552736
 30
0.0
 10
546.2887746295679
 20
114.9844983077946
 30
0.0
 10
546.3969263342138
 20
115.3261770526122
 30
0.0
 10
546.5029479772686
 20
115.6698180955931
 30
0.0
 10
546.6068356316663
 20
116.0154084728224
 30
0.0
 10
546.70858546054
 20
116.3629351515391
 30
0.0
 10
546.8081937170921
 20
116.7123850310608
 30
0.0
 10
546.905656744441
 20
117.0637449436748
 30
0.0
 10
547.0009709754588
 20
117.4170016555164
 30
0.0
 10
547.0941329325933
 20
117.7721418674202
 30
0.0
 10
547.1851392276764
 20
118.1291522157493
 30
0.0
 10
547.2739865617242
 20
118.4880192732044
 30
0.0
 10
547.3606717247277
 20
118.8487295496136
 30
0.0
 10
547.4451915954324
 20
119.2112694926945
 30
0.0
 10
547.5275431411143
 20
119.575625488802
 30
0.0
 10
547.6077234173473
 20
119.9417838636539
 30
0.0
 10
547.6857295677688
 20
120.3097308830412
 30
0.0
 10
547.7615588238389
 20
120.6794527535155
 30
0.0
 10
547.8352085045965
 20
121.0509356230582
 30
0.0
 10
547.9066760164166
 20
121.424165581737
 30
0.0
 10
547.9759588527618
 20
121.799128662342
 30
0.0
 10
548.0430545939362
 20
122.1758108410058
 30
0.0
 10
548.1079609068402
 20
122.554198037814
 30
0.0
 10
548.170675544722
 20
122.9342761173921
 30
0.0
 10
548.2311963469349
 20
123.3160308894877
 30
0.0
 10
548.2895212386939
 20
123.6994481095336
 30
0.0
 10
548.3456482308358
 20
124.084513479203
 30
0.0
 10
548.3995754195809
 20
124.471212646951
 30
0.0
 10
548.4513009862987
 20
124.859531208544
 30
0.0
 10
548.5008231972772
 20
125.2494547075803
 30
0.0
 10
548.5481404034952
 20
125.640968636005
 30
0.0
 10
548.5932510403989
 20
126.0340584346084
 30
0.0
 10
548.6361536276827
 20
126.4287094935238
 30
0.0
 10
548.6768467690748
 20
126.8249071527113
 30
0.0
 10
548.7153291521266
 20
127.2226367024397
 30
0.0
 10
548.7515995480076
 20
127.6218833837624
 30
0.0
 10
548.7856568113034
 20
128.0226323889796
 30
0.0
 10
548.8174998798212
 20
128.4248688621072
 30
0.0
 10
548.847127774397
 20
128.8285778993309
 30
0.0
 10
548.8745395987107
 20
129.2337445494643
 30
0.0
 10
548.8997345391027
 20
129.6403538143972
 30
0.0
 10
548.922711864399
 20
130.0483906495429
 30
0.0
 10
548.9434709249973
 20
130.4578399496772
 30
0.0
 10
548.9620111533426
 20
130.8686865536963
 30
0.0
 10
548.9783320645029
 20
131.2809152559838
 30
0.0
 10
548.992433256366
 20
131.6945108216862
 30
0.0
 10
549.0043144089238
 20
132.1094579827552
 30
0.0
 10
549.0139752836246
 20
132.5257414272932
 30
0.0
 10
549.0214157232288
 20
132.943345799986
 30
0.0
 10
549.0266356516697
 20
133.3622557025421
 30
0.0
 10
549.0296350739189
 20
133.7824556941232
 30
0.0
 10
549.0304140758525
 20
134.2039302917861
 30
0.0
 10
549.0289728241243
 20
134.6266639709207
 30
0.0
 10
549.0253115660399
 20
135.0506411656847
 30
0.0
 10
549.0194306294363
 20
135.4758462694484
 30
0.0
 10
549.0113304225623
 20
135.9022636352299
 30
0.0
 10
549.0010114339634
 20
136.3298775761479
 30
0.0
 10
548.9884742323686
 20
136.7586723658628
 30
0.0
 10
548.9737194665806
 20
137.1886322390241
 30
0.0
 10
548.9567478653679
 20
137.6197413917228
 30
0.0
 10
548.9375602373589
 20
138.0519839819384
 30
0.0
 10
548.9161574709384
 20
138.4853441300034
 30
0.0
 10
548.8925405341467
 20
138.9198059190527
 30
0.0
 10
548.8667104745787
 20
139.3553533954891
 30
0.0
 10
548.8386684192864
 20
139.791970569442
 30
0.0
 10
548.8084155746817
 20
140.2296414152393
 30
0.0
 10
548.775953226441
 20
140.6683498718755
 30
0.0
 10
548.7412827394094
 20
141.108079843483
 30
0.0
 10
548.7044055575091
 20
141.548815199808
 30
0.0
 10
548.6653232036455
 20
141.9905397766863
 30
0.0
 10
548.6240372796149
 20
142.4332373765306
 30
0.0
 10
548.5805494660128
 20
142.8768917688116
 30
0.0
 10
548.5348615221429
 20
143.3214866905514
 30
0.0
 10
548.4869752859255
 20
143.7670058468107
 30
0.0
 10
548.4368926738065
 20
144.2134329111859
 30
0.0
 10
548.3846156806665
 20
144.6607515263063
 30
0.0
 10
548.3301463797288
 20
145.1089453043369
 30
0.0
 10
548.2734869224689
 20
145.5579978274835
 30
0.0
 10
548.2146395385206
 20
146.0078926485016
 30
0.0
 10
548.1536065355845
 20
146.4586132912062
 30
0.0
 10
548.0903902993348
 20
146.9101432509868
 30
0.0
 10
548.0249932933241
 20
147.3624659953277
 30
0.0
 10
547.9574180588899
 20
147.8155649643251
 30
0.0
 10
547.8876672150561
 20
148.2694235712189
 30
0.0
 10
547.8157434584391
 20
148.7240252029092
 30
0.0
 10
547.7416495631462
 20
149.1793532204997
 30
0.0
 10
547.665388380679
 20
149.6353909598182
 30
0.0
 10
547.58696283983
 20
150.0921217319661
 30
0.0
 10
547.5063759465817
 20
150.549528823848
 30
0.0
 10
547.4236307840015
 20
151.0075954987234
 30
0.0
 10
547.3387305121375
 20
151.4663049967421
 30
0.0
 10
547.2516783679102
 20
151.925640535501
 30
0.0
 10
547.1624776650042
 20
152.3855853105897
 30
0.0
 10
547.0711317937557
 20
152.8461224961522
 30
0.0
 10
546.9776442210426
 20
153.3072352454341
 30
0.0
 10
546.8820184901673
 20
153.7689066913481
 30
0.0
 10
546.7842582207417
 20
154.2311199470309
 30
0.0
 10
546.6843671085664
 20
154.6938581064148
 30
0.0
 10
546.5823489255129
 20
155.1571042447882
 30
0.0
 10
546.4782075193963
 20
155.6208414193699
 30
0.0
 10
546.3719468138544
 20
156.0850526698752
 30
0.0
 10
546.2635708082171
 20
156.5497210190935
 30
0.0
 10
546.1530835773776
 20
157.0148294734655
 30
0.0
 10
546.0404892716597
 20
157.4803610236592
 30
0.0
 10
545.9257921166834
 20
157.946298645153
 30
0.0
 10
545.8089964132279
 20
158.4126252988142
 30
0.0
 10
545.6901065370917
 20
158.879323931489
 30
0.0
 10
545.5691269389498
 20
159.3463774765868
 30
0.0
 10
545.4460621442108
 20
159.8137688546667
 30
0.0
 10
545.3209167528688
 20
160.2814809740302
 30
0.0
 10
545.1936954393526
 20
160.7494967313143
 30
0.0
 10
545.0644029523742
 20
161.2177990120846
 30
0.0
 10
544.9330441147737
 20
161.6863706914303
 30
0.0
 10
544.7996238233613
 20
162.1551946345627
 30
0.0
 10
544.6641470487567
 20
162.6242536974136
 30
0.0
 10
544.526618835226
 20
163.0935307272354
 30
0.0
 10
544.3870443005169
 20
163.5630085632009
 30
0.0
 10
544.2454286356874
 20
164.0326700370124
 30
0.0
 10
544.1017771049366
 20
164.5024979735023
 30
0.0
 10
543.9560950454294
 20
164.9724751912391
 30
0.0
 10
543.8083878671209
 20
165.4425845031341
 30
0.0
 10
543.6586610525746
 20
165.9128087170525
 30
0.0
 10
543.5069201567801
 20
166.3831306364237
 30
0.0
 10
543.3531708069698
 20
166.8535330608441
 30
0.0
 10
543.1974187024281
 20
167.3239987866988
 30
0.0
 10
543.0396696143022
 20
167.7945106077661
 30
0.0
 10
542.8799293854062
 20
168.2650513158378
 30
0.0
 10
542.718203930026
 20
168.735603701329
 30
0.0
 10
542.5544992337186
 20
169.2061505538965
 30
0.0
 10
542.3888213531096
 20
169.6766746630531
 30
0.0
 10
542.2211764156892
 20
170.1471588187846
 30
0.0
 10
542.0515706196027
 20
170.6175858121662
 30
0.0
 10
541.8800102334392
 20
171.0879384359842
 30
0.0
 10
541.7065015960187
 20
171.5581994853505
 30
0.0
 10
541.5310511161748
 20
172.0283517583261
 30
0.0
 10
541.3536652725348
 20
172.4983780565375
 30
0.0
 10
541.1743506132972
 20
172.9682611857996
 30
0.0
 10
540.9931137560071
 20
173.4379839567339
 30
0.0
 10
540.809961387327
 20
173.9075291853918
 30
0.0
 10
540.6249002628067
 20
174.3768796938737
 30
0.0
 10
540.4379372066485
 20
174.8460183109541
 30
0.0
 10
540.249079111471
 20
175.3149278726989
 30
0.0
 10
540.0583329380695
 20
175.7835912230921
 30
0.0
 10
539.8657057151738
 20
176.2519912146539
 30
0.0
 10
539.6712045392024
 20
176.7201107090663
 30
0.0
 10
539.4748365740161
 20
177.1879325777916
 30
0.0
 10
539.2766090506642
 20
177.6554397027008
 30
0.0
 10
539.0765292671343
 20
178.1226149766901
 30
0.0
 10
538.8746045880933
 20
178.5894413043069
 30
0.0
 10
538.6708424446309
 20
179.0559016023678
 30
0.0
 10
538.4652503339952
 20
179.5219788005861
 30
0.0
 10
538.2578358193281
 20
179.9876558421917
 30
0.0
 10
538.0486065294004
 20
180.4529156845496
 30
0.0
 10
537.8375701583387
 20
180.9177412997871
 30
0.0
 10
537.6247344653555
 20
181.382115675408
 30
0.0
 10
537.4101072744701
 20
181.84602181492
 30
0.0
 10
537.1936964742342
 20
182.309442738449
 30
0.0
 10
536.9755100174486
 20
182.7723614833633
 30
0.0
 10
536.7555559208788
 20
183.2347611048934
 30
0.0
 10
536.5338422649705
 20
183.6966246767482
 30
0.0
 10
536.3103771935605
 20
184.1579352917354
 30
0.0
 10
536.0851689135843
 20
184.6186760623764
 30
0.0
 10
535.8582256947819
 20
185.0788301215295
 30
0.0
 10
535.6295558694019
 20
185.5383806230008
 30
0.0
 10
535.3991678319007
 20
185.9973107421631
 30
0.0
 10
535.1670700386418
 20
186.4556036765711
 30
0.0
 10
534.93327100759
 20
186.9132426465755
 30
0.0
 10
534.6977793180055
 20
187.3702108959355
 30
0.0
 10
534.4606036101334
 20
187.8264916924342
 30
0.0
 10
534.2217525848914
 20
188.2820683284893
 30
0.0
 10
533.9812350035555
 20
188.7369241217654
 30
0.0
 10
533.7390596874434
 20
189.191042415781
 30
0.0
 10
533.4952355175939
 20
189.6444065805215
 30
0.0
 10
533.2497714344433
 20
190.0970000130484
 30
0.0
 10
533.0026764375046
 20
190.5488061381019
 30
0.0
 10
532.7539595850366
 20
190.9998084087122
 30
0.0
 10
532.5036299937169
 20
191.4499903068015
 30
0.0
 10
532.2516968383086
 20
191.8993353437902
 30
0.0
 10
531.9981693513275
 20
192.3478270611976
 30
0.0
 10
531.7430568227039
 20
192.7954490312459
 30
0.0
 10
531.4863685994455
 20
193.2421848574588
 30
0.0
 10
531.2281140868142
 20
193.6880181726386
 30
0.0
 10
530.9683027485994
 20
194.1329326385253
 30
0.0
 10
530.7069441047337
 20
194.5769119500124
 30
0.0
 10
530.4440477293804
 20
195.0199398383496
 30
0.0
 10
530.1796232499531
 20
195.4620000726617
 30
0.0
 10
529.9136803488555
 20
195.9030764569608
 30
0.0
 10
529.6462287631285
 20
196.3431528307311
 30
0.0
 10
529.3772782840924
 20
196.7822130695215
 30
0.0
 10
529.1068387569885
 20
197.2202410855327
 30
0.0
 10
528.8349200806158
 20
197.6572208282053
 30
0.0
 10
528.5615322069697
 20
198.0931362848023
 30
0.0
 10
528.2866851408742
 20
198.5279714809955
 30
0.0
 10
528.0103889396167
 20
198.9617104814435
 30
0.0
 10
527.732653712574
 20
199.3943373903784
 30
0.0
 10
527.4534896208452
 20
199.8258363521767
 30
0.0
 10
527.172906876874
 20
200.2561915519406
 30
0.0
 10
526.8909157440758
 20
200.6853872160715
 30
0.0
 10
526.6075265364555
 20
201.1134076128458
 30
0.0
 10
526.322749618231
 20
201.5402370529842
 30
0.0
 10
526.0365954034505
 20
201.9658598902203
 30
0.0
 10
525.749074355609
 20
202.3902605218697
 30
0.0
 10
525.460196987261
 20
202.8134233893967
 30
0.0
 10
525.1699738596352
 20
203.2353329789759
 30
0.0
 10
524.8784155822415
 20
203.6559738220583
 30
0.0
 10
524.5855328124849
 20
204.0753304959245
 30
0.0
 10
524.2913362552662
 20
204.4933876242517
 30
0.0
 10
523.9958366625929
 20
204.91012987766
 30
0.0
 10
523.699044833178
 20
205.3255419742746
 30
0.0
 10
523.400971612046
 20
205.7396086802701
 30
0.0
 10
523.1016278901274
 20
206.1523148104275
 30
0.0
 10
522.8010246038612
 20
206.5636452286766
 30
0.0
 10
522.4991727347906
 20
206.9735848486414
 30
0.0
 10
522.1960833091579
 20
207.3821186341844
 30
0.0
 10
521.8917673974971
 20
207.7892315999474
 30
0.0
 10
521.5862361142255
 20
208.1949088118905
 30
0.0
 10
521.2795006172352
 20
208.5991353878267
 30
0.0
 10
520.9715721074805
 20
209.0018964979572
 30
0.0
 10
520.6624618285671
 20
209.4031773654006
 30
0.0
 10
520.3521810663358
 20
209.8029632667252
 30
0.0
 10
520.0407411484478
 20
210.2012395324727
 30
0.0
 10
519.7281534439686
 20
210.5979915476832
 30
0.0
 10
519.4144293629479
 20
210.9932047524181
 30
0.0
 10
519.0995803560025
 20
211.3868646422762
 30
0.0
 10
518.7836179138903
 20
211.7789567689167
 30
0.0
 10
518.4665535670948
 20
212.169466740565
 30
0.0
 10
518.1483988853961
 20
212.5583802225304
 30
0.0
 10
517.8291654774514
 20
212.9456829377096
 30
0.0
 10
517.5088649903628
 20
213.3313606671009
 30
0.0
 10
517.1875091092561
 20
213.7153992502991
 30
0.0
 10
516.8651095568493
 20
214.097784586003
 30
0.0
 10
516.5416780930273
 20
214.4785026325073
 30
0.0
 10
516.2172265144076
 20
214.8575394082038
 30
0.0
 10
515.891766653912
 20
215.2348809920705
 30
0.0
 10
515.5653103803335
 20
215.6105135241633
 30
0.0
 10
515.2378695979043
 20
215.984423206102
 30
0.0
 10
514.909456245862
 20
216.3565963015542
 30
0.0
 10
514.5800822980157
 20
216.7270191367161
 30
0.0
 10
514.2497597623101
 20
217.095678100792
 30
0.0
 10
513.9185006803884
 20
217.4625596464711
 30
0.0
 10
513.586317127158
 20
217.8276502903973
 30
0.0
 10
513.2532212103536
 20
218.1909366136386
 30
0.0
 10
512.9192250700966
 20
218.5524052621561
 30
0.0
 10
512.5843408784599
 20
218.9120429472656
 30
0.0
 10
512.2485808390253
 20
219.2698364461016
 30
0.0
 10
511.9119571864505
 20
219.6257726020673
 30
0.0
 10
511.5744821860221
 20
219.9798383252988
 30
0.0
 10
511.2361681332212
 20
220.332020593109
 30
0.0
 10
510.897027353281
 20
220.6823064504389
 30
0.0
 10
510.5570722007493
 20
221.0306830103005
 30
0.0
 10
510.2163150590423
 20
221.3771374542233
 30
0.0
 10
509.8747683400089
 20
221.7216570326893
 30
0.0
 10
509.5324444834856
 20
222.0642290655722
 30
0.0
 10
509.1893559568629
 20
222.4048409425637
 30
0.0
 10
508.8455152546379
 20
222.7434801236093
 30
0.0
 10
508.5009348979755
 20
223.0801341393325
 30
0.0
 10
508.1556274342694
 20
223.4147905914577
 30
0.0
 10
507.8096054367001
 20
223.74743715323
 30
0.0
 10
507.4628815037981
 20
224.0780615698306
 30
0.0
 10
507.1154682590025
 20
224.4066516587915
 30
0.0
 10
506.7673783502202
 20
224.7331953104073
 30
0.0
 10
506.418624449393
 20
225.0576804881372
 30
0.0
 10
506.0692192520514
 20
225.3800952290167
 30
0.0
 10
505.7191754768872
 20
225.700427644048
 30
0.0
 10
505.3685058653074
 20
226.0186659186079
 30
0.0
 10
505.0172231810064
 20
226.3347983128332
 30
0.0
 10
504.6653402095235
 20
226.6488131620192
 30
0.0
 10
504.3128697578162
 20
226.9606988770007
 30
0.0
 10
503.9598246538245
 20
227.270443944539
 30
0.0
 10
503.6062177460379
 20
227.578036927705
 30
0.0
 10
503.2520619030643
 20
227.8834664662571
 30
0.0
 10
502.8973700132024
 20
228.1867212770146
 30
0.0
 10
502.5421549840129
 20
228.4877901542311
 30
0.0
 10
502.1864297418919
 20
228.786661969963
 30
0.0
 10
501.8302072316445
 20
229.0833256744358
 30
0.0
 10
501.4735004160625
 20
229.3777702964069
 30
0.0
 10
501.1163222755023
 20
229.6699849435249
 30
0.0
 10
500.7586858074627
 20
229.959958802688
 30
0.0
 10
500.4006040261671
 20
230.2476811403983
 30
0.0
 10
500.0420899621468
 20
230.5331413031114
 30
0.0
 10
499.6831566618288
 20
230.8163287175852
 30
0.0
 10
499.3238171871191
 20
231.0972328912268
 30
0.0
 10
498.9640846149949
 20
231.3758434124338
 30
0.0
 10
498.603972037094
 20
231.6521499509376
 30
0.0
 10
498.2434925593113
 20
231.9261422581374
 30
0.0
 10
497.8826593013933
 20
232.1978101674389
 30
0.0
 10
497.5214853965357
 20
232.4671435945864
 30
0.0
 10
497.1599839909887
 20
232.7341325379913
 30
0.0
 10
496.798168243657
 20
232.9987670790633
 30
0.0
 10
496.4360513257093
 20
233.2610373825342
 30
0.0
 10
496.073646420184
 20
233.5209336967851
 30
0.0
 10
495.710966721606
 20
233.7784463541648
 30
0.0
 10
495.3480254355995
 20
234.033565771312
 30
0.0
 10
494.9848357785057
 20
234.2862824494744
 30
0.0
 10
494.6214109770052
 20
234.5365869748243
 30
0.0
 10
494.2577642677413
 20
234.7844700187756
 30
0.0
 10
493.8939088969494
 20
235.0299223382956
 30
0.0
 10
493.5298581200859
 20
235.2729347762198
 30
0.0
 10
493.1656252014621
 20
235.5134982615637
 30
0.0
 10
492.8012234138843
 20
235.7516038098317
 30
0.0
 10
492.4366660382908
 20
235.9872425233299
 30
0.0
 10
492.0719663634017
 20
236.2204055914716
 30
0.0
 10
491.7071376853611
 20
236.4510842910906
 30
0.0
 10
491.3421933073912
 20
236.6792699867473
 30
0.0
 10
490.9771465394459
 20
236.9049541310391
 30
0.0
 10
490.6120106978709
 20
237.1281282649072
 30
0.0
 10
490.2467991050651
 20
237.3487840179469
 30
0.0
 10
489.8815250891448
 20
237.5669131087172
 30
0.0
 10
489.5162019836135
 20
237.7825073450516
 30
0.0
 10
489.1508431270338
 20
237.9955586243691
 30
0.0
 10
488.7854618627061
 20
238.2060589339859
 30
0.0
 10
488.4200715383452
 20
238.4140003514304
 30
0.0
 10
488.0546855057622
 20
238.6193750447601
 30
0.0
 10
487.6893171205531
 20
238.8221752728771
 30
0.0
 10
487.3239797417852
 20
239.0223933858505
 30
0.0
 10
486.9586867316937
 20
239.2200218252354
 30
0.0
 10
486.5934514553712
 20
239.4150531244021
 30
0.0
 10
486.228287280472
 20
239.60747990886
 30
0.0
 10
485.8632075769102
 20
239.7972948965914
 30
0.0
 10
485.4982257165617
 20
239.9844908983864
 30
0.0
 10
485.1333550791895
 20
240.1690608150363
 30
0.0
 10
484.7686090633559
 20
240.3509976323278
 30
0.0
 10
484.4040010696202
 20
240.5302944301876
 30
0.0
 10
484.0395444940488
 20
240.7069443860109
 30
0.0
 10
483.6752527167587
 20
240.8809407800311
 30
0.0
 10
483.3111391181331
 20
241.052276987454
 30
0.0
 10
482.9472170785349
 20
241.2209464788273
 30
0.0
 10
482.5834999780191
 20
241.3869428204192
 30
0.0
 10
482.2200011960472
 20
241.5502596745998
 30
0.0
 10
481.8567341111988
 20
241.7108908002318
 30
0.0
 10
481.493712100884
 20
241.8688300530666
 30
0.0
 10
481.1309485410493
 20
242.0240713861489
 30
0.0
 10
480.768456805892
 20
242.1766088502253
 30
0.0
 10
480.4062502675584
 20
242.3264365941651
 30
0.0
 10
480.0443422958521
 20
242.4735488653845
 30
0.0
 10
479.6827462579274
 20
242.617940010282
 30
0.0
 10
479.3214755179881
 20
242.7596044746785
 30
0.0
 10
478.9605434369722
 20
242.8985368042705
 30
0.0
 10
478.5999633722365
 20
243.0347316450876
 30
0.0
 10
478.2397486772327
 20
243.1681837439603
 30
0.0
 10
477.8799127011802
 20
243.2988879489951
 30
0.0
 10
477.5204687887231
 20
243.4268392100609
 30
0.0
 10
477.1614302795857
 20
243.5520325792817
 30
0.0
 10
476.8028105082132
 20
243.6744632115389
 30
0.0
 10
476.4446228034068
 20
243.7941263649821
 30
0.0
 10
476.0868804879396
 20
243.9110174015491
 30
0.0
 10
475.7295968781698
 20
244.0251317874928
 30
0.0
 10
475.3727852836317
 20
244.1364650939178
 30
0.0
 10
475.016459006619
 20
244.2450129973235
 30
0.0
 10
474.6606313417439
 20
244.350771280157
 30
0.0
 10
474.3053155754906
 20
244.4537358313701
 30
0.0
 10
473.9505249857421
 20
244.5539026469858
 30
0.0
 10
473.5962728412956
 20
244.6512678306693
 30
0.0
 10
473.2425724013484
 20
244.745827594306
 30
0.0
 10
472.8894369149743
 20
244.8375782585833
 30
0.0
 10
472.5368796205699
 20
244.9265162535777
 30
0.0
 10
472.1849137452826
 20
245.012638119344
 30
0.0
 10
471.8335525044114
 20
245.0959405065086
 30
0.0
 10
471.4828091007806
 20
245.176420176864
 30
0.0
 10
471.1326967240955
 20
245.2540740039626
 30
0.0
 10
470.7832285502623
 20
245.3288989737112
 30
0.0
 10
470.434417740687
 20
245.400892184962
 30
0.0
 10
470.0862774415386
 20
245.4700508501024
 30
0.0
 10
469.7388207829862
 20
245.5363722956379
 30
0.0
 10
469.3920608784062
 20
245.5998539627702
 30
0.0
 10
469.0460108235538
 20
245.6604934079664
 30
0.0
 10
468.7006836957079
 20
245.7182883035187
 30
0.0
 10
468.3560925527802
 20
245.7732364380931
 30
0.0
 10
468.0122504323908
 20
245.8253357172635
 30
0.0
 10
467.6691703509134
 20
245.8745841640314
 30
0.0
 10
467.3268653024818
 20
245.9209799193278
 30
0.0
 10
466.9853482579692
 20
245.9645212424943
 30
0.0
 10
466.6446321639285
 20
246.0052065117445
 30
0.0
 10
466.3047299414997
 20
246.0430342245979
 30
0.0
 10
465.96565448529
 20
246.0780029982909
 30
0.0
 10
465.6274186622095
 20
246.1101115701552
 30
0.0
 10
465.2900353102897
 20
246.1393587979668
 30
0.0
 10
464.9535172374563
 20
246.1657436602607
 30
0.0
 10
464.6178772202856
 20
246.1892652566085
 30
0.0
 10
464.2831280027186
 20
246.2099228078571
 30
0.0
 10
463.9492822947622
 20
246.2277156563263
 30
0.0
 10
463.6163527711527
 20
246.242643265962
 30
0.0
 10
463.284352070002
 20
246.2547052224429
 30
0.0
 10
462.9532927914196
 20
246.2639012332392
 30
0.0
 10
462.6231874961197
 20
246.2702311276186
 30
0.0
 10
462.2940487040088
 20
246.2736948566004
 30
0.0
 10
461.965888892758
 20
246.2742924928537
 30
0.0
 10
461.6387204963667
 20
246.2720242305378
 30
0.0
 10
461.3125559037221
 20
246.2668903850841
 30
0.0
 10
460.9874074571497
 20
246.2588913929159
 30
0.0
 10
460.6632874509668
 20
246.2480278111079
 30
0.0
 10
460.3402081300383
 20
246.2343003169798
 30
0.0
 10
460.0181816883442
 20
246.2177097076272
 30
0.0
 10
459.6972202675526
 20
246.1982568993857
 30
0.0
 10
459.3773359556166
 20
246.175942927231
 30
0.0
 10
459.0585407853858
 20
246.1507689441106
 30
0.0
 10
458.7408467332506
 20
246.1227362202122
 30
0.0
 10
458.424265717809
 20
246.0918461421648
 30
0.0
 10
458.1088095985766
 20
246.0581002121758
 30
0.0
 10
457.7944901747332
 20
246.0215000471053
 30
0.0
 10
457.4813191839137
 20
245.9820473774774
 30
0.0
 10
457.1693083010497
 20
245.9397440464317
 30
0.0
 10
456.8584691372678
 20
245.8945920086177
 30
0.0
 10
456.5488132388471
 20
245.8465933290331
 30
0.0
 10
456.2403520862387
 20
245.7957501818111
 30
0.0
 10
455.9330970931557
 20
245.7420648489574
 30
0.0
 10
455.6270596057353
 20
245.685539719044
 30
0.0
 10
455.3222509017793
 20
245.6261772858618
 30
0.0
 10
455.0186821900747
 20
245.5639801470363
 30
0.0
 10
454.7163646097958
 20
245.4989510026127
 30
0.0
 10
454.4153092300005
 20
245.4310926536158
 30
0.0
 10
454.1155270492105
 20
245.3604080005875
 30
0.0
 10
453.8170289950862
 20
245.2869000421112
 30
0.0
 10
453.5198259241969
 20
245.2105718733268
 30
0.0
 10
453.2239286218867
 20
245.1314266844431
 30
0.0
 10
452.9293478022412
 20
245.0494677592566
 30
0.0
 10
452.6360941081428
 20
244.9646984736766
 30
0.0
 10
452.3441781114334
 20
244.8771222942726
 30
0.0
 10
452.0536103131699
 20
244.7867427768422
 30
0.0
 10
451.7644011439792
 20
244.6935635650142
 30
0.0
 10
451.4765609645016
 20
244.5975883888843
 30
0.0
 10
451.1901000659341
 20
244.4988210637015
 30
0.0
 10
450.9050286706579
 20
244.3972654886
 30
0.0
 10
450.6213569329574
 20
244.2929256453948
 30
0.0
 10
450.3390949398142
 20
244.1858055974351
 30
0.0
 10
450.0582527117876
 20
244.0759094885341
 30
0.0
 10
449.7788402039663
 20
243.9632415419673
 30
0.0
 10
449.5008673069785
 20
243.84780605957
 30
0.0
 10
449.224343848104
 20
243.7296074208541
 30
0.0
 10
448.9492795922911
 20
243.6086500824676
 30
0.0
 10
448.6756842437875
 20
243.4849385768032
 30
0.0
 10
448.4035674457161
 20
243.3584775142422
 30
0.0
 10
448.1329387874898
 20
243.2292715722857
 30
0.0
 10
447.8638077831563
 20
243.0973255341166
 30
0.0
 10
447.5961839583266
 20
242.9626441431704
 30
0.0
 10
447.3300765319844
 20
242.8252326448505
 30
0.0
 10
447.0654956101941
 20
242.6850947643791
 30
0.0
 10
446.8024477375257
 20
242.5422402533307
 30
0.0
 10
446.5409525051963
 20
242.3966567267566
 30
0.0
 10
446.2809805758811
 20
242.2484147676412
 30
0.0
 10
446.0226850449343
 20
242.0972757144511
 30
0.0
 10
445.8238859605397
 20
241.978899183171
 30
0.0
 10
445.7117198430547
 20
241.9100039508917
 30
0.0
 10
445.6845738296574
 20
241.8933301911112
 30
0.0
  0
LINE
  5
130
330
1F
100
AcDbEntity
  8
0
  6
Continuous
 62
     7
370
    30
100
AcDbLine
 10
426.5532399203
 20
161.5737269922
 30
0.0
 11
426.4930525613
 21
161.5384577866
 31
0.0
  0
LINE
  5
131
330
1F
100
AcDbEntity
  8
0
  6
Continuous
 62
     7
370
    30
100
AcDbLine
 10
451.4861439401
 20
118.2444626859
 30
0.0
 11
451.5428679202
 21
118.2766984544
 31
0.0
  0
LINE
  5
132
330
1F
100
AcDbEntity
  8
0
  6
Continuous
 62
     7
370
    30
100
AcDbLine
 10
523.5199526312
 20
90.8517350554
 30
0.0
 11
523.415736413
 21
90.7959562008
 31
0.0
  0
LINE
  5
133
330
1F
100
AcDbEntity
  8
0
  6
Continuous
 62
     7
370
    30
100
AcDbLine
 10
438.6971425369
 20
237.5564569872
 30
0.0
 11
438.7960524247
 21
237.6178601004
 31
0.0
  0
LINE
  5
134
330
1F
100
AcDbEntity
  8
0
  6
Continuous
 62
     7
370
    30
100
AcDbLine
 10
530.6659545017
 20
94.6778752832
 30
0.0
 11
530.4723607284
 21
94.5732767577
 31
0.0
  0
LINE
  5
135
330
1F
100
AcDbEntity
  8
0
  6
Continuous
 62
     7
370
    30
100
AcDbLine
 10
445.4938420655
 20
241.7763383919
 30
0.0
 11
445.6821885369
 21
241.8922606068
 31
0.0
  0
LWPOLYLINE
  5
136
330
1F
100
AcDbEntity
  8
0
  6
Continuous
 62
   252
370
     0
100
AcDbPolyline
 90
       32
 70
   128
 43
0.0
 10
442.3185581474
 20
121.5507692468
 10
442.3125462512
 20
121.0237419836
 10
442.294510732
 20
120.5040193272
 10
442.2644639505
 20
119.9919574695
 10
442.2224264992
 20
119.4879073523
 10
442.1684271886
 20
118.9922144261
 10
442.102503027
 20
118.5052184143
 10
442.0246991955
 20
118.0272530796
 10
441.9350690171
 20
117.5586459954
 10
441.8336739197
 20
117.0997183218
 10
441.7205833945
 20
116.6507845848
 10
441.5958749481
 20
116.2121524612
 10
441.4596340495
 20
115.7841225674
 10
441.3119540713
 20
115.366988254
 10
441.1529362261
 20
114.9610354037
 10
440.9826894966
 20
114.5665422365
 10
440.8013305616
 20
114.1837791183
 10
440.6089837153
 20
113.8130083758
 10
440.4057807828
 20
113.4544841167
 10
440.191861029
 20
113.1084520557
 10
439.9673710641
 20
112.7751493458
 10
439.732464742
 20
112.4548044161
 10
439.487303056
 20
112.147636815
 10
439.2320540276
 20
111.8538570597
 10
438.9668925917
 20
111.5736664924
 10
438.6920004767
 20
111.3072571416
 10
438.40756608
 20
111.054811591
 10
438.1137843387
 20
110.816502854
 10
437.8108565961
 20
110.5924942558
 10
437.4989904637
 20
110.3829393204
 10
437.178399679
 20
110.1879816666
 10
437.0996410782
 20
110.1430733179
  0
LWPOLYLINE
  5
137
330
1F
100
AcDbEntity
  8
0
  6
Continuous
 62
   252
370
     0
100
AcDbPolyline
 90
       92
 70
   128
 43
0.0
 10
412.2842234961
 20
153.1321309665
 10
412.3591547323
 20
153.1759283157
 10
412.6882504523
 20
153.356155074
 10
413.0256255619
 20
153.5215274181
 10
413.3710488411
 20
153.6719320102
 10
413.724283554
 20
153.8072657705
 10
414.0850876111
 20
153.927435948
 10
414.4532137354
 20
154.032360184
 10
414.8284096317
 20
154.1219665687
 10
415.2104181593
 20
154.1961936903
 10
415.5989775088
 20
154.2549906774
 10
415.993821381
 20
154.2983172334
 10
416.3946791696
 20
154.3261436644
 10
416.8012761466
 20
154.3384508996
 10
417.2133336509
 20
154.3352305042
 10
417.6305692788
 20
154.3164846853
 10
418.0526970779
 20
154.2822262904
 10
418.4794277428
 20
154.2324787985
 10
418.9104688137
 20
154.1672763039
 10
419.3455248765
 20
154.0866634933
 10
419.7842977656
 20
153.9906956147
 10
420.2264867679
 20
153.8794384395
 10
420.6717888291
 20
153.752968218
 10
421.1198987616
 20
153.6113716265
 10
421.570509453
 20
153.4547457083
 10
422.0233120775
 20
153.2831978068
 10
422.4779963066
 20
153.0968454925
 10
422.9342505225
 20
152.895816482
 10
423.3917620313
 20
152.6802485505
 10
423.8502172776
 20
152.4502894374
 10
424.3093020589
 20
152.2060967454
 10
424.7687017416
 20
151.9478378317
 10
425.228101476
 20
151.6756896943
 10
425.6871864124
 20
151.3898388498
 10
426.1456419171
 20
151.0904812062
 10
426.6031537875
 20
150.7778219281
 10
427.0594084678
 20
150.4520752968
 10
427.5140932639
 20
150.1134645625
 10
427.9668965574
 20
149.7622217923
 10
428.4175080197
 20
149.3985877103
 10
428.8656188242
 20
149.0228115333
 10
429.3109218581
 20
148.6351507993
 10
429.7531119329
 20
148.2358711918
 10
430.1918859936
 20
147.825246357
 10
430.6269433265
 20
147.4035577167
 10
431.0579857649
 20
146.9710942751
 10
431.484717894
 20
146.5281524213
 10
431.9068472527
 20
146.0750357253
 10
432.3240845349
 20
145.6120547307
 10
432.7361437867
 20
145.1395267415
 10
433.1427426035
 20
144.6577756049
 10
433.5436023227
 20
144.167131489
 10
433.9384482151
 20
143.6679306568
 10
434.327009673
 20
143.1605152356
 10
434.7090203958
 20
142.6452329826
 10
435.0842185724
 20
142.1224370464
 10
435.4523470609
 20
141.5924857254
 10
435.8131535641
 20
141.0557422216
 10
436.1663908035
 20
140.5125743923
 10
436.5118166879
 20
139.9633544976
 10
436.8491944796
 20
139.4084589453
 10
437.1782929567
 20
138.8482680332
 10
437.4988865716
 20
138.283165688
 10
437.8107556054
 20
137.7135392028
 10
438.1136863187
 20
137.1397789711
 10
438.4074710979
 20
136.5622782194
 10
438.6919085975
 20
135.9814327379
 10
438.9668038784
 20
135.3976406092
 10
439.231968541
 20
134.8113019351
 10
439.4872208547
 20
134.222818563
 10
439.7323858823
 20
133.6325938099
 10
439.9672956
 20
133.0410321864
 10
440.1917890124
 20
132.4485391192
 10
440.4057122628
 20
131.8555206736
 10
440.6089187391
 20
131.2623832748
 10
440.8012691736
 20
130.6695334294
 10
440.9826317389
 20
130.0773774472
 10
441.1528821383
 20
129.4863211623
 10
441.3119036905
 20
128.8967696552
 10
441.4595874101
 20
128.3091269749
 10
441.5958320822
 20
127.7237958626
 10
441.7205443314
 20
127.1411774747
 10
441.8336386862
 20
126.561671109
 10
441.9350376373
 20
125.98567393
 10
442.024671691
 20
125.4135806976
 10
442.1024794166
 20
124.8457834958
 10
442.1684074885
 20
124.2826714645
 10
442.222410723
 20
123.7246305324
 10
442.2644521088
 20
123.1720431531
 10
442.294502833
 20
122.6252880423
 10
442.3125423003
 20
122.0847399187
 10
442.3185581474
 20
121.5507692468
  0
LWPOLYLINE
  5
138
330
1F
100
AcDbEntity
  8
0
  6
Continuous
 62
   252
370
     0
100
AcDbPolyline
 90
      241
 70
   128
 43
0.0
 10
440.9276026823
 20
121.5446957128
 10
440.9218234343
 20
122.0576657012
 10
440.9044934463
 20
122.5769544549
 10
440.8756245955
 20
123.1022060794
 10
440.8352366672
 20
123.6330605934
 10
440.7833573412
 20
124.1691541758
 10
440.7200221731
 20
124.7101194149
 10
440.6452745695
 20
125.25558556
 10
440.5591657589
 20
125.805178776
 10
440.4617547558
 20
126.358522399
 10
440.3531083208
 20
126.9152371951
 10
440.233300915
 20
127.4749416196
 10
440.1024146481
 20
128.0372520792
 10
439.9605392232
 20
128.6017831943
 10
439.8077718745
 20
129.1681480636
 10
439.6442173013
 20
129.7359585287
 10
439.4699875956
 20
130.3048254409
 10
439.2852021657
 20
130.8743589271
 10
439.0899876544
 20
131.4441686575
 10
438.8844778519
 20
132.013864113
 10
438.6688136044
 20
132.5830548528
 10
438.4431427175
 20
133.151350782
 10
438.2076198545
 20
133.7183624189
 10
437.9624064312
 20
134.2837011621
 10
437.7076705046
 20
134.8469795567
 10
437.443586658
 20
135.4078115597
 10
437.1703358812
 20
135.965812805
 10
436.8881054466
 20
136.5206008664
 10
436.597088781
 20
137.0717955198
 10
436.2974853326
 20
137.6190190039
 10
435.9895004346
 20
138.1618962792
 10
435.6733451646
 20
138.7000552846
 10
435.3492361994
 20
139.2331271928
 10
435.0173956673
 20
139.760746663
 10
434.6780509952
 20
140.2825520912
 10
434.3314347528
 20
140.7981858579
 10
433.9777844938
 20
141.3072945736
 10
433.6173425923
 20
141.8095293206
 10
433.2503560772
 20
142.3045458922
 10
432.8770764628
 20
142.7920050289
 10
432.4977595761
 20
143.2715726504
 10
432.1126653822
 20
143.7429200852
 10
431.7220578052
 20
144.2057242951
 10
431.3262045481
 20
144.6596680974
 10
430.9253769091
 20
145.1044403816
 10
430.5198495952
 20
145.5397363229
 10
430.1099005347
 20
145.9652575914
 10
429.6958106862
 20
146.380712556
 10
429.2778638461
 20
146.7858164845
 10
428.8563464545
 20
147.1802917391
 10
428.4315473981
 20
147.5638679661
 10
428.0037578132
 20
147.9362822814
 10
427.5732708852
 20
148.297279451
 10
427.1403816485
 20
148.6466120653
 10
426.7053867837
 20
148.9840407094
 10
426.2685844145
 20
149.3093341263
 10
425.8302739035
 20
149.6222693763
 10
425.3907556469
 20
149.9226319892
 10
424.9503308683
 20
150.2102161115
 10
424.5093014131
 20
150.4848246473
 10
424.0679695408
 20
150.7462693937
 10
423.6266377181
 20
150.9943711695
 10
423.1856084119
 20
151.2289599381
 10
422.7451838816
 20
151.4498749242
 10
422.3056659723
 20
151.6569647236
 10
421.8673559074
 20
151.8500874073
 10
421.4305540829
 20
152.0291106187
 10
420.9955598609
 20
152.1939116643
 10
420.5626713647
 20
152.3443775975
 10
420.1321852745
 20
152.4804052966
 10
419.7043966239
 20
152.6019015351
 10
419.2795985979
 20
152.7087830453
 10
418.8580823318
 20
152.8009765761
 10
418.4401367119
 20
152.8784189427
 10
418.0260481772
 20
152.9410570699
 10
417.6161005232
 20
152.9888480287
 10
417.2105747077
 20
153.0217590655
 10
416.8097486578
 20
153.0397676247
 10
416.4138970795
 20
153.0428613643
 10
416.0232912699
 20
153.0310381638
 10
415.6381989307
 20
153.0043061264
 10
415.2588839848
 20
152.9626835728
 10
414.8856063958
 20
152.9061990291
 10
414.5186219895
 20
152.8348912068
 10
414.1581822787
 20
152.748808977
 10
413.8045342908
 20
152.6480113359
 10
413.4579203985
 20
152.5325673653
 10
413.1185781535
 20
152.4025561848
 10
412.7867401241
 20
152.2580668974
 10
412.4626337356
 20
152.0991985289
 10
412.1464811141
 20
151.9260599598
 10
411.8384989351
 20
151.7387698506
 10
411.538898274
 20
151.5374565606
 10
411.2478844622
 20
151.3222580598
 10
410.965656946
 20
151.0933218346
 10
410.6924091501
 20
150.8508047864
 10
410.4283283448
 20
150.5948731242
 10
410.173595518
 20
150.3257022509
 10
409.9283852508
 20
150.0434766428
 10
409.6928655981
 20
149.7483897231
 10
409.4671979732
 20
149.4406437297
 10
409.2515370375
 20
149.1204495763
 10
409.0460305943
 20
148.788026708
 10
408.8508194873
 20
148.4436029509
 10
408.6660375045
 20
148.0874143557
 10
408.4918112863
 20
147.7197050364
 10
408.3282602386
 20
147.3407270025
 10
408.1754964512
 20
146.9507399867
 10
408.0336246206
 20
146.5500112665
 10
407.9027419788
 20
146.1388154815
 10
407.7829382262
 20
145.7174344447
 10
407.6742954702
 20
145.2861569495
 10
407.5768881693
 20
144.8452785721
 10
407.4907830815
 20
144.3951014685
 10
407.4160392189
 20
143.9359341675
 10
407.3527078073
 20
143.4680913595
 10
407.3008322508
 20
142.9918936806
 10
407.2604481023
 20
142.5076674929
 10
407.2315830392
 20
142.0157446608
 10
407.214256844
 20
141.5164623237
 10
407.2084813914
 20
141.0101626648
 10
407.2142606395
 20
140.4971926764
 10
407.2315906275
 20
139.9779039227
 10
407.2604594783
 20
139.4526522982
 10
407.3008474066
 20
138.9217977842
 10
407.3527267325
 20
138.3857042018
 10
407.4160619007
 20
137.8447389627
 10
407.4908095042
 20
137.2992728176
 10
407.5769183149
 20
136.7496796016
 10
407.674329318
 20
136.1963359786
 10
407.7829757529
 20
135.6396211825
 10
407.9027831588
 20
135.079916758
 10
408.0336694257
 20
134.5176062984
 10
408.1755448506
 20
133.9530751833
 10
408.3283121992
 20
133.386710314
 10
408.4918667724
 20
132.8188998489
 10
408.6660964782
 20
132.2500329367
 10
408.850881908
 20
131.6804994505
 10
409.0460964194
 20
131.1106897201
 10
409.2516062218
 20
130.5409942646
 10
409.4672704693
 20
129.9718035248
 10
409.6929413563
 20
129.4035075956
 10
409.9284642192
 20
128.8364959587
 10
410.1736776425
 20
128.2711572155
 10
410.4284135691
 20
127.7078788209
 10
410.6924974158
 20
127.1470468179
 10
410.9657481926
 20
126.5890455726
 10
411.2479786271
 20
126.0342575112
 10
411.5389952927
 20
125.4830628578
 10
411.8385987412
 20
124.9358393737
 10
412.1465836391
 20
124.3929620984
 10
412.4627389092
 20
123.854803093
 10
412.7868478743
 20
123.3217311848
 10
413.1186884064
 20
122.7941117146
 10
413.4580330786
 20
122.2723062864
 10
413.8046493209
 20
121.7566725197
 10
414.1582995799
 20
121.247563804
 10
414.5187414814
 20
120.745329057
 10
414.8857279965
 20
120.2503124853
 10
415.259007611
 20
119.7628533487
 10
415.6383244976
 20
119.2832857271
 10
416.0234186916
 20
118.8119382924
 10
416.4140262686
 20
118.3491340825
 10
416.8098795256
 20
117.8951902802
 10
417.2107071647
 20
117.450417996
 10
417.6162344786
 20
117.0151220547
 10
418.0261835391
 20
116.5896007862
 10
418.4402733876
 20
116.1741458216
 10
418.8582202276
 20
115.769041893
 10
419.2797376193
 20
115.3745666385
 10
419.7045366756
 20
114.9909904115
 10
420.1323262606
 20
114.6185760962
 10
420.5628131885
 20
114.2575789266
 10
420.9957024252
 20
113.9082463122
 10
421.4306972901
 20
113.5708176682
 10
421.8674996592
 20
113.2455242513
 10
422.3058101702
 20
112.9325890013
 10
422.7453284269
 20
112.6322263884
 10
423.1857532054
 20
112.3446422661
 10
423.6267826606
 20
112.0700337303
 10
424.068114533
 20
111.8085889839
 10
424.5094463557
 20
111.5604872081
 10
424.9504756618
 20
111.3258984395
 10
425.3909001921
 20
111.1049834534
 10
425.8304181015
 20
110.897893654
 10
426.2687281663
 20
110.7047709703
 10
426.7055299908
 20
110.5257477588
 10
427.1405242128
 20
110.3609467133
 10
427.573412709
 20
110.2104807801
 10
428.0038987992
 20
110.0744530809
 10
428.4316874498
 20
109.9529568425
 10
428.8564854759
 20
109.8460753323
 10
429.2780017419
 20
109.7538818015
 10
429.6959473618
 20
109.6764394349
 10
430.1100358966
 20
109.6138013077
 10
430.5199835505
 20
109.5660103489
 10
430.925509366
 20
109.5330993121
 10
431.326335416
 20
109.5150907528
 10
431.7221869942
 20
109.5119970133
 10
432.1127928038
 20
109.5238202138
 10
432.4978851431
 20
109.5505522512
 10
432.877200089
 20
109.5921748048
 10
433.250477678
 20
109.6486593485
 10
433.6174620842
 20
109.7199671708
 10
433.977901795
 20
109.8060494006
 10
434.3315497829
 20
109.9068470417
 10
434.6781636753
 20
110.0222910123
 10
435.0175059203
 20
110.1523021928
 10
435.3493439496
 20
110.2967914802
 10
435.6734503382
 20
110.4556598487
 10
435.9896029596
 20
110.6287984178
 10
436.2975851387
 20
110.816088527
 10
436.5971857997
 20
111.017401817
 10
436.8881996115
 20
111.2326003178
 10
437.1704271277
 20
111.461536543
 10
437.4436749236
 20
111.7040535912
 10
437.7077557289
 20
111.9599852534
 10
437.9624885557
 20
112.2291561267
 10
438.2076988229
 20
112.5113817348
 10
438.4432184757
 20
112.8064686545
 10
438.6688861006
 20
113.1142146479
 10
438.8845470362
 20
113.4344088013
 10
439.0900534795
 20
113.7668316696
 10
439.2852645865
 20
114.1112554267
 10
439.4700465692
 20
114.4674440219
 10
439.6442727874
 20
114.8351533412
 10
439.8078238351
 20
115.2141313751
 10
439.9605876226
 20
115.6041183909
 10
440.1024594532
 20
116.004847111
 10
440.233342095
 20
116.4160428961
 10
440.3531458476
 20
116.8374239329
 10
440.4617886035
 20
117.268701428
 10
440.5591959045
 20
117.7095798054
 10
440.6453009923
 20
118.1597569091
 10
440.7200448549
 20
118.6189242101
 10
440.7833762665
 20
119.0867670181
 10
440.835251823
 20
119.562964697
 10
440.8756359715
 20
120.0471908847
 10
440.9045010346
 20
120.5391137167
 10
440.9218272297
 20
121.0383960539
 10
440.9276026823
 20
121.5446957128
  0
LWPOLYLINE
  5
139
330
1F
100
AcDbEntity
  8
0
  6
Continuous
 62
   252
370
     0
100
AcDbPolyline
 90
       92
 70
   128
 43
0.0
 10
456.741289855
 20
129.7327719305
 10
456.7352312362
 20
130.2705390554
 10
456.7170635109
 20
130.8149303969
 10
456.6867991305
 20
131.3655728563
 10
456.6444588365
 20
131.9220890507
 10
456.590071647
 20
132.4840975718
 10
456.5236748362
 20
133.051213247
 10
456.4453139091
 20
133.6230474035
 10
456.3550425705
 20
134.1992081349
 10
456.2529226877
 20
134.7793005692
 10
456.1390242486
 20
135.3629271401
 10
456.0134253137
 20
135.9496878591
 10
455.876211962
 20
136.5391805898
 10
455.7274782327
 20
137.1310013232
 10
455.5673260606
 20
137.724744455
 10
455.3958652059
 20
138.3200030633
 10
455.2132131794
 20
138.9163691876
 10
455.0194951615
 20
139.5134341083
 10
454.8148439171
 20
140.110788627
 10
454.5993997037
 20
140.7080233467
 10
454.3733101761
 20
141.3047289525
 10
454.1367302849
 20
141.9004964923
 10
453.8898221699
 20
142.4949176568
 10
453.6327550497
 20
143.0875850593
 10
453.3657051053
 20
143.6780925152
 10
453.0888553593
 20
144.2660353202
 10
452.8023955508
 20
144.8510105278
 10
452.506522005
 20
145.432617225
 10
452.2014374989
 20
146.0104568078
 10
451.887351122
 20
146.5841332537
 10
451.5644781336
 20
147.1532533935
 10
451.2330398146
 20
147.7174271808
 10
450.8932633164
 20
148.276267959
 10
450.5453815047
 20
148.8293927266
 10
450.1896328003
 20
149.3764223994
 10
449.8262610158
 20
149.9169820706
 10
449.4555151879
 20
150.4507012677
 10
449.0776494073
 20
150.9772142062
 10
448.6929226443
 20
151.4961600404
 10
448.3015985715
 20
152.0071831108
 10
447.9039453828
 20
152.5099331876
 10
447.5002356099
 20
153.0040657111
 10
447.0907459352
 20
153.4892420276
 10
446.6757570025
 20
153.9651296213
 10
446.2555532246
 20
154.4314023428
 10
445.8304225881
 20
154.887740632
 10
445.4006564563
 20
155.3338317374
 10
444.9665493694
 20
155.7693699305
 10
444.5283988427
 20
156.1940567152
 10
444.0865051628
 20
156.6076010323
 10
443.6411711815
 20
157.0097194592
 10
443.1927021085
 20
157.400136404
 10
442.741405302
 20
157.7785842945
 10
442.2875900583
 20
158.1448037614
 10
441.8315673998
 20
158.4985438162
 10
441.3736498616
 20
158.839562023
 10
440.9141512776
 20
159.1676246651
 10
440.4533865649
 20
159.4825069047
 10
439.9916715089
 20
159.7839929373
 10
439.529322546
 20
160.0718761393
 10
439.0666565469
 20
160.34595921
 10
438.6039906
 20
160.6060543066
 10
438.1416417932
 20
160.8519831729
 10
437.6799269975
 20
161.0835772614
 10
437.219162649
 20
161.3006778493
 10
436.7596645326
 20
161.5031361466
 10
436.3017475654
 20
161.6908133984
 10
435.8457255808
 20
161.8635809803
 10
435.3919111135
 20
162.0213204858
 10
434.9406151852
 20
162.1639238083
 10
434.4921470917
 20
162.2912932145
 10
434.0468141905
 20
162.4033414118
 10
433.6049216906
 20
162.499991608
 10
433.1667724431
 20
162.5811775639
 10
432.7326667335
 20
162.6468436386
 10
432.3029020762
 20
162.6969448279
 10
431.8777730104
 20
162.7314467949
 10
431.4575708985
 20
162.7503258938
 10
431.0425837258
 20
162.7535691858
 10
430.6330959039
 20
162.7411744479
 10
430.2293880753
 20
162.7131501751
 10
429.8317369212
 20
162.6695155737
 10
429.4404149718
 20
162.6103005486
 10
429.0556904196
 20
162.535545683
 10
428.6778269356
 20
162.4453022101
 10
428.3070834886
 20
162.3396319782
 10
427.9437141676
 20
162.2186074084
 10
427.5879680078
 20
162.082311445
 10
427.2400888198
 20
161.9308374983
 10
426.9003150227
 20
161.7642893811
 10
426.5688794804
 20
161.582781237
 10
426.5532399203
 20
161.5737269922
  0
LWPOLYLINE
  5
13A
330
1F
100
AcDbEntity
  8
0
  6
Continuous
 62
   252
370
     0
100
AcDbPolyline
 90
       32
 70
   128
 43
0.0
 10
451.5428679202
 20
118.2766984544
 10
451.5645856146
 20
118.2891965989
 10
451.8874557527
 20
118.4855403731
 10
452.2015392075
 20
118.6965852132
 10
452.5066207219
 20
118.9221864797
 10
452.8024912083
 20
119.1621895568
 10
453.0889478918
 20
119.4164299582
 10
453.3657944494
 20
119.6847334404
 10
453.6328411441
 20
119.9669161215
 10
453.8899049557
 20
120.2627846077
 10
454.1368097053
 20
120.5721361253
 10
454.3733861767
 20
120.8947586605
 10
454.5994722324
 20
121.2304311037
 10
454.8149129242
 20
121.5789234019
 10
455.0195605997
 20
121.9399967158
 10
455.2132750038
 20
122.3134035839
 10
455.3959233743
 20
122.6988880916
 10
455.567380533
 20
123.0961860473
 10
455.7275289718
 20
123.5050251627
 10
455.8762589329
 20
123.9251252399
 10
456.0134684843
 20
124.3561983633
 10
456.1390635894
 20
124.797949097
 10
456.2529581716
 20
125.2500746869
 10
456.3550741733
 20
125.7122652689
 10
456.4453416091
 20
126.1842040806
 10
456.5236986144
 20
126.6655676788
 10
456.5900914871
 20
127.1560261607
 10
456.644474725
 20
127.6552433908
 10
456.6868110563
 20
128.1628772304
 10
456.717071466
 20
128.6785797726
 10
456.7352352151
 20
129.2019975808
 10
456.741289855
 20
129.7327719305
  0
LWPOLYLINE
  5
13B
330
1F
100
AcDbEntity
  8
0
  6
Continuous
 62
   252
370
     0
100
AcDbPolyline
 90
      109
 70
   128
 43
0.0
 10
430.3391206463
 20
162.7563029518
 10
430.4594119412
 20
162.7831956806
 10
430.8365094752
 20
162.8564658509
 10
431.220073554
 20
162.9145042884
 10
431.6098413021
 20
162.9572712165
 10
432.0055455921
 20
162.9847373249
 10
432.4069152281
 20
162.9968837896
 10
432.8136751314
 20
162.9937022862
 10
433.225546529
 20
162.975194995
 10
433.6422471448
 20
162.9413745999
 10
434.0634913932
 20
162.8922642799
 10
434.4889905742
 20
162.8278976927
 10
434.9184530721
 20
162.7483189519
 10
435.3515845547
 20
162.6535825968
 10
435.7880881753
 20
162.543753555
 10
436.2276647761
 20
162.4189070978
 10
436.6700130932
 20
162.2791287888
 10
437.1148299633
 20
162.1245144249
 10
437.5618105311
 20
161.9551699713
 10
438.0106484584
 20
161.771211488
 10
438.4610361341
 20
161.5727650511
 10
438.9126648851
 20
161.3599666659
 10
439.3652251874
 20
161.1329621737
 10
439.818406879
 20
160.891907152
 10
440.2718993716
 20
160.636966808
 10
440.7253918643
 20
160.3683158649
 10
441.1785735558
 20
160.0861384428
 10
441.6311338582
 20
159.790627932
 10
442.0827626091
 20
159.4819868606
 10
442.5331502848
 20
159.1604267557
 10
442.9819882121
 20
158.8261679987
 10
443.4289687799
 20
158.4794396737
 10
443.87378565
 20
158.1204794111
 10
444.3161339672
 20
157.7495332242
 10
444.755710568
 20
157.3668553411
 10
445.1922141886
 20
156.97270803
 10
445.6253456711
 20
156.5673614199
 10
446.054808169
 20
156.151093315
 10
446.4803073501
 20
155.7241890048
 10
446.9015515984
 20
155.2869410681
 10
447.3182522143
 20
154.8396491728
 10
447.7301236119
 20
154.3826198704
 10
448.1368835151
 20
153.916166386
 10
448.5382531511
 20
153.4406084036
 10
448.9339574412
 20
152.9562718467
 10
449.3237251893
 20
152.4634886555
 10
449.7072892681
 20
151.9625965589
 10
450.084386802
 20
151.4539388435
 10
450.4547593472
 20
150.9378641177
 10
450.8181530688
 20
150.4147260734
 10
451.1743189149
 20
149.8848832433
 10
451.5230127872
 20
149.3486987553
 10
451.8639957084
 20
148.8065400833
 10
452.1970339858
 20
148.2587787958
 10
452.5218993716
 20
147.7057903011
 10
452.8383692193
 20
147.1479535899
 10
453.1462266363
 20
146.5856509755
 10
453.4452606325
 20
146.0192678322
 10
453.7352662649
 20
145.4491923305
 10
454.0160447782
 20
144.8758151719
 10
454.2874037407
 20
144.2995293203
 10
454.5491571766
 20
143.7207297333
 10
454.8011256931
 20
143.1398130912
 10
455.0431366037
 20
142.5571775253
 10
455.2750240462
 20
141.9732223448
 10
455.4966290964
 20
141.3883477636
 10
455.7077998773
 20
140.8029546254
 10
455.9083916631
 20
140.2174441293
 10
456.0982669781
 20
139.6322175552
 10
456.2772956914
 20
139.047675988
 10
456.4453551054
 20
138.4642200433
 10
456.6023300408
 20
137.8822495927
 10
456.7481129147
 20
137.3021634897
 10
456.8826038149
 20
136.7243592963
 10
457.005710568
 20
136.1492330106
 10
457.1173488027
 20
135.5771787955
 10
457.2174420079
 20
135.0085887083
 10
457.3059215846
 20
134.4438524323
 10
457.3827268933
 20
133.8833570096
 10
457.4478052956
 20
133.3274865756
 10
457.5011121898
 20
132.7766220963
 10
457.5426110423
 20
132.2311411066
 10
457.5722734116
 20
131.6914174519
 10
457.5900789688
 20
131.1578210319
 10
457.5960155107
 20
130.6307175469
 10
457.5900789688
 20
130.1104682473
 10
457.5722734116
 20
129.597429686
 10
457.5426110423
 20
129.091953474
 10
457.5011121898
 20
128.5943860395
 10
457.4478052956
 20
128.1050683902
 10
457.3827268933
 20
127.6243358801
 10
457.3059215846
 20
127.1525179793
 10
457.2174420079
 20
126.6899380481
 10
457.1173488027
 20
126.2369131157
 10
457.005710568
 20
125.7937536629
 10
456.8826038149
 20
125.3607634088
 10
456.7481129147
 20
124.9382391035
 10
456.6023300408
 20
124.526470324
 10
456.4453551054
 20
124.125739276
 10
456.2772956914
 20
123.7363206006
 10
456.0982669781
 20
123.3584811859
 10
455.9083916631
 20
122.9924799842
 10
455.7077998773
 20
122.6385678343
 10
455.4966290964
 20
122.2969872901
 10
455.2750240462
 20
121.9679724536
 10
455.0431366037
 20
121.6517488154
 10
454.8011256931
 20
121.3485330993
 10
454.5491571766
 20
121.0585331141
 10
454.4578498909
 20
120.9593388162
  0
ARC
  5
13C
330
1F
100
AcDbEntity
  8
0
  6
Continuous
 62
   252
370
     0
100
AcDbCircle
 10
420.2350296934
 20
129.0650469047
 30
0.0
 40
36.67591377848466
100
AcDbArc
 50
2.0497816316
 51
57.9340345234
  0
LWPOLYLINE
  5
13D
330
1F
100
AcDbEntity
  8
0
  6
Continuous
 62
   252
370
     0
100
AcDbPolyline
 90
       32
 70
   128
 43
0.0
 10
541.8160757011
 20
130.0654789135
 10
541.795547999
 20
128.2659370864
 10
541.7339654711
 20
126.4913369395
 10
541.6313703231
 20
124.7428946952
 10
541.4878328685
 20
123.0218086484
 10
541.3034514807
 20
121.3292583455
 10
541.0783525256
 20
119.666403776
 10
540.8126902747
 20
118.0343845772
 10
540.5066467996
 20
116.4343192538
 10
540.1604318473
 20
114.8673044104
 10
539.7742826962
 20
113.3344140009
 10
539.3484639936
 20
111.8366985916
 10
538.8832675744
 20
110.375184642
 10
538.379012261
 20
108.9508738007
 10
537.8360436448
 20
107.5647422192
 10
537.2547338493
 20
106.2177398829
 10
536.6354812753
 20
104.9107899599
 10
535.9787103276
 20
103.6447881683
 10
535.2848711241
 20
102.4206021625
 10
534.5544391875
 20
101.2390709386
 10
533.7879151195
 20
100.1010042589
 10
532.9858242573
 20
99.0071820976
 10
532.148716314
 20
97.9583541057
 10
531.2771650015
 20
96.9552390975
 10
530.3717676376
 20
95.9985245579
 10
529.4331447363
 20
95.0888661713
 10
528.461939583
 20
94.2268873722
 10
527.4588177931
 20
93.4131789177
 10
526.4244668563
 20
92.6482984829
 10
525.3595956648
 20
91.9327702787
 10
524.2649340284
 20
91.2670846924
 10
523.5199526312
 20
90.8517350554
  0
LWPOLYLINE
  5
13E
330
1F
100
AcDbEntity
  8
0
  6
Continuous
 62
   252
370
     0
100
AcDbPolyline
 90
       92
 70
   128
 43
0.0
 10
438.7960524247
 20
237.6178601004
 10
439.5192813532
 20
238.0500188153
 10
440.6429832082
 20
238.6654055561
 10
441.7949551527
 20
239.230071696
 10
442.9744076827
 20
239.743630241
 10
444.1805324602
 20
240.2057292238
 10
445.4125028677
 20
240.6160519449
 10
446.6694745741
 20
240.9743171895
 10
447.9505861139
 20
241.2802794205
 10
449.2549594771
 20
241.5337289467
 10
450.5817007115
 20
241.7344920665
 10
451.9299005348
 20
241.8824311868
 10
453.2986349582
 20
241.9774449175
 10
454.6869659196
 20
242.0194681411
 10
456.0939419262
 20
242.0084720568
 10
457.518598707
 20
241.9444642009
 10
458.9599598734
 20
241.827488441
 10
460.4170375884
 20
241.6576249467
 10
461.8888332437
 20
241.4349901338
 10
463.3743381442
 20
241.1597365851
 10
464.8725341989
 20
240.8320529456
 10
466.3823946192
 20
240.4521637933
 10
467.902884622
 20
240.0203294854
 10
469.4329621396
 20
239.5368459793
 10
470.9715785332
 20
239.0020446307
 10
472.517679312
 20
238.4162919656
 10
474.0702048557
 20
237.7799894297
 10
475.6280911409
 20
237.0935731128
 10
477.1902704702
 20
236.3575134505
 10
478.7556722038
 20
235.5723149014
 10
480.3232234936
 20
234.7385156011
 10
481.8918500184
 20
233.8566869943
 10
483.4604767197
 20
232.927433442
 10
485.0280285392
 20
231.9513918084
 10
486.5934311552
 20
230.9292310235
 10
488.1556117189
 20
229.8616516254
 10
489.7134995899
 20
228.7493852796
 10
491.2660270695
 20
227.5931942779
 10
492.812130133
 20
226.3938710158
 10
494.3507491586
 20
225.1522374497
 10
495.8808296537
 20
223.8691445331
 10
497.4013229775
 20
222.5454716339
 10
498.9111870598
 20
221.1821259313
 10
500.4093871153
 20
219.7800417944
 10
501.8948963524
 20
218.3401801416
 10
503.3666966773
 20
216.8635277821
 10
504.8237793916
 20
215.3510967398
 10
506.2651458836
 20
213.8039235593
 10
507.6898083126
 20
212.2230685958
 10
509.0967902863
 20
210.6096152884
 10
510.4851275295
 20
208.9646694173
 10
511.853868545
 20
207.2893583464
 10
513.2020752664
 20
205.58483025
 10
514.5288236999
 20
203.8522533267
 10
515.8332045585
 20
202.0928149981
 10
517.1143238847
 20
200.3077210954
 10
518.3713036633
 20
198.4981950327
 10
519.6032824232
 20
196.6654769688
 10
520.8094158276
 20
194.8108229571
 10
521.988877253
 20
192.935504085
 10
523.1408583554
 20
191.0408056021
 10
524.2645696245
 20
189.1280260403
 10
525.3592409248
 20
187.1984763231
 10
526.4241220232
 20
185.2534788675
 10
527.4584831034
 20
183.2943666776
 10
528.4616152659
 20
181.322482431
 10
529.4328310142
 20
179.3391775587
 10
530.3714647254
 20
177.3458113188
 10
531.2768731069
 20
175.3437498649
 10
532.148435637
 20
173.33436531
 10
532.9855549903
 20
171.3190347859
 10
533.787657447
 20
169.2991394993
 10
534.5541932862
 20
167.2760637858
 10
535.2846371624
 20
165.2511941602
 10
535.9784884659
 20
163.2259183671
 10
536.6352716657
 20
161.2016244294
 10
537.2545366354
 20
159.179699697
 10
537.8358589617
 20
157.1615298962
 10
538.3788402353
 20
155.1484981796
 10
538.8831083241
 20
153.1419841787
 10
539.3483176277
 20
151.143363058
 10
539.7741493151
 20
149.1540045724
 10
540.1603115424
 20
147.1752721291
 10
540.5065396534
 20
145.2085218523
 10
540.8125963605
 20
143.2551016545
 10
541.0782719079
 20
141.3163503122
 10
541.3033842147
 20
139.3935965488
 10
541.4877790003
 20
137.4881581237
 10
541.6313298896
 20
135.6013409292
 10
541.7339385
 20
133.7344380956
 10
541.7955345088
 20
131.8887291048
 10
541.8160757011
 20
130.0654789135
  0
LWPOLYLINE
  5
13F
330
1F
100
AcDbEntity
  8
0
  6
Continuous
 62
   252
370
     0
100
AcDbPolyline
 90
       80
 70
   128
 43
0.0
 10
539.0884245958
 20
130.0516032069
 10
539.0683599742
 20
128.2926569002
 10
539.0081666748
 20
126.5580896191
 10
538.9078859512
 20
124.8490901495
 10
538.7675865306
 20
123.1668297541
 10
538.5873645673
 20
121.5124613702
 10
538.3673435766
 20
119.8871188194
 10
538.1076743496
 20
118.2919160301
 10
537.8085348509
 20
116.7279462746
 10
537.4701300955
 20
115.1962814199
 10
537.0926920094
 20
113.6979711923
 10
536.6764792696
 20
112.2340424589
 10
536.2217771276
 20
110.8054985234
 10
535.7288972135
 20
109.4133184383
 10
535.1981773226
 20
108.0584563345
 10
534.6299811838
 20
106.7418407666
 10
534.0246982103
 20
105.4643740773
 10
533.3827432329
 20
104.2269317783
 10
532.7045562155
 20
103.0303619509
 10
531.9906019535
 20
101.8754846642
 10
531.2413697555
 20
100.7630914134
 10
530.4573731079
 20
99.6939445773
 10
529.6391493228
 20
98.6687768957
 10
528.78725917
 20
97.6882909674
 10
527.9022864922
 20
96.7531587684
 10
526.9848378058
 20
95.8640211916
 10
526.035541884
 20
95.0214876076
 10
525.055049327
 20
94.2261354467
 10
524.0440321154
 20
93.4785098036
 10
523.0031831498
 20
92.7791230635
 10
521.9332157762
 20
92.1284545512
 10
520.8348632967
 20
91.5269502024
 10
519.7088784673
 20
90.9750222581
 10
518.5560329817
 20
90.4730489822
 10
517.3771169426
 20
90.0213744021
 10
516.1729383203
 20
89.620308073
 10
514.9443223985
 20
89.2701248656
 10
513.6921112093
 20
88.9710647781
 10
512.4171629557
 20
88.7233327714
 10
511.1203514235
 20
88.5270986285
 10
509.8025653825
 20
88.3824968385
 10
508.4647079775
 20
88.2896265044
 10
507.1076961091
 20
88.2485512747
 10
505.7324598055
 20
88.2592993004
 10
504.3399415849
 20
88.3218632154
 10
502.9310958098
 20
88.4362001413
 10
501.5068880327
 20
88.6022317176
 10
500.0682943345
 20
88.8198441543
 10
498.6163006554
 20
89.0888883107
 10
497.1519021193
 20
89.4091797976
 10
495.6761023519
 20
89.780499103
 10
494.1899127927
 20
90.2025917433
 10
492.6943520016
 20
90.6751684372
 10
491.1904449614
 20
91.1979053044
 10
489.6792223748
 20
91.770444087
 10
488.1617199583
 20
92.3923923955
 10
486.6389777323
 20
93.0633239778
 10
485.1120393081
 20
93.7827790107
 10
483.5819511732
 20
94.5502644158
 10
482.0497619736
 20
95.3652541968
 10
480.516521795
 20
96.2271898006
 10
478.9832814439
 20
97.1354804994
 10
477.4510917265
 20
98.0895037962
 10
475.9210027292
 20
99.0886058512
 10
474.3940630984
 20
100.1321019296
 10
472.8713193224
 20
101.2192768713
 10
471.3538150137
 20
102.349385581
 10
469.8425901939
 20
103.5216535387
 10
468.338680581
 20
104.7352773303
 10
466.8431168796
 20
105.9894251988
 10
465.3569240743
 20
107.2832376139
 10
463.8811207275
 20
108.6158278612
 10
462.4167182809
 20
109.9862826498
 10
460.964720363
 20
111.3936627386
 10
459.5261221005
 20
112.8370035795
 10
458.1019094369
 20
114.3153159788
 10
456.6930584563
 20
115.827586775
 10
455.3005347149
 20
117.3727795333
 10
453.9252925789
 20
118.9498352557
 10
453.3376769688
 20
119.6396366377
  0
LWPOLYLINE
  5
140
330
1F
100
AcDbEntity
  8
0
  6
Continuous
 62
   252
370
     0
100
AcDbPolyline
 90
      141
 70
   128
 43
0.0
 10
428.6271695011
 20
162.4441191951
 10
428.328212339
 20
163.2850244244
 10
427.6500134946
 20
165.2646124076
 10
427.0080465415
 20
167.243240685
 10
426.402751452
 20
169.2195532035
 10
425.834543065
 20
171.1921954973
 10
425.3038108022
 20
173.1598156158
 10
424.810918401
 20
175.1210650506
 10
424.3562036652
 20
177.0745996592
 10
423.9399782335
 20
179.0190805865
 10
423.5625273661
 20
180.9531751826
 10
423.224109749
 20
182.8755579155
 10
422.9249573167
 20
184.7849112802
 10
422.6652750932
 20
186.6799267012
 10
422.4452410519
 20
188.5593054297
 10
422.2650059931
 20
190.4217594332
 10
422.1246934409
 20
192.266012279
 10
422.0243995585
 20
194.0908000081
 10
421.9641930824
 20
195.8948720023
 10
421.9441152749
 20
197.6769918408
 10
421.9641798965
 20
199.4359381475
 10
422.0243731959
 20
201.1705054286
 10
422.1246539196
 20
202.8795048982
 10
422.2649533401
 20
204.5617652936
 10
422.4451753034
 20
206.2161336775
 10
422.6651962942
 20
207.8414762283
 10
422.9248655211
 20
209.4366790176
 10
423.2240050199
 20
211.0006487731
 10
423.5624097752
 20
212.5323136278
 10
423.9398478613
 20
214.0306238554
 10
424.3560606011
 20
215.4945525888
 10
424.8107627432
 20
216.9230965243
 10
425.3036426573
 20
218.3152766094
 10
425.8343625482
 20
219.6701387132
 10
426.4025586869
 20
220.9867542811
 10
427.0078416604
 20
222.2642209704
 10
427.6497966378
 20
223.5016632694
 10
428.3279836552
 20
224.6982330968
 10
429.0419379172
 20
225.8531103835
 10
429.7911701152
 20
226.9655036343
 10
430.5751667628
 20
228.0346504704
 10
431.3933905479
 20
229.059818152
 10
432.2452807008
 20
230.0403040803
 10
433.1302533785
 20
230.9754362793
 10
434.047702065
 20
231.8645738561
 10
434.9969979867
 20
232.7071074401
 10
435.9774905437
 20
233.502459601
 10
436.9885077554
 20
234.2500852441
 10
438.0293567209
 20
234.9494719842
 10
439.0993240946
 20
235.6001404965
 10
440.197676574
 20
236.2016448453
 10
441.3236614034
 20
236.7535727896
 10
442.476506889
 20
237.2555460655
 10
443.6554229281
 20
237.7072206456
 10
444.8596015504
 20
238.1082869747
 10
446.0882174722
 20
238.4584701821
 10
447.3404286614
 20
238.7575302696
 10
448.615376915
 20
239.0052622763
 10
449.9121884473
 20
239.2014964192
 10
451.2299744882
 20
239.3460982092
 10
452.5678318932
 20
239.4389685433
 10
453.9248437616
 20
239.480043773
 10
455.3000800652
 20
239.4692957473
 10
456.6925982858
 20
239.4067318323
 10
458.1014440609
 20
239.2923949063
 10
459.525651838
 20
239.1263633301
 10
460.9642455362
 20
238.9087508934
 10
462.4162392153
 20
238.6397067369
 10
463.8806377514
 20
238.3194152501
 10
465.3564375188
 20
237.9480959447
 10
466.842627078
 20
237.5260033044
 10
468.3381878691
 20
237.0534266105
 10
469.8420949093
 20
236.5306897433
 10
471.3533174959
 20
235.9581509607
 10
472.8708199124
 20
235.3362026522
 10
474.3935621385
 20
234.6652710699
 10
475.9205005626
 20
233.945816037
 10
477.4505886975
 20
233.1783306319
 10
478.9827778972
 20
232.3633408509
 10
480.5160180757
 20
231.5014052471
 10
482.0492584268
 20
230.5931145483
 10
483.5814481442
 20
229.6390912515
 10
485.1115371416
 20
228.6399891965
 10
486.6384767723
 20
227.5964931181
 10
488.1612205483
 20
226.5093181764
 10
489.6787248571
 20
225.3792094667
 10
491.1899496768
 20
224.206941509
 10
492.6938592897
 20
222.9933177174
 10
494.1894229911
 20
221.7391698489
 10
495.6756157964
 20
220.4453574338
 10
497.1514191433
 20
219.1127671865
 10
498.6158215898
 20
217.7423123979
 10
500.0678195077
 20
216.3349323091
 10
501.5064177702
 20
214.8915914682
 10
502.9306304338
 20
213.4132790689
 10
504.3394814144
 20
211.9010082727
 10
505.7320051558
 20
210.3558155144
 10
507.1072472919
 20
208.778759792
 10
508.4642653003
 20
207.1709219407
 10
509.8021291487
 20
205.5334038922
 10
511.1199219321
 20
203.8673279197
 10
512.4167405011
 20
202.1738358683
 10
513.691696081
 20
200.4540883729
 10
514.943914881
 20
198.7092640626
 10
516.1725386929
 20
196.9405587527
 10
517.3767254792
 20
195.1491846256
 10
518.5556499505
 20
193.3363693996
 10
519.7085041308
 20
191.5033554877
 10
520.8344979116
 20
189.6513991461
 10
521.9328595928
 20
187.7817696131
 10
523.0028364123
 20
185.8957482395
 10
524.0436950613
 20
183.99462761
 10
525.0547221874
 20
182.0797106578
 10
526.0352248831
 20
180.1523097714
 10
526.9845311608
 20
178.2137458949
 10
527.9019904134
 20
176.2653476233
 10
528.7869738602
 20
174.3084502914
 10
529.6388749776
 20
172.3443950589
 10
530.4571099153
 20
170.3745279912
 10
531.2411178959
 20
168.4001991366
 10
531.9903615994
 20
166.4227616017
 10
532.7043275317
 20
164.4435706233
 10
533.3825263762
 20
162.4639826401
 10
534.0244933292
 20
160.4853543627
 10
534.6297884187
 20
158.5090418442
 10
535.1979968057
 20
156.5363995504
 10
535.7287290685
 20
154.5687794319
 10
536.2216214697
 20
152.6075299971
 10
536.6763362055
 20
150.6539953885
 10
537.0925616372
 20
148.7095144611
 10
537.4700125046
 20
146.7754198651
 10
537.8084301217
 20
144.8530371322
 10
538.1075825541
 20
142.9436837675
 10
538.3672647775
 20
141.0486683465
 10
538.5872988188
 20
139.169289618
 10
538.7675338776
 20
137.3068356145
 10
538.9078464298
 20
135.4625827687
 10
539.0081403122
 20
133.6377950395
 10
539.0683467884
 20
131.8337230453
 10
539.0884245958
 20
130.0516032069
 10
539.0884245958
 20
130.0516032069
  0
LWPOLYLINE
  5
141
330
1F
100
AcDbEntity
  8
0
  6
Continuous
 62
   252
370
     0
100
AcDbPolyline
 90
       32
 70
   128
 43
0.0
 10
548.8742460125
 20
133.9321260776
 10
548.853656612
 20
132.1271755202
 10
548.7918889908
 20
130.3472416081
 10
548.6889854812
 20
128.5935442192
 10
548.5450166083
 20
126.86728525
 10
548.3600810411
 20
125.1696477921
 10
548.1343055251
 20
123.5017953216
 10
547.8678447957
 20
121.8648709012
 10
547.5608814717
 20
120.259996397
 10
547.2136259305
 20
118.68827171
 10
546.8263161636
 20
117.1507740217
 10
546.3992176139
 20
115.6485570563
 10
545.9326229933
 20
114.1826503581
 10
545.4268520825
 20
112.7540585865
 10
544.8822515115
 20
111.3637608269
 10
544.2991945225
 20
110.0127099198
 10
543.6780807136
 20
108.7018318082
 10
543.0193357651
 20
107.4320249024
 10
542.3234111479
 20
106.2041594646
 10
541.590783814
 20
105.0190770124
 10
540.8219558696
 20
103.8775897422
 10
540.017454231
 20
102.7804799724
 10
539.1778302633
 20
101.7284996071
 10
538.3036594029
 20
100.7223696212
 10
537.3955407629
 20
99.7627795658
 10
536.4540967224
 20
98.8503870962
 10
535.4799725001
 20
97.9858175204
 10
534.4738357121
 20
97.1696633714
 10
533.4363759143
 20
96.4024840003
 10
532.3683041299
 20
95.6848051937
 10
531.2703523618
 20
95.0171188127
 10
530.6659545017
 20
94.6778752832
  0
LWPOLYLINE
  5
142
330
1F
100
AcDbEntity
  8
0
  6
Continuous
 62
   252
370
     0
100
AcDbPolyline
 90
       92
 70
   128
 43
0.0
 10
445.6821885369
 20
241.8922606068
 10
446.2699868626
 20
242.2412259554
 10
447.397066133
 20
242.8584623119
 10
448.5525004619
 20
243.4248256209
 10
449.7354979723
 20
243.9399277253
 10
450.9452478968
 20
244.4034155998
 10
452.1809211333
 20
244.8149715931
 10
453.441670813
 20
245.1743136451
 10
454.7266328811
 20
245.4811954809
 10
456.0349266887
 20
245.7354067789
 10
457.3656555967
 20
245.9367733153
 10
458.7179075899
 20
246.0851570837
 10
460.0907559024
 20
246.1804563891
 10
461.4832596524
 20
246.2226059183
 10
462.8944644875
 20
246.211576784
 10
464.3234032384
 20
246.1473765451
 10
465.7690965818
 20
246.0300492012
 10
467.2305537118
 20
245.8596751625
 10
468.7067730185
 20
245.636371195
 10
470.1967427751
 20
245.36029034
 10
471.6994418307
 20
245.0316218096
 10
473.2138403104
 20
244.6505908568
 10
474.7389003211
 20
244.217458621
 10
476.2735766629
 20
243.7325219496
 10
477.8168175454
 20
243.1961131939
 10
479.3675653082
 20
242.6085999817
 10
480.9247571463
 20
241.9703849652
 10
482.4873258382
 20
241.281905545
 10
484.0542004774
 20
240.5436335706
 10
485.6243072064
 20
239.7560750167
 10
487.1965699522
 20
238.9197696366
 10
488.7699111647
 20
238.0352905923
 10
490.3432525543
 20
237.1032440614
 10
491.9155158314
 20
236.1242688222
 10
493.4856234453
 20
235.0990358153
 10
495.0524993227
 20
234.0282476843
 10
496.6150696052
 20
232.9126382938
 10
498.172263385
 20
231.7529722268
 10
499.7230134394
 20
230.5500442606
 10
501.2662569618
 20
229.3046788217
 10
502.8009362901
 20
228.0177294215
 10
504.3259996317
 20
226.6900780709
 10
505.8404017845
 20
225.3226346757
 10
507.3431048529
 20
223.9163364134
 10
508.8330789592
 20
222.4721470905
 10
510.3093029495
 20
220.9910564823
 10
511.7707650938
 20
219.4740796542
 10
513.2164637789
 20
217.9222562664
 10
514.645408195
 20
216.3366498612
 10
516.0566190151
 20
214.718347134
 10
517.4491290658
 20
213.0684571886
 10
518.8219839902
 20
211.3881107772
 10
520.1742429022
 20
209.6784595253
 10
521.504979031
 20
207.9406751424
 10
522.8132803566
 20
206.1759486192
 10
524.0982502345
 20
204.385489411
 10
525.3590080107
 20
202.5705246093
 10
526.5946896247
 20
200.7322981001
 10
527.804448202
 20
198.8720697122
 10
528.9874546346
 20
196.991114353
 10
530.142898149
 20
195.0907211356
 10
531.2699868618
 20
193.1721924945
 10
532.3679483228
 20
191.2368432933
 10
533.436030044
 20
189.2859999237
 10
534.4735000156
 20
187.3209993964
 10
535.4796472075
 20
185.3431884245
 10
536.4537820566
 20
183.3539225009
 10
537.3952369396
 20
181.3545649691
 10
538.3033666303
 20
179.3464860889
 10
539.1775487421
 20
177.3310620972
 10
540.017184154
 20
175.309674265
 10
540.8216974221
 20
173.2837079505
 10
541.590537173
 20
171.2545516497
 10
542.3231764825
 20
169.2235960452
 10
543.019113236
 20
167.1922330524
 10
543.6778704734
 20
165.1618548661
 10
544.2989967153
 20
163.1338530059
 10
544.8820662729
 20
161.1096173632
 10
545.4266795393
 20
159.0905352479
 10
545.9324632639
 20
157.077990438
 10
546.3990708078
 20
155.0733622312
 10
546.8261823814
 20
153.0780244996
 10
547.2135052638
 20
151.0933447479
 10
547.5607740032
 20
149.1206831766
 10
547.8677505991
 20
147.1613917493
 10
548.1342246649
 20
145.2168132665
 10
548.3600135727
 20
143.2882804451
 10
548.5449625781
 20
141.3771150053
 10
548.6889449261
 20
139.4846267644
 10
548.7918619386
 20
137.6121127392
 10
548.8536430813
 20
135.7608562573
 10
548.8742460125
 20
133.9321260776
  0
LWPOLYLINE
  5
143
330
1F
100
AcDbEntity
  8
0
  6
Continuous
 62
   252
370
     0
100
AcDbPolyline
 90
      102
 70
   128
 43
0.0
 10
479.3539997419
 20
183.9391071559
 10
479.8242735368
 20
183.6605172165
 10
480.2942250817
 20
183.3679002239
 10
480.7635322951
 20
183.0614567234
 10
481.2318735373
 20
182.741396736
 10
481.6989278308
 20
182.4079396147
 10
482.1643750797
 20
182.0613138945
 10
482.6278962898
 20
181.7017571354
 10
483.0891737869
 20
181.3295157595
 10
483.5478914343
 20
180.9448448825
 10
484.0037348499
 20
180.5480081386
 10
484.4563916214
 20
180.1392774998
 10
484.9055515204
 20
179.7189330899
 10
485.3509067153
 20
179.2872629917
 10
485.7921519817
 20
178.8445630505
 10
486.2289849122
 20
178.3911366707
 10
486.6611061234
 20
177.927294608
 10
487.088219461
 20
177.4533547566
 10
487.5100322028
 20
176.9696419313
 10
487.9262552594
 20
176.4764876446
 10
488.3366033723
 20
175.9742298799
 10
488.7407953094
 20
175.4632128595
 10
489.1385540579
 20
174.943786809
 10
489.5296070136
 20
174.416307717
 10
489.9136861685
 20
173.8811370914
 10
490.2905282938
 20
173.3386417114
 10
490.6598751208
 20
172.7891933762
 10
491.0214735177
 20
172.2331686503
 10
491.3750756629
 20
171.6709486052
 10
491.7204392152
 20
171.1029185585
 10
492.0573274797
 20
170.5294678096
 10
492.38550957
 20
169.950989373
 10
492.7047605664
 20
169.3678797089
 10
493.0148616704
 20
168.7805384516
 10
493.315600354
 20
168.1893681353
 10
493.606770506
 20
167.5947739188
 10
493.888172573
 20
166.9971633072
 10
494.159613696
 20
166.3969458729
 10
494.4209078428
 20
165.7945329751
 10
494.6718759355
 20
165.1903374773
 10
494.912345973
 20
164.5847734651
 10
495.1421531493
 20
163.9782559617
 10
495.3611399659
 20
163.371200644
 10
495.5691563403
 20
162.7640235573
 10
495.7660597084
 20
162.1571408305
 10
495.9517151225
 20
161.5509683907
 10
496.1259953436
 20
160.9459216782
 10
496.2887809287
 20
160.3424153619
 10
496.4399603128
 20
159.7408630547
 10
496.5794298851
 20
159.1416770306
 10
496.7070940601
 20
158.5452679417
 10
496.8228653431
 20
157.9520445371
 10
496.9266643902
 20
157.3624133825
 10
497.0184200629
 20
156.7767785815
 10
497.0980694763
 20
156.1955414991
 10
497.1655580428
 20
155.619100486
 10
497.2208395089
 20
155.0478506063
 10
497.2638759876
 20
154.4821833659
 10
497.2946379838
 20
153.922486445
 10
497.3131044149
 20
153.3691434319
 10
497.3192626247
 20
152.8225335602
 10
497.3131083928
 20
152.283031449
 10
497.2946459369
 20
151.7510068462
 10
497.2638879104
 20
151.2268243749
 10
497.2208553933
 20
150.7108432834
 10
497.1655778778
 20
150.2034171996
 10
497.0980932485
 20
149.7048938878
 10
497.0184477558
 20
149.215615011
 10
496.926695985
 20
148.7359158966
 10
496.822900818
 20
148.2661253064
 10
496.7071333908
 20
147.8065652113
 10
496.5794730447
 20
147.3575505709
 10
496.4400072718
 20
146.9193891175
 10
496.2888316548
 20
146.4923811449
 10
496.126049802
 20
146.0768193031
 10
495.9517732759
 20
145.6729883975
 10
495.766121517
 20
145.2811651935
 10
495.5692217618
 20
144.9016182273
 10
495.3612089554
 20
144.5346076213
 10
495.1422256594
 20
144.1803849063
 10
494.9124219542
 20
143.8391928488
 10
494.6719553355
 20
143.5112652849
 10
494.4209906074
 20
143.1968269597
 10
494.1596997684
 20
142.8960933736
 10
493.8882618942
 20
142.6092706343
 10
493.6068630148
 20
142.3365553157
 10
493.3156959869
 20
142.0781343234
 10
493.014960362
 20
141.8341847662
 10
492.704862249
 20
141.6048738349
 10
492.3856141739
 20
141.3903586878
 10
492.0574349332
 20
141.1907863428
 10
491.7205494447
 20
141.006293577
 10
491.3751885929
 20
140.8370068323
 10
491.0215890707
 20
140.6830421295
 10
490.6599932177
 20
140.5445049883
 10
490.2906488536
 20
140.4214903551
 10
489.9138091085
 20
140.314082538
 10
489.5297322497
 20
140.222355149
 10
489.1386815042
 20
140.1463710534
 10
488.7409248786
 20
140.086182327
 10
488.3367349755
 20
140.04183022
 10
488.2398518478
 20
140.0336295583
  0
LWPOLYLINE
  5
144
330
1F
100
AcDbEntity
  8
0
  6
Continuous
 62
   252
370
     0
100
AcDbPolyline
 90
       42
 70
   128
 43
0.0
 10
463.7413737918
 20
182.4697530055
 10
463.795729492
 20
182.5478602306
 10
464.0361961106
 20
182.8757877945
 10
464.2871608388
 20
183.1902261196
 10
464.5484516778
 20
183.4909597058
 10
464.819889552
 20
183.7777824451
 10
465.1012884314
 20
184.0504977637
 10
465.3924554592
 20
184.308918756
 10
465.6931910842
 20
184.5528683132
 10
466.0032891971
 20
184.7821792445
 10
466.3225372723
 20
184.9966943916
 10
466.6507165129
 20
185.1962667365
 10
466.9876020014
 20
185.3807595024
 10
467.3329628533
 20
185.5500462471
 10
467.6865623754
 20
185.7040109499
 10
468.0481582285
 20
185.8425480911
 10
468.4175025926
 20
185.9655627243
 10
468.7943423376
 20
186.0729705414
 10
469.1784191965
 20
186.1646979304
 10
469.569469942
 20
186.240682026
 10
469.9672265676
 20
186.3008707524
 10
470.3714164707
 20
186.3452228594
 10
470.7817626398
 20
186.3737079501
 10
471.197983844
 20
186.3863065024
 10
471.6197948263
 20
186.3830098818
 10
472.0469064983
 20
186.3638203477
 10
472.4790261391
 20
186.3287510515
 10
472.9158575955
 20
186.2778260282
 10
473.3571014849
 20
186.211080179
 10
473.802455401
 20
186.1285592483
 10
474.2516141203
 20
186.0303197918
 10
474.704269812
 20
185.916429138
 10
475.1601122483
 20
185.7869653418
 10
475.6188290177
 20
185.6420171311
 10
476.0801057387
 20
185.4816838464
 10
476.5436262751
 20
185.3060753719
 10
477.0090729532
 20
185.115312061
 10
477.476126779
 20
184.9095246534
 10
477.9444676573
 20
184.6888541854
 10
478.4137746105
 20
184.4534518935
 10
478.8837259991
 20
184.2034791107
 10
479.3539997419
 20
183.9391071559
  0
ENDSEC
  0
SECTION
  2
OBJECTS
  0
DICTIONARY
  5
C
330
0
100
AcDbDictionary
281
     1
  3
ACAD_GROUP
350
D
  3
ACAD_LAYOUT
350
1A
  3
ACAD_MLINESTYLE
350
17
  3
ACAD_PLOTSETTINGS
350
19
  3
ACAD_PLOTSTYLENAME
350
E
  3
ACAD_SCALELIST
350
47
  0
DICTIONARY
  5
D
102
{ACAD_REACTORS
330
C
102
}
330
C
100
AcDbDictionary
281
     1
  0
DICTIONARY
  5
1A
102
{ACAD_REACTORS
330
C
102
}
330
C
100
AcDbDictionary
281
     1
  3
Layout1
350
1E
  3
Layout2
350
26
  3
Model
350
22
  0
DICTIONARY
  5
17
102
{ACAD_REACTORS
330
C
102
}
330
C
100
AcDbDictionary
281
     1
  3
Standard
350
18
  0
DICTIONARY
  5
19
102
{ACAD_REACTORS
330
C
102
}
330
C
100
AcDbDictionary
281
     1
  0
ACDBDICTIONARYWDFLT
  5
E
102
{ACAD_REACTORS
330
C
102
}
330
C
100
AcDbDictionary
281
     1
  3
Normal
350
F
100
AcDbDictionaryWithDefault
340
F
  0
DICTIONARY
  5
47
102
{ACAD_REACTORS
330
C
102
}
330
C
100
AcDbDictionary
281
     1
  3
A0
350
48
  3
A1
350
49
  3
A2
350
4A
  3
A3
350
4B
  3
A4
350
4C
  3
A5
350
4D
  3
A6
350
4E
  3
A7
350
4F
  3
A8
350
50
  3
A9
350
51
  3
B0
350
52
  3
B1
350
53
  3
B2
350
54
  3
B3
350
55
  3
B4
350
56
  3
B5
350
57
  3
B6
350
58
  3
B7
350
59
  3
B8
350
5A
  3
B9
350
5B
  3
C0
350
5C
  3
C1
350
5D
  3
C2
350
5E
  3
C3
350
5F
  3
C4
350
60
  3
C5
350
61
  3
C6
350
62
  3
C7
350
63
  3
C8
350
64
  3
C9
350
65
  3
D0
350
66
  3
D1
350
67
  3
D2
350
68
  0
LAYOUT
  5
1E
102
{ACAD_REACTORS
330
1A
102
}
330
1A
100
AcDbPlotSettings
  1

  2
none_device
  4

  6

 40
0.0
 41
0.0
 42
0.0
 43
0.0
 44
0.0
 45
0.0
 46
0.0
 47
0.0
 48
0.0
 49
0.0
140
0.0
141
0.0
142
1.0
143
1.0
 70
   688
 72
     1
 73
     0
 74
     5
  7

 75
    16
147
1.0
148
0.0
149
0.0
100
AcDbLayout
  1
Layout1
 70
     1
 71
     1
 10
0.0
 20
0.0
 11
420.0
 21
297.0
 12
0.0
 22
0.0
 32
0.0
 14
1.0000000000E+20
 24
1.0000000000E+20
 34
1.0000000000E+20
 15
-1.0000000000E+20
 25
-1.0000000000E+20
 35
-1.0000000000E+20
146
0.0
 13
0.0
 23
0.0
 33
0.0
 16
1.0
 26
0.0
 36
0.0
 17
0.0
 27
1.0
 37
0.0
 76
     0
330
1B
  0
LAYOUT
  5
26
102
{ACAD_REACTORS
330
1A
102
}
330
1A
100
AcDbPlotSettings
  1

  2
none_device
  4

  6

 40
0.0
 41
0.0
 42
0.0
 43
0.0
 44
0.0
 45
0.0
 46
0.0
 47
0.0
 48
0.0
 49
0.0
140
0.0
141
0.0
142
1.0
143
1.0
 70
   688
 72
     1
 73
     0
 74
     5
  7

 75
    16
147
1.0
148
0.0
149
0.0
100
AcDbLayout
  1
Layout2
 70
     1
 71
     2
 10
0.0
 20
0.0
 11
0.0
 21
0.0
 12
0.0
 22
0.0
 32
0.0
 14
0.0
 24
0.0
 34
0.0
 15
0.0
 25
0.0
 35
0.0
146
0.0
 13
0.0
 23
0.0
 33
0.0
 16
1.0
 26
0.0
 36
0.0
 17
0.0
 27
1.0
 37
0.0
 76
     0
330
23
  0
LAYOUT
  5
22
102
{ACAD_REACTORS
330
1A
102
}
330
1A
100
AcDbPlotSettings
  1

  2
none_device
  4
Letter_(8.50_x_11.00_Inches)
  6

 40
6.35
 41
6.35
 42
6.35000508
 43
6.35000508
 44
215.9
 45
279.4
 46
0.0
 47
0.0
 48
0.0
 49
0.0
140
0.0
141
0.0
142
1.0
143
1.0
 70
  1712
 72
     1
 73
     0
 74
     0
  7

 75
     0
147
1.0
148
0.0
149
0.0
100
AcDbLayout
  1
Model
 70
     1
 71
     0
 10
0.0
 20
0.0
 11
576.0
 21
509.0
 12
0.0
 22
0.0
 32
0.0
 14
0.0
 24
0.0
 34
0.0
 15
576.0
 25
509.0
 35
0.0
146
0.0
 13
0.0
 23
0.0
 33
0.0
 16
1.0
 26
0.0
 36
0.0
 17
0.0
 27
1.0
 37
0.0
 76
     0
330
1F
331
29
  0
MLINESTYLE
  5
18
102
{ACAD_REACTORS
330
17
102
}
330
17
100
AcDbMlineStyle
  2
Standard
 70
     0
  3

 62
   256
 51
90.0
 52
90.0
 71
     2
 49
0.5
 62
   256
  6
BYLAYER
 49
-0.5
 62
   256
  6
BYLAYER
  0
ACDBPLACEHOLDER
  5
F
102
{ACAD_REACTORS
330
E
102
}
330
E
  0
SCALE
  5
48
102
{ACAD_REACTORS
330
47
102
}
330
47
100
AcDbScale
 70
     0
300
1:1
140
1.0
141
1.0
290
     1
  0
SCALE
  5
49
102
{ACAD_REACTORS
330
47
102
}
330
47
100
AcDbScale
 70
     0
300
1:2
140
1.0
141
2.0
290
     0
  0
SCALE
  5
4A
102
{ACAD_REACTORS
330
47
102
}
330
47
100
AcDbScale
 70
     0
300
1:4
140
1.0
141
4.0
290
     0
  0
SCALE
  5
4B
102
{ACAD_REACTORS
330
47
102
}
330
47
100
AcDbScale
 70
     0
300
1:5
140
1.0
141
5.0
290
     0
  0
SCALE
  5
4C
102
{ACAD_REACTORS
330
47
102
}
330
47
100
AcDbScale
 70
     0
300
1:8
140
1.0
141
8.0
290
     0
  0
SCALE
  5
4D
102
{ACAD_REACTORS
330
47
102
}
330
47
100
AcDbScale
 70
     0
300
1:10
140
1.0
141
10.0
290
     0
  0
SCALE
  5
4E
102
{ACAD_REACTORS
330
47
102
}
330
47
100
AcDbScale
 70
     0
300
1:16
140
1.0
141
16.0
290
     0
  0
SCALE
  5
4F
102
{ACAD_REACTORS
330
47
102
}
330
47
100
AcDbScale
 70
     0
300
1:20
140
1.0
141
20.0
290
     0
  0
SCALE
  5
50
102
{ACAD_REACTORS
330
47
102
}
330
47
100
AcDbScale
 70
     0
300
1:30
140
1.0
141
30.0
290
     0
  0
SCALE
  5
51
102
{ACAD_REACTORS
330
47
102
}
330
47
100
AcDbScale
 70
     0
300
1:40
140
1.0
141
40.0
290
     0
  0
SCALE
  5
52
102
{ACAD_REACTORS
330
47
102
}
330
47
100
AcDbScale
 70
     0
300
1:50
140
1.0
141
50.0
290
     0
  0
SCALE
  5
53
102
{ACAD_REACTORS
330
47
102
}
330
47
100
AcDbScale
 70
     0
300
1:100
140
1.0
141
100.0
290
     0
  0
SCALE
  5
54
102
{ACAD_REACTORS
330
47
102
}
330
47
100
AcDbScale
 70
     0
300
2:1
140
2.0
141
1.0
290
     0
  0
SCALE
  5
55
102
{ACAD_REACTORS
330
47
102
}
330
47
100
AcDbScale
 70
     0
300
4:1
140
4.0
141
1.0
290
     0
  0
SCALE
  5
56
102
{ACAD_REACTORS
330
47
102
}
330
47
100
AcDbScale
 70
     0
300
8:1
140
8.0
141
1.0
290
     0
  0
SCALE
  5
57
102
{ACAD_REACTORS
330
47
102
}
330
47
100
AcDbScale
 70
     0
300
10:1
140
10.0
141
1.0
290
     0
  0
SCALE
  5
58
102
{ACAD_REACTORS
330
47
102
}
330
47
100
AcDbScale
 70
     0
300
100:1
140
100.0
141
1.0
290
     0
  0
SCALE
  5
59
102
{ACAD_REACTORS
330
47
102
}
330
47
100
AcDbScale
 70
     0
300
1/128" = 1'-0"
140
0.0078125
141
12.0
290
     0
  0
SCALE
  5
5A
102
{ACAD_REACTORS
330
47
102
}
330
47
100
AcDbScale
 70
     0
300
1/64" = 1'-0"
140
0.015625
141
12.0
290
     0
  0
SCALE
  5
5B
102
{ACAD_REACTORS
330
47
102
}
330
47
100
AcDbScale
 70
     0
300
1/32" = 1'-0"
140
0.03125
141
12.0
290
     0
  0
SCALE
  5
5C
102
{ACAD_REACTORS
330
47
102
}
330
47
100
AcDbScale
 70
     0
300
1/16" = 1'-0"
140
0.0625
141
12.0
290
     0
  0
SCALE
  5
5D
102
{ACAD_REACTORS
330
47
102
}
330
47
100
AcDbScale
 70
     0
300
3/32" = 1'-0"
140
0.09375
141
12.0
290
     0
  0
SCALE
  5
5E
102
{ACAD_REACTORS
330
47
102
}
330
47
100
AcDbScale
 70
     0
300
1/8" = 1'-0"
140
0.125
141
12.0
290
     0
  0
SCALE
  5
5F
102
{ACAD_REACTORS
330
47
102
}
330
47
100
AcDbScale
 70
     0
300
3/16" = 1'-0"
140
0.1875
141
12.0
290
     0
  0
SCALE
  5
60
102
{ACAD_REACTORS
330
47
102
}
330
47
100
AcDbScale
 70
     0
300
1/4" = 1'-0"
140
0.25
141
12.0
290
     0
  0
SCALE
  5
61
102
{ACAD_REACTORS
330
47
102
}
330
47
100
AcDbScale
 70
     0
300
3/8" = 1'-0"
140
0.375
141
12.0
290
     0
  0
SCALE
  5
62
102
{ACAD_REACTORS
330
47
102
}
330
47
100
AcDbScale
 70
     0
300
1/2" = 1'-0"
140
0.5
141
12.0
290
     0
  0
SCALE
  5
63
102
{ACAD_REACTORS
330
47
102
}
330
47
100
AcDbScale
 70
     0
300
3/4" = 1'-0"
140
0.75
141
12.0
290
     0
  0
SCALE
  5
64
102
{ACAD_REACTORS
330
47
102
}
330
47
100
AcDbScale
 70
     0
300
1" = 1'-0"
140
1.0
141
12.0
290
     0
  0
SCALE
  5
65
102
{ACAD_REACTORS
330
47
102
}
330
47
100
AcDbScale
 70
     0
300
1-1/2" = 1'-0"
140
1.5
141
12.0
290
     0
  0
SCALE
  5
66
102
{ACAD_REACTORS
330
47
102
}
330
47
100
AcDbScale
 70
     0
300
3" = 1'-0"
140
3.0
141
12.0
290
     0
  0
SCALE
  5
67
102
{ACAD_REACTORS
330
47
102
}
330
47
100
AcDbScale
 70
     0
300
6" = 1'-0"
140
6.0
141
12.0
290
     0
  0
SCALE
  5
68
102
{ACAD_REACTORS
330
47
102
}
330
47
100
AcDbScale
 70
     0
300
1'-0" = 1'-0"
140
12.0
141
12.0
290
     0
  0
ENDSEC
  0
EOF
