  0
SECTION
  2
HEADER
  9
$ACADVER
  1
AC1015
  9
$ACADMAINTVER
 70
     6
  9
$DWGCODEPAGE
  3
ANSI_1252
  9
$INSBASE
 10
0.0
 20
0.0
 30
0.0
  9
$EXTMIN
 10
0.0
 20
0.0
 30
0.0
  9
$EXTMAX
 10
540.0
 20
501.0
 30
0.0
  9
$LIMMIN
 10
0.0
 20
0.0
  9
$LIMMAX
 10
540.0
 20
501.0
  9
$ORTHOMODE
 70
     0
  9
$REGENMODE
 70
     1
  9
$FILLMODE
 70
     1
  9
$QTEXTMODE
 70
     0
  9
$MIRRTEXT
 70
     1
  9
$LTSCALE
 40
1.0
  9
$ATTMODE
 70
     1
  9
$TEXTSIZE
 40
3.5
  9
$TRACEWID
 40
1.0
  9
$TEXTSTYLE
  7
Standard
  9
$CLAYER
  8
0
  9
$CELTYPE
  6
ByLayer
  9
$CECOLOR
 62
   256
  9
$CELTSCALE
 40
1.0
  9
$DISPSILH
 70
     0
  9
$DIMSCALE
 40
1.0
  9
$DIMASZ
 40
3.302
  9
$DIMEXO
 40
1.0
  9
$DIMDLI
 40
3.75
  9
$DIMRND
 40
0.0
  9
$DIMDLE
 40
0.0
  9
$DIMEXE
 40
1.0
  9
$DIMTP
 40
0.0
  9
$DIMTM
 40
0.0
  9
$DIMTXT
 40
2.8
  9
$DIMCEN
 40
2.5
  9
$DIMTSZ
 40
0.0
  9
$DIMTOL
 70
     0
  9
$DIMLIM
 70
     0
  9
$DIMTIH
 70
     1
  9
$DIMTOH
 70
     1
  9
$DIMSE1
 70
     0
  9
$DIMSE2
 70
     0
  9
$DIMTAD
 70
     1
  9
$DIMZIN
 70
     0
  9
$DIMBLK
  1

  9
$DIMASO
 70
     1
  9
$DIMSHO
 70
     1
  9
$DIMPOST
  1

  9
$DIMAPOST
  1

  9
$DIMALT
 70
     0
  9
$DIMALTD
 70
     3
  9
$DIMALTF
 40
0.0393700787
  9
$DIMLFAC
 40
1.0
  9
$DIMTOFL
 70
     1
  9
$DIMTVP
 40
0.0
  9
$DIMTIX
 70
     0
  9
$DIMSOXD
 70
     0
  9
$DIMSAH
 70
     0
  9
$DIMBLK1
  1

  9
$DIMBLK2
  1

  9
$DIMSTYLE
  2
ISO-25
  9
$DIMCLRD
 70
     0
  9
$DIMCLRE
 70
     0
  9
$DIMCLRT
 70
     0
  9
$DIMTFAC
 40
1.0
  9
$DIMGAP
 40
1.524
  9
$DIMJUST
 70
     0
  9
$DIMSD1
 70
     0
  9
$DIMSD2
 70
     0
  9
$DIMTOLJ
 70
     0
  9
$DIMTZIN
 70
     0
  9
$DIMALTZ
 70
     0
  9
$DIMALTTZ
 70
     0
  9
$DIMUPT
 70
     0
  9
$DIMDEC
 70
     2
  9
$DIMTDEC
 70
     2
  9
$DIMALTU
 70
     2
  9
$DIMALTTD
 70
     3
  9
$DIMTXSTY
  7
Standard
  9
$DIMAUNIT
 70
     0
  9
$DIMADEC
 70
     2
  9
$DIMALTRND
 40
0.0
  9
$DIMAZIN
 70
     0
  9
$DIMDSEP
 70
    44
  9
$DIMATFIT
 70
     3
  9
$DIMFRAC
 70
     0
  9
$DIMLDRBLK
  1

  9
$DIMLUNIT
 70
     2
  9
$DIMLWD
 70
    -2
  9
$DIMLWE
 70
    -2
  9
$DIMTMOVE
 70
     0
  9
$LUNITS
 70
     2
  9
$LUPREC
 70
     2
  9
$SKETCHINC
 40
1.0
  9
$FILLETRAD
 40
10.0
  9
$AUNITS
 70
     0
  9
$AUPREC
 70
     2
  9
$MENU
  1
.
  9
$ELEVATION
 40
0.0
  9
$PELEVATION
 40
0.0
  9
$THICKNESS
 40
0.0
  9
$LIMCHECK
 70
     0
  9
$CHAMFERA
 40
0.0
  9
$CHAMFERB
 40
0.0
  9
$CHAMFERC
 40
0.0
  9
$CHAMFERD
 40
0.0
  9
$SKPOLY
 70
     0
  9
$TDCREATE
 40
2457619.695938576
  9
$TDUCREATE
 40
2457619.570938576
  9
$TDUPDATE
 40
2457619.695939051
  9
$TDUUPDATE
 40
2457619.570939051
  9
$TDINDWG
 40
0.0000000116
  9
$TDUSRTIMER
 40
0.0000000116
  9
$USRTIMER
 70
     1
  9
$ANGBASE
 50
0.0
  9
$ANGDIR
 70
     0
  9
$PDMODE
 70
     0
  9
$PDSIZE
 40
-1.0
  9
$PLINEWID
 40
0.0
  9
$SPLFRAME
 70
     0
  9
$SPLINETYPE
 70
     6
  9
$SPLINESEGS
 70
     8
  9
$HANDSEED
  5
10F
  9
$SURFTAB1
 70
     6
  9
$SURFTAB2
 70
     6
  9
$SURFTYPE
 70
     6
  9
$SURFU
 70
     6
  9
$SURFV
 70
     6
  9
$UCSBASE
  2

  9
$UCSNAME
  2

  9
$UCSORG
 10
0.0
 20
0.0
 30
0.0
  9
$UCSXDIR
 10
1.0
 20
0.0
 30
0.0
  9
$UCSYDIR
 10
0.0
 20
1.0
 30
0.0
  9
$UCSORTHOREF
  2

  9
$UCSORTHOVIEW
 70
     0
  9
$UCSORGTOP
 10
0.0
 20
0.0
 30
0.0
  9
$UCSORGBOTTOM
 10
0.0
 20
0.0
 30
0.0
  9
$UCSORGLEFT
 10
0.0
 20
0.0
 30
0.0
  9
$UCSORGRIGHT
 10
0.0
 20
0.0
 30
0.0
  9
$UCSORGFRONT
 10
0.0
 20
0.0
 30
0.0
  9
$UCSORGBACK
 10
0.0
 20
0.0
 30
0.0
  9
$PUCSBASE
  2

  9
$PUCSNAME
  2

  9
$PUCSORG
 10
0.0
 20
0.0
 30
0.0
  9
$PUCSXDIR
 10
1.0
 20
0.0
 30
0.0
  9
$PUCSYDIR
 10
0.0
 20
1.0
 30
0.0
  9
$PUCSORTHOREF
  2

  9
$PUCSORTHOVIEW
 70
     0
  9
$PUCSORGTOP
 10
0.0
 20
0.0
 30
0.0
  9
$PUCSORGBOTTOM
 10
0.0
 20
0.0
 30
0.0
  9
$PUCSORGLEFT
 10
0.0
 20
0.0
 30
0.0
  9
$PUCSORGRIGHT
 10
0.0
 20
0.0
 30
0.0
  9
$PUCSORGFRONT
 10
0.0
 20
0.0
 30
0.0
  9
$PUCSORGBACK
 10
0.0
 20
0.0
 30
0.0
  9
$USERI1
 70
     0
  9
$USERI2
 70
     0
  9
$USERI3
 70
     0
  9
$USERI4
 70
     0
  9
$USERI5
 70
     0
  9
$USERR1
 40
0.0
  9
$USERR2
 40
0.0
  9
$USERR3
 40
0.0
  9
$USERR4
 40
0.0
  9
$USERR5
 40
0.0
  9
$WORLDVIEW
 70
     1
  9
$SHADEDGE
 70
     3
  9
$SHADEDIF
 70
    70
  9
$TILEMODE
 70
     1
  9
$MAXACTVP
 70
    64
  9
$PINSBASE
 10
0.0
 20
0.0
 30
0.0
  9
$PLIMCHECK
 70
     0
  9
$PEXTMIN
 10
1.0000000000E+20
 20
1.0000000000E+20
 30
1.0000000000E+20
  9
$PEXTMAX
 10
-1.0000000000E+20
 20
-1.0000000000E+20
 30
-1.0000000000E+20
  9
$PLIMMIN
 10
0.0
 20
0.0
  9
$PLIMMAX
 10
420.0
 20
297.0
  9
$UNITMODE
 70
     0
  9
$VISRETAIN
 70
     1
  9
$PLINEGEN
 70
     0
  9
$PSLTSCALE
 70
     1
  9
$TREEDEPTH
 70
  3020
  9
$CMLSTYLE
  2
Standard
  9
$CMLJUST
 70
     0
  9
$CMLSCALE
 40
20.0
  9
$PROXYGRAPHICS
 70
     1
  9
$MEASUREMENT
 70
     1
  9
$CELWEIGHT
370
    -1
  9
$ENDCAPS
280
     0
  9
$JOINSTYLE
280
     0
  9
$LWDISPLAY
290
     1
  9
$INSUNITS
 70
     4
  9
$HYPERLINKBASE
  1

  9
$STYLESHEET
  1

  9
$XEDIT
290
     1
  9
$CEPSNTYPE
380
     0
  9
$PSTYLEMODE
290
     1
  9
$FINGERPRINTGUID
  2
{CB62A28C-5E05-4F93-A864-46F1F5091729}
  9
$VERSIONGUID
  2
{FAEB1C32-E019-11D5-929B-00C0DF256EC4}
  9
$EXTNAMES
290
     1
  9
$PSVPSCALE
 40
0.0
  9
$OLESTARTUP
290
     0
  0
ENDSEC
  0
SECTION
  2
CLASSES
  0
CLASS
  1
ACDBDICTIONARYWDFLT
  2
AcDbDictionaryWithDefault
  3
ObjectDBX Classes
 90
        0
280
     0
281
     0
  0
CLASS
  1
VISUALSTYLE
  2
AcDbVisualStyle
  3
ObjectDBX Classes
 90
     4095
280
     0
281
     0
  0
CLASS
  1
MATERIAL
  2
AcDbMaterial
  3
ObjectDBX Classes
 90
     1153
280
     0
281
     0
  0
CLASS
  1
SCALE
  2
AcDbScale
  3
ObjectDBX Classes
 90
     1153
280
     0
281
     0
  0
CLASS
  1
TABLESTYLE
  2
AcDbTableStyle
  3
ObjectDBX Classes
 90
     4095
280
     0
281
     0
  0
CLASS
  1
MLEADERSTYLE
  2
AcDbMLeaderStyle
  3
ACDB_MLEADERSTYLE_CLASS
 90
     4095
280
     0
281
     0
  0
CLASS
  1
SUN
  2
AcDbSun
  3
SCENEOE
 90
     1153
280
     0
281
     0
  0
CLASS
  1
ACDBPLACEHOLDER
  2
AcDbPlaceHolder
  3
ObjectDBX Classes
 90
        0
280
     0
281
     0
  0
CLASS
  1
LAYOUT
  2
AcDbLayout
  3
ObjectDBX Classes
 90
        0
280
     0
281
     0
  0
ENDSEC
  0
SECTION
  2
TABLES
  0
TABLE
  2
VPORT
  5
8
330
0
100
AcDbSymbolTable
 70
     1
  0
VPORT
  5
29
330
8
100
AcDbSymbolTableRecord
100
AcDbViewportTableRecord
  2
*Active
 70
     0
 10
0.0
 20
0.0
 11
1.0
 21
1.0
 12
270.0
 22
250.5
 13
0.0
 23
0.0
 14
10.0
 24
10.0
 15
10.0
 25
10.0
 16
0.0
 26
0.0
 36
1.0
 17
0.0
 27
0.0
 37
0.0
 40
501.0
 41
1.0778443114
 42
50.0
 43
0.0
 44
0.0
 50
0.0
 51
0.0
 71
     0
 72
  2000
 73
     1
 74
     3
 75
     0
 76
     0
 77
     0
 78
     0
281
     0
 65
     1
110
0.0
120
0.0
130
0.0
111
1.0
121
0.0
131
0.0
112
0.0
122
1.0
132
0.0
 79
     0
146
0.0
  0
ENDTAB
  0
TABLE
  2
LTYPE
  5
5
330
0
100
AcDbSymbolTable
 70
     6
  0
LTYPE
  5
14
330
5
100
AcDbSymbolTableRecord
100
AcDbLinetypeTableRecord
  2
ByBlock
 70
     0
  3

 72
    65
 73
     0
 40
0.0
  0
LTYPE
  5
15
330
5
100
AcDbSymbolTableRecord
100
AcDbLinetypeTableRecord
  2
ByLayer
 70
     0
  3

 72
    65
 73
     0
 40
0.0
  0
LTYPE
  5
16
330
5
100
AcDbSymbolTableRecord
100
AcDbLinetypeTableRecord
  2
Continuous
 70
     0
  3
Solid line
 72
    65
 73
     0
 40
0.0
  0
LTYPE
  5
6E
330
5
100
AcDbSymbolTableRecord
100
AcDbLinetypeTableRecord
  2
HIDDEN
 70
     0
  3
Hidden __ __ __ __ __ __ __ __ __ __ __ __ __ __
 72
    65
 73
     2
 40
1.905
 49
1.27
 74
     0
 49
-0.635
 74
     0
  0
LTYPE
  5
6F
330
5
100
AcDbSymbolTableRecord
100
AcDbLinetypeTableRecord
  2
PHANTOM
 70
     0
  3
Phantom ______  __  __  ______  __  __  ______
 72
    65
 73
     6
 40
12.7
 49
6.35
 74
     0
 49
-1.27
 74
     0
 49
1.27
 74
     0
 49
-1.27
 74
     0
 49
1.27
 74
     0
 49
-1.27
 74
     0
  0
LTYPE
  5
70
330
5
100
AcDbSymbolTableRecord
100
AcDbLinetypeTableRecord
  2
CENTER
 70
     0
  3
Center ____ _ ____ _ ____ _ ____ _ ____ _ ____
 72
    65
 73
     4
 40
10.16
 49
6.35
 74
     0
 49
-1.27
 74
     0
 49
1.27
 74
     0
 49
-1.27
 74
     0
  0
LTYPE
  5
71
330
5
100
AcDbSymbolTableRecord
100
AcDbLinetypeTableRecord
  2
CENTERX2
 70
     0
  3
Center (2x) ________  __  ________  __  _____
 72
    65
 73
     4
 40
20.32
 49
12.7
 74
     0
 49
-2.54
 74
     0
 49
2.54
 74
     0
 49
-2.54
 74
     0
  0
LTYPE
  5
72
330
5
100
AcDbSymbolTableRecord
100
AcDbLinetypeTableRecord
  2
DOT2
 70
     0
  3
Dot (.5x) ........................................
 72
    65
 73
     2
 40
0.635
 49
0.0
 74
     0
 49
-0.635
 74
     0
  0
ENDTAB
  0
TABLE
  2
LAYER
  5
2
330
0
100
AcDbSymbolTable
 70
     2
  0
LAYER
  5
10
330
2
100
AcDbSymbolTableRecord
100
AcDbLayerTableRecord
  2
0
 70
     0
 62
     7
  6
Continuous
370
    -3
390
F
  0
LAYER
  5
73
330
2
100
AcDbSymbolTableRecord
100
AcDbLayerTableRecord
  2
FORMAT
 70
     0
 62
     7
  6
Continuous
370
    -3
390
F
  0
ENDTAB
  0
TABLE
  2
STYLE
  5
3
330
0
100
AcDbSymbolTable
 70
     2
  0
STYLE
  5
11
330
3
100
AcDbSymbolTableRecord
100
AcDbTextStyleTableRecord
  2
Standard
 70
     0
 40
0.0
 41
1.0
 50
0.0
 71
     0
 42
3.5
  3
txt
  4

  0
STYLE
  5
74
330
3
100
AcDbSymbolTableRecord
100
AcDbTextStyleTableRecord
  2
SLDTEXTSTYLE0
 70
     0
 40
0.0
 41
0.605
 50
0.0
 71
     0
 42
3.5
  3
TXT
  4

  0
ENDTAB
  0
TABLE
  2
VIEW
  5
6
330
0
100
AcDbSymbolTable
 70
     0
  0
ENDTAB
  0
TABLE
  2
UCS
  5
7
330
0
100
AcDbSymbolTable
 70
     0
  0
ENDTAB
  0
TABLE
  2
APPID
  5
9
330
0
100
AcDbSymbolTable
 70
     1
  0
APPID
  5
12
330
9
100
AcDbSymbolTableRecord
100
AcDbRegAppTableRecord
  2
ACAD
 70
     0
  0
ENDTAB
  0
TABLE
  2
DIMSTYLE
  5
A
330
0
100
AcDbSymbolTable
 70
     1
100
AcDbDimStyleTable
  0
DIMSTYLE
105
27
330
A
100
AcDbSymbolTableRecord
100
AcDbDimStyleTableRecord
  2
ISO-25
 70
     0
 41
2.5
 42
0.625
 43
3.75
 44
1.25
 73
     0
 74
     0
 77
     1
 78
     8
140
2.5
141
2.5
143
0.0393700787
147
0.625
171
     3
172
     1
178
     0
271
     2
272
     2
274
     3
278
    44
283
     0
284
     8
340
11
  0
ENDTAB
  0
TABLE
  2
BLOCK_RECORD
  5
1
330
0
100
AcDbSymbolTable
 70
     1
  0
BLOCK_RECORD
  5
1F
330
1
100
AcDbSymbolTableRecord
100
AcDbBlockTableRecord
  2
*Model_Space
340
22
  0
BLOCK_RECORD
  5
1B
330
1
100
AcDbSymbolTableRecord
100
AcDbBlockTableRecord
  2
*Paper_Space
340
1E
  0
BLOCK_RECORD
  5
23
330
1
100
AcDbSymbolTableRecord
100
AcDbBlockTableRecord
  2
*Paper_Space0
340
26
  0
ENDTAB
  0
ENDSEC
  0
SECTION
  2
BLOCKS
  0
BLOCK
  5
20
330
1F
100
AcDbEntity
  8
0
100
AcDbBlockBegin
  2
*Model_Space
 70
     0
 10
0.0
 20
0.0
 30
0.0
  3
*Model_Space
  1

  0
ENDBLK
  5
21
330
1F
100
AcDbEntity
  8
0
100
AcDbBlockEnd
  0
BLOCK
  5
1C
330
1B
100
AcDbEntity
 67
     1
  8
0
100
AcDbBlockBegin
  2
*Paper_Space
 70
     0
 10
0.0
 20
0.0
 30
0.0
  3
*Paper_Space
  1

  0
ENDBLK
  5
1D
330
1B
100
AcDbEntity
 67
     1
  8
0
100
AcDbBlockEnd
  0
BLOCK
  5
24
330
23
100
AcDbEntity
  8
0
100
AcDbBlockBegin
  2
*Paper_Space0
 70
     0
 10
0.0
 20
0.0
 30
0.0
  3
*Paper_Space0
  1

  0
ENDBLK
  5
25
330
23
100
AcDbEntity
  8
0
100
AcDbBlockEnd
  0
ENDSEC
  0
SECTION
  2
ENTITIES
  0
MTEXT
  5
75
330
1F
100
AcDbEntity
  8
0
  6
Continuous
 62
     7
370
     0
100
AcDbMText
 10
7.2782978723
 20
22.1884790273
 30
0.0
 40
10.0
 41
0.0
 71
     1
 72
     1
  1
1:1
  7
SLDTEXTSTYLE0
 73
     1
 44
1.0
  0
CIRCLE
  5
76
330
1F
100
AcDbEntity
  8
0
  6
Continuous
 62
     7
370
    30
100
AcDbCircle
 10
270.0
 20
389.0
 30
0.0
 40
85.00017133749998
  0
CIRCLE
  5
77
330
1F
100
AcDbEntity
  8
0
  6
Continuous
 62
     7
370
    30
100
AcDbCircle
 10
270.0
 20
389.0000001423
 30
0.0
 40
23.0267856447
  0
SPLINE
  5
78
330
1F
100
AcDbEntity
  8
0
  6
Continuous
 62
     7
370
    30
100
AcDbSpline
210
0.0
220
0.0
230
1.0
 70
     8
 71
     3
 72
    45
 73
    41
 74
     0
 42
0.000000001
 43
0.00000001
 40
0.0
 40
0.0
 40
0.0
 40
0.0
 40
0.0259438367548075
 40
0.0519090951647117
 40
0.0778739239273122
 40
0.1038171743138984
 40
0.1304932696955959
 40
0.1571936829269459
 40
0.1838936370836066
 40
0.2105691058817225
 40
0.2365215267233526
 40
0.2624971888581052
 40
0.2884725209173288
 40
0.3144244912518335
 40
0.3411685571016175
 40
0.3679387288609433
 40
0.3947086868126358
 40
0.4214524608215301
 40
0.4467702169820061
 40
0.4721103591208547
 40
0.4974504886241116
 40
0.5227682275389988
 40
0.5488369755730821
 40
0.574930030928151
 40
0.6010232516032716
 40
0.6270922252837315
 40
0.6521715068548791
 40
0.6772719867860021
 40
0.7023727347586601
 40
0.7274523821492264
 40
0.7532322541758149
 40
0.7790344189394899
 40
0.8048369718395136
 40
0.8306173735991667
 40
0.8588008370237422
 40
0.8870387020754937
 40
0.9153052796495742
 40
0.9435732613824859
 40
0.971814369989885
 40
1.0
 40
1.0
 40
1.0
 40
1.0
 10
279.0
 20
384.3000001422743
 30
0.0
 10
278.9993733084524
 20
384.2463447070902
 30
0.0
 10
278.9981194079021
 20
384.1389895337826
 30
0.0
 10
278.9879934755643
 20
383.9778374093292
 30
0.0
 10
278.9718314613129
 20
383.8169477658205
 30
0.0
 10
278.9488119746866
 20
383.6550972556885
 30
0.0
 10
278.9188253767253
 20
383.4925453308207
 30
0.0
 10
278.8816676036403
 20
383.3295689992494
 30
0.0
 10
278.8376865906125
 20
383.1680168482233
 30
0.0
 10
278.7873836637127
 20
383.0096850535991
 30
0.0
 10
278.7309692380385
 20
382.8547845690572
 30
0.0
 10
278.6687579233916
 20
382.7034690835763
 30
0.0
 10
278.6003486386204
 20
382.5546313662794
 30
0.0
 10
278.5250924262818
 20
382.4071106658911
 30
0.0
 10
278.4428123797253
 20
382.2612658483187
 30
0.0
 10
278.353460894376
 20
382.1174371303402
 30
0.0
 10
278.2580607834116
 20
381.9774021113697
 30
0.0
 10
278.1586005449236
 20
381.8439096116004
 30
0.0
 10
278.0555507719016
 20
381.7169642168832
 30
0.0
 10
277.9494366645889
 20
381.5964491328247
 30
0.0
 10
277.8385852201254
 20
381.4802659051826
 30
0.0
 10
277.7220740245646
 20
381.3675581725903
 30
0.0
 10
277.5998837961268
 20
381.2586900298753
 30
0.0
 10
277.4720985582969
 20
381.1539603605957
 30
0.0
 10
277.3401948213618
 20
381.0546295610815
 30
0.0
 10
277.2061716910642
 20
380.9620990657934
 30
0.0
 10
277.0703872677386
 20
380.8762953076412
 30
0.0
 10
276.9332175436023
 20
380.7970274226155
 30
0.0
 10
276.7931835952429
 20
380.7233096472237
 30
0.0
 10
276.6492353666633
 20
380.6546440437282
 30
0.0
 10
276.5014813233518
 20
380.5913351400343
 30
0.0
 10
276.350091069924
 20
380.5335991564199
 30
0.0
 10
276.1967289955718
 20
380.4820925925517
 30
0.0
 10
276.0368930789721
 20
380.435486475933
 30
0.0
 10
275.8705579233857
 20
380.3945995250443
 30
0.0
 10
275.6978249112905
 20
380.3601651167668
 30
0.0
 10
275.5239053468081
 20
380.3332986912482
 30
0.0
 10
275.3493147560953
 20
380.3142159493261
 30
0.0
 10
275.1745306198495
 20
380.3022332692692
 30
0.0
 10
275.0581387279031
 20
380.3007440298639
 30
0.0
 10
275.0000000000065
 20
380.3000001422691
 30
0.0
  0
LINE
  5
79
330
1F
100
AcDbEntity
  8
0
  6
Continuous
 62
     7
370
    30
100
AcDbLine
 10
279.0
 20
384.3000001423
 30
0.0
 11
279.0
 21
402.2664993037
 31
0.0
  0
SPLINE
  5
7A
330
1F
100
AcDbEntity
  8
0
  6
Continuous
 62
     7
370
    30
100
AcDbSpline
210
0.0
220
0.0
230
1.0
 70
     8
 71
     3
 72
    54
 73
    50
 74
     0
 42
0.000000001
 43
0.00000001
 40
0.0
 40
0.0
 40
0.0
 40
0.0
 40
0.0161724096901012
 40
0.0323448334719041
 40
0.0505139118384281
 40
0.0686899405830623
 40
0.0868592930996533
 40
0.1054115349195966
 40
0.1239707633876835
 40
0.1425235024843811
 40
0.1594034583868869
 40
0.1762835285967699
 40
0.1979020546985306
 40
0.2195208990957879
 40
0.2413983388394053
 40
0.2632917115565115
 40
0.285186784040463
 40
0.3070665433031039
 40
0.3291974799318796
 40
0.3513286876174083
 40
0.3716527112253936
 40
0.3919815452591341
 40
0.4123061265132807
 40
0.4328383090071681
 40
0.4533747293676724
 40
0.4739073627137972
 40
0.4947282235348144
 40
0.5155529151216932
 40
0.5363741367645781
 40
0.5573827765826939
 40
0.5783948893567339
 40
0.5994038066734947
 40
0.6194443826079991
 40
0.6394850092161946
 40
0.6618154406920455
 40
0.6841494235167174
 40
0.7064800608531777
 40
0.7305920699923281
 40
0.7547082277369613
 40
0.7788204219195746
 40
0.8031325954842048
 40
0.8274487901661391
 40
0.8517610751735307
 40
0.8763653472959588
 40
0.9009736490152729
 40
0.9255779697822246
 40
0.9503839583515925
 40
0.9751940214913406
 40
1.0
 40
1.0
 40
1.0
 40
1.0
 10
273.7037037037027
 20
408.6540729739835
 30
0.0
 10
273.7575210397587
 20
408.6435226480411
 30
0.0
 10
273.8651557587641
 20
408.6224219869636
 30
0.0
 10
274.0320308091969
 20
408.5841205016799
 30
0.0
 10
274.2042512983882
 20
408.5400129051787
 30
0.0
 10
274.3812750123988
 20
408.4891941124672
 30
0.0
 10
274.5575589278682
 20
408.4331806929131
 30
0.0
 10
274.7327919144645
 20
408.3719187306972
 30
0.0
 10
274.9067004358997
 20
408.3054736788406
 30
0.0
 10
275.0727145355356
 20
408.2365541953238
 30
0.0
 10
275.2309088239581
 20
408.1657745435998
 30
0.0
 10
275.3955655540327
 20
408.0869631382106
 30
0.0
 10
275.5706774523646
 20
407.9967555518276
 30
0.0
 10
275.7557157227033
 20
407.8936887041842
 30
0.0
 10
275.9366630908914
 20
407.7850193022903
 30
0.0
 10
276.1133213196281
 20
407.6709656625989
 30
0.0
 10
276.2848315787132
 20
407.5522625192413
 30
0.0
 10
276.4516902345823
 20
407.4287161373981
 30
0.0
 10
276.6137466629889
 20
407.3005117664216
 30
0.0
 10
276.7666678172199
 20
407.1714389703986
 30
0.0
 10
276.9103224791082
 20
407.0425496366132
 30
0.0
 10
277.0451936525702
 20
406.9143641766928
 30
0.0
 10
277.1758582736295
 20
406.782888150674
 30
0.0
 10
277.3022611991406
 20
406.648238436724
 30
0.0
 10
277.4243639862828
 20
406.5105349129315
 30
0.0
 10
277.5423043069702
 20
406.3697174115941
 30
0.0
 10
277.6560205197698
 20
406.2258781473753
 30
0.0
 10
277.7654604619727
 20
406.0791125894711
 30
0.0
 10
277.8704344524958
 20
405.9297649817709
 30
0.0
 10
277.9709139216517
 20
405.7779302265052
 30
0.0
 10
278.0668757208254
 20
405.6237046108612
 30
0.0
 10
278.1566438546902
 20
405.470048094485
 30
0.0
 10
278.2404885584902
 20
405.3171649272044
 30
0.0
 10
278.3216618069585
 20
405.1594393001497
 30
0.0
 10
278.4009218777955
 20
404.9943279238824
 30
0.0
 10
278.4776672173632
 20
404.8217546571033
 30
0.0
 10
278.5510139691478
 20
404.6430430773756
 30
0.0
 10
278.6204764703245
 20
404.4581599404855
 30
0.0
 10
278.6855565190004
 20
404.2671032939763
 30
0.0
 10
278.7446805749897
 20
404.0741355429436
 30
0.0
 10
278.7977991263689
 20
403.8793668212148
 30
0.0
 10
278.8448667583255
 20
403.6829139345828
 30
0.0
 10
278.8859076220315
 20
403.4846466703341
 30
0.0
 10
278.9208374295047
 20
403.2846738541178
 30
0.0
 10
278.9495627031222
 20
403.0831140131971
 30
0.0
 10
278.9720461117608
 20
402.8803382580846
 30
0.0
 10
278.988059585582
 20
402.676465001212
 30
0.0
 10
278.9981292692709
 20
402.4716381221807
 30
0.0
 10
278.9993764573152
 20
402.3348751568651
 30
0.0
 10
279.0
 20
402.2664993036996
 30
0.0
  0
ARC
  5
7B
330
1F
100
AcDbEntity
  8
0
  6
Continuous
 62
     7
370
    30
100
AcDbCircle
 10
270.0
 20
389.0000001423
 30
0.0
 40
19.99999999998218
100
AcDbArc
 50
79.3280707142
 51
100.6719292858
  0
SPLINE
  5
7C
330
1F
100
AcDbEntity
  8
0
  6
Continuous
 62
     7
370
    30
100
AcDbSpline
210
0.0
220
0.0
230
1.0
 70
     8
 71
     3
 72
    53
 73
    49
 74
     0
 42
0.000000001
 43
0.00000001
 40
0.0
 40
0.0
 40
0.0
 40
0.0
 40
0.0161724396658351
 40
0.0323448934233981
 40
0.0505140054665027
 40
0.0686900679006
 40
0.0868594540942797
 40
0.1054117303010011
 40
0.123970993168816
 40
0.1425237666532134
 40
0.1594037538428976
 40
0.1762838553401709
 40
0.1979024215121003
 40
0.2195213059801163
 40
0.2413987862738017
 40
0.2632921995705077
 40
0.2851873126372096
 40
0.3070671124542177
 40
0.3291980901029206
 40
0.3513293388088788
 40
0.3716534000876587
 40
0.3919822718011099
 40
0.4123068907270847
 40
0.4328391112775914
 40
0.4533755697025699
 40
0.4739082411061496
 40
0.4947291405188544
 40
0.5155538707045207
 40
0.5363751309397622
 40
0.557383809697616
 40
0.5783959614178312
 40
0.5994049176748447
 40
0.624759126022574
 40
0.6501188197264743
 40
0.6754734425371308
 40
0.7010823453116285
 40
0.7266963742664884
 40
0.752305558683712
 40
0.7782808676870315
 40
0.8042611665182122
 40
0.8302366525498743
 40
0.8564610322649392
 40
0.8826903277840583
 40
0.9089147916795325
 40
0.9259749928594143
 40
0.9430351952343198
 40
0.9715176017724069
 40
1.0
 40
1.0
 40
1.0
 40
1.0
 10
266.2962962962973
 20
408.6540729739835
 30
0.0
 10
266.2424789602413
 20
408.6435226480411
 30
0.0
 10
266.134844241236
 20
408.6224219869636
 30
0.0
 10
265.9679691908031
 20
408.5841205016799
 30
0.0
 10
265.7957487016118
 20
408.5400129051787
 30
0.0
 10
265.6187249876012
 20
408.4891941124672
 30
0.0
 10
265.4424410721318
 20
408.4331806929131
 30
0.0
 10
265.2672080855355
 20
408.3719187306972
 30
0.0
 10
265.0932995641004
 20
408.3054736788406
 30
0.0
 10
264.9272854644644
 20
408.2365541953238
 30
0.0
 10
264.7690911760419
 20
408.1657745435998
 30
0.0
 10
264.6044344459674
 20
408.0869631382106
 30
0.0
 10
264.4293225476355
 20
407.9967555518276
 30
0.0
 10
264.2442842772967
 20
407.8936887041842
 30
0.0
 10
264.0633369091086
 20
407.7850193022903
 30
0.0
 10
263.8866786803719
 20
407.6709656625989
 30
0.0
 10
263.7151684212868
 20
407.5522625192413
 30
0.0
 10
263.5483097654177
 20
407.4287161373981
 30
0.0
 10
263.3862533370111
 20
407.3005117664216
 30
0.0
 10
263.2333321827801
 20
407.1714389703987
 30
0.0
 10
263.0896775208917
 20
407.0425496366129
 30
0.0
 10
262.9548063474302
 20
406.914364176694
 30
0.0
 10
262.8241417263691
 20
406.7828881506694
 30
0.0
 10
262.6977388008647
 20
406.6482384367412
 30
0.0
 10
262.5756360136975
 20
406.5105349128674
 30
0.0
 10
262.4576956931042
 20
406.3697174118349
 30
0.0
 10
262.3439794799488
 20
406.2258781464625
 30
0.0
 10
262.2345395390773
 20
406.0791125928765
 30
0.0
 10
262.1295655435714
 20
405.9297649690163
 30
0.0
 10
262.029086093174
 20
405.7779302745868
 30
0.0
 10
261.9331242238545
 20
405.6237044314506
 30
0.0
 10
261.8356706091578
 20
405.4568930716123
 30
0.0
 10
261.7379183044972
 20
405.27714882833
 30
0.0
 10
261.6411526979943
 20
405.084184121224
 30
0.0
 10
261.5509587972418
 20
404.8884040098053
 30
0.0
 10
261.4673890462108
 20
404.6899441628625
 30
0.0
 10
261.3904914677532
 20
404.4889462431806
 30
0.0
 10
261.320185066344
 20
404.2852598302295
 30
0.0
 10
261.2565692097439
 20
404.0790075758866
 30
0.0
 10
261.1997392634318
 20
403.8703233748356
 30
0.0
 10
261.1498233959322
 20
403.659663876686
 30
0.0
 10
261.106898703652
 20
403.4471647591741
 30
0.0
 10
261.0710317377888
 20
403.2329734201438
 30
0.0
 10
261.0457091402746
 20
403.0429658797478
 30
0.0
 10
261.0282639313004
 20
402.8775772026124
 30
0.0
 10
261.0139833554331
 20
402.705685304571
 30
0.0
 10
261.0024589915748
 20
402.5020228859356
 30
0.0
 10
261.0008196637786
 20
402.3450071568094
 30
0.0
 10
261.0
 20
402.2664993036996
 30
0.0
  0
LINE
  5
7D
330
1F
100
AcDbEntity
  8
0
  6
Continuous
 62
     7
370
    30
100
AcDbLine
 10
261.0
 20
402.2664993037
 30
0.0
 11
261.0
 21
384.3000001423
 31
0.0
  0
SPLINE
  5
7E
330
1F
100
AcDbEntity
  8
0
  6
Continuous
 62
     7
370
    30
100
AcDbSpline
210
0.0
220
0.0
230
1.0
 70
     8
 71
     3
 72
    45
 73
    41
 74
     0
 42
0.000000001
 43
0.00000001
 40
0.0
 40
0.0
 40
0.0
 40
0.0
 40
0.0259438367548414
 40
0.051909095164783
 40
0.0778739239274416
 40
0.1038171743140903
 40
0.1304932696958045
 40
0.1571936829271708
 40
0.1838936370838481
 40
0.2105691058819811
 40
0.2365215267236291
 40
0.2624971888583998
 40
0.2884725209176408
 40
0.3144244912521637
 40
0.3411685571019679
 40
0.3679387288613136
 40
0.3947086868130262
 40
0.4214524608219405
 40
0.4467702169824134
 40
0.4721103591212586
 40
0.4974504886245124
 40
0.5227682275393967
 40
0.5488369755734761
 40
0.5749300309285409
 40
0.6010232516036579
 40
0.6270922252841138
 40
0.6521715068552584
 40
0.6772719867863785
 40
0.7023727347590335
 40
0.7274523821495966
 40
0.753232254176182
 40
0.7790344189398538
 40
0.8048369718398748
 40
0.8306173735995247
 40
0.858800837024041
 40
0.8870387020757327
 40
0.9153052796497527
 40
0.9435732613826047
 40
0.9718143699899447
 40
1.0
 40
1.0
 40
1.0
 40
1.0
 10
260.9999999999884
 20
384.3000001422727
 30
0.0
 10
261.0006266915365
 20
384.2463447070886
 30
0.0
 10
261.0018805920877
 20
384.1389895337809
 30
0.0
 10
261.01200652443
 20
383.977837409328
 30
0.0
 10
261.0281685386857
 20
383.81694776582
 30
0.0
 10
261.0511880253139
 20
383.6550972556882
 30
0.0
 10
261.0811746232748
 20
383.4925453308201
 30
0.0
 10
261.11833239636
 20
383.3295689992487
 30
0.0
 10
261.1623134093877
 20
383.1680168482225
 30
0.0
 10
261.2126163362877
 20
383.009685053598
 30
0.0
 10
261.2690307619619
 20
382.8547845690562
 30
0.0
 10
261.3312420766089
 20
382.7034690835751
 30
0.0
 10
261.3996513613803
 20
382.5546313662781
 30
0.0
 10
261.474907573719
 20
382.4071106658897
 30
0.0
 10
261.5571876202756
 20
382.2612658483173
 30
0.0
 10
261.646539105625
 20
382.1174371303387
 30
0.0
 10
261.7419392165895
 20
381.9774021113681
 30
0.0
 10
261.8413994550777
 20
381.8439096115987
 30
0.0
 10
261.9444492280998
 20
381.7169642168815
 30
0.0
 10
262.0505633354126
 20
381.5964491328231
 30
0.0
 10
262.1614147798761
 20
381.4802659051811
 30
0.0
 10
262.2779259754371
 20
381.3675581725888
 30
0.0
 10
262.4001162038749
 20
381.2586900298739
 30
0.0
 10
262.5279014417048
 20
381.1539603605944
 30
0.0
 10
262.6598051786399
 20
381.0546295610803
 30
0.0
 10
262.7938283089376
 20
380.9620990657922
 30
0.0
 10
262.9296127322633
 20
380.8762953076401
 30
0.0
 10
263.0667824563996
 20
380.7970274226145
 30
0.0
 10
263.2068164047591
 20
380.7233096472227
 30
0.0
 10
263.3507646333387
 20
380.6546440437273
 30
0.0
 10
263.4985186766502
 20
380.5913351400336
 30
0.0
 10
263.649908930078
 20
380.5335991564191
 30
0.0
 10
263.8032710044303
 20
380.4820925925511
 30
0.0
 10
263.9631069210299
 20
380.4354864759325
 30
0.0
 10
264.1294420766162
 20
380.3945995250439
 30
0.0
 10
264.3021750887109
 20
380.3601651167666
 30
0.0
 10
264.4760946531929
 20
380.3332986912481
 30
0.0
 10
264.6506852439055
 20
380.314215949326
 30
0.0
 10
264.8254693801509
 20
380.3022332692692
 30
0.0
 10
264.9418612720971
 20
380.3007440298639
 30
0.0
 10
264.9999999999936
 20
380.3000001422691
 30
0.0
  0
LINE
  5
7F
330
1F
100
AcDbEntity
  8
0
  6
Continuous
 62
     7
370
    30
100
AcDbLine
 10
265.2471683384
 20
380.3000001423
 30
0.0
 11
265.0
 21
380.3000001423
 31
0.0
  0
LINE
  5
80
330
1F
100
AcDbEntity
  8
0
  6
Continuous
 62
     7
370
    30
100
AcDbLine
 10
265.2471683384
 20
380.3000001423
 30
0.0
 11
275.0
 21
380.3000001423
 31
0.0
  0
CIRCLE
  5
81
330
1F
100
AcDbEntity
  8
0
  6
Continuous
 62
   252
370
     0
100
AcDbCircle
 10
269.9999537029
 20
389.0001252165
 30
0.0
 40
23.80619519377063
  0
CIRCLE
  5
82
330
1F
100
AcDbEntity
  8
0
  6
Continuous
 62
   252
370
     0
100
AcDbCircle
 10
270.0
 20
389.0
 30
0.0
 40
82.83353549900005
  0
CIRCLE
  5
83
330
1F
100
AcDbEntity
  8
0
  6
Continuous
 62
   252
370
     0
100
AcDbCircle
 10
270.0
 20
389.0
 30
0.0
 40
84.74528827210008
  0
CIRCLE
  5
84
330
1F
100
AcDbEntity
  8
0
  6
Continuous
 62
   252
370
     0
100
AcDbCircle
 10
270.0
 20
389.0
 30
0.0
 40
85.00000000000006
  0
CIRCLE
  5
85
330
1F
100
AcDbEntity
  8
0
  6
Continuous
 62
   252
370
     0
100
AcDbCircle
 10
270.0
 20
389.0000001423
 30
0.0
 40
23.02074788099998
  0
ARC
  5
86
330
1F
100
AcDbEntity
  8
0
  6
Continuous
 62
     7
370
    30
100
AcDbCircle
 10
439.7483626822
 20
304.4998286625
 30
0.0
 40
0.5
100
AcDbArc
 50
180.0
 51
271.5
  0
ARC
  5
87
330
1F
100
AcDbEntity
  8
0
  6
Continuous
 62
     7
370
    30
100
AcDbCircle
 10
439.7483626822
 20
473.5001713375
 30
0.0
 40
0.5000000000000151
100
AcDbArc
 50
88.5
 51
180.0
  0
LINE
  5
88
330
1F
100
AcDbEntity
  8
0
  6
Continuous
 62
     7
370
    30
100
AcDbLine
 10
439.7614511563
 20
304.0
 30
0.0
 11
449.4884996092
 21
304.2547117279
 31
0.0
  0
LINE
  5
89
330
1F
100
AcDbEntity
  8
0
  6
Continuous
 62
     7
370
    30
100
AcDbLine
 10
449.4884996075
 20
473.7452882721
 30
0.0
 11
439.7614511563
 21
474.0
 31
0.0
  0
ARC
  5
8A
330
1F
100
AcDbEntity
  8
0
  6
Continuous
 62
     7
370
    30
100
AcDbCircle
 10
449.436145711
 20
471.7459736222
 30
0.0
 40
1.999999999999987
100
AcDbArc
 50
2.5092650441
 51
88.500000001
  0
ARC
  5
8B
330
1F
100
AcDbEntity
  8
0
  6
Continuous
 62
     7
370
    30
100
AcDbCircle
 10
449.4361457126
 20
306.2540263778
 30
0.0
 40
2.000000000000061
100
AcDbArc
 50
271.5000000002
 51
357.4907349571
  0
ARC
  5
8C
330
1F
100
AcDbEntity
  8
0
  6
Continuous
 62
     7
370
    30
100
AcDbCircle
 10
-1438.7516372778
 20
388.9999999813
 30
0.0
 40
1892.0
100
AcDbArc
 50
357.490734954
 51
359.2790574372
  0
ARC
  5
8D
330
1F
100
AcDbEntity
  8
0
  6
Continuous
 62
     7
370
    30
100
AcDbCircle
 10
-1438.7516372778
 20
388.9999999813
 30
0.0
 40
1892.0
100
AcDbArc
 50
0.7209501485
 51
2.5092650471
  0
ARC
  5
8E
330
1F
100
AcDbEntity
  8
0
  6
Continuous
 62
     7
370
    30
100
AcDbCircle
 10
498.1983626822
 20
366.0732144976
 30
0.0
 40
0.1000000000000519
100
AcDbArc
 50
227.0663979575
 51
290.0117664589
  0
ARC
  5
8F
330
1F
100
AcDbEntity
  8
0
  6
Continuous
 62
     7
370
    30
100
AcDbCircle
 10
498.1983626822
 20
411.926785787
 30
0.0
 40
0.1000000000000519
100
AcDbArc
 50
69.9882335411
 51
132.9336020425
  0
ARC
  5
90
330
1F
100
AcDbEntity
  8
0
  6
Continuous
 62
     7
370
    30
100
AcDbCircle
 10
489.8483626822
 20
389.0000001423
 30
0.0
 40
24.50000000000454
100
AcDbArc
 50
54.7187381727
 51
69.9882335335
  0
ARC
  5
91
330
1F
100
AcDbEntity
  8
0
  6
Continuous
 62
     7
370
    30
100
AcDbCircle
 10
489.8483626822
 20
389.0000001423
 30
0.0
 40
24.50000000000443
100
AcDbArc
 50
290.0117664665
 51
339.2003015463
  0
LINE
  5
92
330
1F
100
AcDbEntity
  8
0
  6
Continuous
 62
     7
370
    30
100
AcDbLine
 10
453.0985870793
 20
366.0000001423
 30
0.0
 11
498.1302476458
 21
366.0000001423
 31
0.0
  0
LINE
  5
93
330
1F
100
AcDbEntity
  8
0
  6
Continuous
 62
     7
370
    30
100
AcDbLine
 10
498.1302476458
 20
412.0000001423
 30
0.0
 11
453.0985840342
 21
412.0000001423
 31
0.0
  0
LINE
  5
94
330
1F
100
AcDbEntity
  8
0
  6
Continuous
 62
     7
370
    30
100
AcDbLine
 10
439.2483626822
 20
304.4998286625
 30
0.0
 11
439.2483626822
 21
473.5001713375
 31
0.0
  0
LWPOLYLINE
  5
95
330
1F
100
AcDbEntity
  8
0
  6
Continuous
 62
     7
370
    30
100
AcDbPolyline
 90
       11
 70
   128
 43
0.0
 10
453.0985838305
 20
412.8063204103
 10
453.0985838463
 20
412.7981626218
 10
453.0985838632
 20
412.7736948472
 10
453.0985838811
 20
412.7329338555
 10
453.0985839
 20
412.6759075822
 10
453.09858392
 20
412.6026551103
 10
453.098583941
 20
412.5132266434
 10
453.0985839631
 20
412.4076834712
 10
453.0985839861
 20
412.2860979279
 10
453.0985840101
 20
412.1485533421
 10
453.0985840342
 20
412.0000001423
  0
LWPOLYLINE
  5
96
330
1F
100
AcDbEntity
  8
0
  6
Continuous
 62
     7
370
    30
100
AcDbPolyline
 90
       11
 70
   128
 43
0.0
 10
453.0985870793
 20
366.0000001423
 10
453.0985870748
 20
365.851697091
 10
453.098587069
 20
365.7141525052
 10
453.0985870621
 20
365.5925669618
 10
453.0985870541
 20
365.4870237897
 10
453.0985870449
 20
365.3975953228
 10
453.0985870346
 20
365.3243428509
 10
453.0985870232
 20
365.2673165776
 10
453.0985870106
 20
365.2265555859
 10
453.098586997
 20
365.2020878113
 10
453.0985869823
 20
365.1939300228
  0
LINE
  5
97
330
1F
100
AcDbEntity
  8
0
  6
Continuous
 62
     7
370
    30
100
AcDbLine
 10
503.9993343803
 20
409.0000001423
 30
0.0
 11
503.9993343803
 21
408.654072974
 31
0.0
  0
SPLINE
  5
98
330
1F
100
AcDbEntity
  8
0
  6
Continuous
 62
     7
370
    30
100
AcDbSpline
210
0.0
220
0.0
230
1.0
 70
     8
 71
     3
 72
    53
 73
    49
 74
     0
 42
0.000000001
 43
0.00000001
 40
0.0
 40
0.0
 40
0.0
 40
0.0
 40
0.0161724396658351
 40
0.0323448934233981
 40
0.0505140054665027
 40
0.0686900679006
 40
0.0868594540942797
 40
0.1054117303010011
 40
0.123970993168816
 40
0.1425237666532134
 40
0.1594037538428976
 40
0.1762838553401709
 40
0.1979024215121003
 40
0.2195213059801163
 40
0.2413987862738017
 40
0.2632921995705077
 40
0.2851873126372096
 40
0.3070671124542177
 40
0.3291980901029206
 40
0.3513293388088788
 40
0.3716534000876587
 40
0.3919822718011099
 40
0.4123068907270847
 40
0.4328391112775914
 40
0.4533755697025699
 40
0.4739082411061496
 40
0.4947291405188544
 40
0.5155538707045207
 40
0.5363751309397622
 40
0.557383809697616
 40
0.5783959614178312
 40
0.5994049176748447
 40
0.624759126022574
 40
0.6501188197264743
 40
0.6754734425371308
 40
0.7010823453116285
 40
0.7266963742664884
 40
0.752305558683712
 40
0.7782808676870315
 40
0.8042611665182122
 40
0.8302366525498743
 40
0.8564610322649392
 40
0.8826903277840583
 40
0.9089147916795325
 40
0.9259749928594143
 40
0.9430351952343198
 40
0.9715176017724069
 40
1.0
 40
1.0
 40
1.0
 40
1.0
 10
503.999334380297
 20
408.6540729739835
 30
0.0
 10
503.9997176920317
 20
408.6435226480411
 30
0.0
 10
504.0004843158349
 20
408.6224219869636
 30
0.0
 10
504.0069087906919
 20
408.5841205016799
 30
0.0
 10
504.0178266164032
 20
408.5400129051787
 30
0.0
 10
504.0341661103424
 20
408.4891941124672
 30
0.0
 10
504.0554676924741
 20
408.4331806929131
 30
0.0
 10
504.0818182799255
 20
408.3719187306972
 30
0.0
 10
504.1131724602205
 20
408.3054736788406
 30
0.0
 10
504.1481323779673
 20
408.2365541953238
 30
0.0
 10
504.186092450432
 20
408.1657745435998
 30
0.0
 10
504.230246469338
 20
408.0869631382106
 30
0.0
 10
504.2829363317787
 20
407.9967555518276
 30
0.0
 10
504.3454879806355
 20
407.8936887041842
 30
0.0
 10
504.4135764501863
 20
407.7850193022903
 30
0.0
 10
504.4869605821599
 20
407.6709656625989
 30
0.0
 10
504.5650474673149
 20
407.5522625192413
 30
0.0
 10
504.6478519257404
 20
407.4287161373981
 30
0.0
 10
504.7351516455576
 20
407.3005117664216
 30
0.0
 10
504.8242298380624
 20
407.1714389703987
 30
0.0
 10
504.914153605681
 20
407.0425496366129
 30
0.0
 10
505.0043849474893
 20
406.914364176694
 30
0.0
 10
505.097637217303
 20
406.7828881506694
 30
0.0
 10
505.1937583455193
 20
406.6482384367412
 30
0.0
 10
505.2926008648267
 20
406.5105349128674
 30
0.0
 10
505.3941447179718
 20
406.3697174118349
 30
0.0
 10
505.4982634229205
 20
406.2258781464625
 30
0.0
 10
505.6048362133483
 20
406.0791125928765
 30
0.0
 10
505.713558404667
 20
405.9297649690163
 30
0.0
 10
505.8243065494999
 20
405.7779302745868
 30
0.0
 10
505.936966096429
 20
405.6237044314506
 30
0.0
 10
506.0589462921769
 20
405.4568930716123
 30
0.0
 10
506.1904723165995
 20
405.27714882833
 30
0.0
 10
506.3317120291811
 20
405.084184121224
 30
0.0
 10
506.4749908095558
 20
404.8884040098053
 30
0.0
 10
506.6201475089371
 20
404.6899441628625
 30
0.0
 10
506.7670349335767
 20
404.4889462431806
 30
0.0
 10
506.9157185018623
 20
404.2852598302295
 30
0.0
 10
507.0660618455307
 20
404.0790075758866
 30
0.0
 10
507.2179368993404
 20
403.8703233748356
 30
0.0
 10
507.3709815528237
 20
403.659663876686
 30
0.0
 10
507.5250658217778
 20
403.4471647591741
 30
0.0
 10
507.680067376988
 20
403.2329734201438
 30
0.0
 10
507.8172830423441
 20
403.0429658797478
 30
0.0
 10
507.9365100735445
 20
402.8775772026124
 30
0.0
 10
508.0602493903985
 20
402.705685304571
 30
0.0
 10
508.2066092483983
 20
402.5020228859356
 30
0.0
 10
508.3191164188203
 20
402.3450071568094
 30
0.0
 10
508.3753699958247
 20
402.2664993036996
 30
0.0
  0
ARC
  5
99
330
1F
100
AcDbEntity
  8
0
  6
Continuous
 62
     7
370
    30
100
AcDbCircle
 10
489.8483547746
 20
388.9999984828
 30
0.0
 40
22.78706512557391
100
AcDbArc
 50
348.0968903817
 51
35.6050307726
  0
SPLINE
  5
9A
330
1F
100
AcDbEntity
  8
0
  6
Continuous
 62
     7
370
    30
100
AcDbSpline
210
0.0
220
0.0
230
1.0
 70
     8
 71
     3
 72
    45
 73
    41
 74
     0
 42
0.000000001
 43
0.00000001
 40
0.0
 40
0.0
 40
0.0
 40
0.0
 40
0.0259438367548414
 40
0.051909095164783
 40
0.0778739239274416
 40
0.1038171743140903
 40
0.1304932696958045
 40
0.1571936829271708
 40
0.1838936370838481
 40
0.2105691058819811
 40
0.2365215267236291
 40
0.2624971888583998
 40
0.2884725209176408
 40
0.3144244912521637
 40
0.3411685571019679
 40
0.3679387288613136
 40
0.3947086868130262
 40
0.4214524608219405
 40
0.4467702169824134
 40
0.4721103591212588
 40
0.4974504886245126
 40
0.5227682275393967
 40
0.5488369755734762
 40
0.574930030928541
 40
0.6010232516036579
 40
0.6270922252841138
 40
0.6521715068552584
 40
0.6772719867863785
 40
0.7023727347590335
 40
0.7274523821495966
 40
0.753232254176182
 40
0.7790344189398539
 40
0.8048369718398748
 40
0.8306173735995247
 40
0.8588008370240409
 40
0.8870387020757327
 40
0.9153052796497526
 40
0.9435732613826046
 40
0.9718143699899447
 40
1.0
 40
1.0
 40
1.0
 40
1.0
 10
512.1454476934654
 20
384.3000001422727
 30
0.0
 10
512.1342732103241
 20
384.2463447070886
 30
0.0
 10
512.1119150173446
 20
384.1389895337809
 30
0.0
 10
512.0801422107269
 20
383.977837409328
 30
0.0
 10
512.0497430492286
 20
383.81694776582
 30
0.0
 10
512.0206440460371
 20
383.6550972556882
 30
0.0
 10
511.9929312443423
 20
383.4925453308201
 30
0.0
 10
511.9667144942064
 20
383.3295689992487
 30
0.0
 10
511.9423138091863
 20
383.1680168482225
 30
0.0
 10
511.92000398617
 20
383.009685053598
 30
0.0
 10
511.8997891212563
 20
382.8547845690562
 30
0.0
 10
511.8816361242261
 20
382.7034690835751
 30
0.0
 10
511.8654045123399
 20
382.5546313662781
 30
0.0
 10
511.8509982217181
 20
382.4071106658897
 30
0.0
 10
511.8385384006218
 20
382.2612658483173
 30
0.0
 10
511.8281112767219
 20
382.1174371303387
 30
0.0
 10
511.8198669196605
 20
381.9774021113681
 30
0.0
 10
511.8139436121521
 20
381.8439096115987
 30
0.0
 10
511.8102379828547
 20
381.7169642168815
 30
0.0
 10
511.8086056887096
 20
381.5964491328231
 30
0.0
 10
511.8089787126824
 20
381.4802659051811
 30
0.0
 10
511.8113839638985
 20
381.3675581725888
 30
0.0
 10
511.8159039114909
 20
381.2586900298739
 30
0.0
 10
511.8225812033308
 20
381.1539603605944
 30
0.0
 10
511.8313472377096
 20
381.0546295610803
 30
0.0
 10
511.8420448207902
 20
380.9620990657922
 30
0.0
 10
511.8545746928709
 20
380.8762953076401
 30
0.0
 10
511.8688070149544
 20
380.7970274226145
 30
0.0
 10
511.884863641194
 20
380.7233096472227
 30
0.0
 10
511.902872807445
 20
380.6546440437273
 30
0.0
 10
511.922870299042
 20
380.5913351400336
 30
0.0
 10
511.9448578461871
 20
380.5335991564191
 30
0.0
 10
511.968592822597
 20
380.4820925925511
 30
0.0
 10
511.9948046968864
 20
380.4354864759325
 30
0.0
 10
512.023663316595
 20
380.3945995250439
 30
0.0
 10
512.0552898272016
 20
380.3601651167666
 30
0.0
 10
512.0887382226737
 20
380.3332986912481
 30
0.0
 10
512.1239284215183
 20
380.314215949326
 30
0.0
 10
512.1606077920055
 20
380.3022332692692
 30
0.0
 10
512.186345427464
 20
380.3007440298639
 30
0.0
 10
512.1992015926108
 20
380.3000001422691
 30
0.0
  0
LINE
  5
9B
330
1F
100
AcDbEntity
  8
0
  6
Continuous
 62
     7
370
    30
100
AcDbLine
 10
512.2530628854
 20
380.3000001423
 30
0.0
 11
512.1992015926
 21
380.3000001423
 31
0.0
  0
LINE
  5
9C
330
1F
100
AcDbEntity
  8
0
  6
Continuous
 62
     7
370
    30
100
AcDbLine
 10
512.2530628854
 20
380.3000001423
 30
0.0
 11
512.7516374375
 21
380.3000001423
 31
0.0
  0
LINE
  5
9D
330
1F
100
AcDbEntity
  8
0
  6
Continuous
 62
   252
370
     0
100
AcDbLine
 10
439.7614511563
 20
304.0
 30
0.0
 11
439.7614511563
 21
474.0
 31
0.0
  0
LINE
  5
9E
330
1F
100
AcDbEntity
  8
0
  6
Continuous
 62
   252
370
     0
100
AcDbLine
 10
449.4884996092
 20
304.2547117279
 30
0.0
 11
449.4884996075
 21
473.7452882721
 31
0.0
  0
LINE
  5
9F
330
1F
100
AcDbEntity
  8
0
  6
Continuous
 62
   252
370
     0
100
AcDbLine
 10
451.4342280226
 20
306.166464501
 30
0.0
 11
451.434228021
 21
471.833535499
 31
0.0
  0
LWPOLYLINE
  5
A0
330
1F
100
AcDbEntity
  8
0
  6
Continuous
 62
   252
370
     0
100
AcDbPolyline
 90
      122
 70
   128
 43
0.0
 10
453.0985869823
 20
365.1939300228
 10
453.0985869823
 20
365.1939300228
 10
453.0985869665
 20
365.2020878113
 10
453.0985869497
 20
365.2265555859
 10
453.0985869318
 20
365.2673165776
 10
453.0985869128
 20
365.3243428509
 10
453.0985868928
 20
365.3975953228
 10
453.0985868718
 20
365.4870237897
 10
453.0985868498
 20
365.5925669618
 10
453.0985868268
 20
365.7141525052
 10
453.0985868028
 20
365.851697091
 10
453.0985867778
 20
366.0051064532
 10
453.098586752
 20
366.1742754526
 10
453.0985867252
 20
366.3590881493
 10
453.0985866975
 20
366.5594178819
 10
453.0985866689
 20
366.7751273543
 10
453.0985866394
 20
367.0060687301
 10
453.0985866091
 20
367.2520837335
 10
453.098586578
 20
367.5130037583
 10
453.0985865461
 20
367.7886499828
 10
453.0985865134
 20
368.0788334929
 10
453.0985864799
 20
368.3833554113
 10
453.0985864457
 20
368.7020070339
 10
453.0985864108
 20
369.0345699728
 10
453.0985863752
 20
369.3808163059
 10
453.0985863389
 20
369.7405087334
 10
453.098586302
 20
370.1134007399
 10
453.0985862645
 20
370.4992367641
 10
453.0985862264
 20
370.897752373
 10
453.0985861877
 20
371.308674444
 10
453.0985861485
 20
371.7317213517
 10
453.0985861088
 20
372.1666031608
 10
453.0985860686
 20
372.6130218251
 10
453.098586028
 20
373.0706713914
 10
453.0985859869
 20
373.5392382098
 10
453.0985859454
 20
374.0184011478
 10
453.0985859036
 20
374.5078318111
 10
453.0985858614
 20
375.0071947685
 10
453.0985858189
 20
375.5161477813
 10
453.0985857761
 20
376.0343420388
 10
453.0985857331
 20
376.5614223965
 10
453.0985856898
 20
377.0970276197
 10
453.0985856464
 20
377.6407906314
 10
453.0985856028
 20
378.1923387636
 10
453.098585559
 20
378.7512940128
 10
453.0985855152
 20
379.317273299
 10
453.0985854713
 20
379.8898887282
 10
453.0985854273
 20
380.4687478585
 10
453.0985853833
 20
381.0534539686
 10
453.0985853393
 20
381.6436063303
 10
453.0985852954
 20
382.2388004825
 10
453.0985852516
 20
382.838628509
 10
453.0985852078
 20
383.4426793175
 10
453.0985851642
 20
384.0505389219
 10
453.0985851208
 20
384.6617907254
 10
453.0985850775
 20
385.2760158068
 10
453.0985850345
 20
385.8927932067
 10
453.0985849918
 20
386.5117002167
 10
453.0985849493
 20
387.1323126689
 10
453.0985849071
 20
387.7542052266
 10
453.0985848653
 20
388.3769516756
 10
453.0985848238
 20
389.0001252165
 10
453.0985847828
 20
389.6232987575
 10
453.0985847422
 20
390.2460452065
 10
453.098584702
 20
390.8679377642
 10
453.0985846623
 20
391.4885502164
 10
453.0985846231
 20
392.1074572264
 10
453.0985845845
 20
392.7242346263
 10
453.0985845464
 20
393.3384597077
 10
453.0985845089
 20
393.9497115112
 10
453.098584472
 20
394.5575711156
 10
453.0985844358
 20
395.1616219241
 10
453.0985844002
 20
395.7614499506
 10
453.0985843654
 20
396.3566441028
 10
453.0985843312
 20
396.9467964645
 10
453.0985842978
 20
397.5315025746
 10
453.0985842651
 20
398.1103617049
 10
453.0985842332
 20
398.6829771341
 10
453.0985842021
 20
399.2489564203
 10
453.0985841719
 20
399.8079116695
 10
453.0985841425
 20
400.3594598017
 10
453.0985841139
 20
400.9032228134
 10
453.0985840863
 20
401.4388280366
 10
453.0985840595
 20
401.9659083943
 10
453.0985840337
 20
402.4841026517
 10
453.0985840088
 20
402.9930556646
 10
453.0985839849
 20
403.492418622
 10
453.0985839619
 20
403.9818492853
 10
453.0985839399
 20
404.4610122233
 10
453.098583919
 20
404.9295790417
 10
453.098583899
 20
405.387228608
 10
453.0985838801
 20
405.8336472723
 10
453.0985838623
 20
406.2685290814
 10
453.0985838455
 20
406.6915759891
 10
453.0985838297
 20
407.1024980601
 10
453.0985838151
 20
407.501013669
 10
453.0985838015
 20
407.8868496932
 10
453.098583789
 20
408.2597416997
 10
453.0985837777
 20
408.6194341272
 10
453.0985837675
 20
408.9656804603
 10
453.0985837583
 20
409.2982433992
 10
453.0985837503
 20
409.6168950218
 10
453.0985837435
 20
409.9214169402
 10
453.0985837378
 20
410.2116004503
 10
453.0985837332
 20
410.4872466748
 10
453.0985837298
 20
410.7481666996
 10
453.0985837275
 20
410.994181703
 10
453.0985837264
 20
411.2251230788
 10
453.0985837264
 20
411.4408325512
 10
453.0985837276
 20
411.6411622838
 10
453.0985837299
 20
411.8259749805
 10
453.0985837334
 20
411.9951439799
 10
453.0985837381
 20
412.1485533421
 10
453.0985837438
 20
412.2860979279
 10
453.0985837507
 20
412.4076834712
 10
453.0985837588
 20
412.5132266434
 10
453.0985837679
 20
412.6026551103
 10
453.0985837782
 20
412.6759075822
 10
453.0985837897
 20
412.7329338555
 10
453.0985838022
 20
412.7736948472
 10
453.0985838158
 20
412.7981626218
 10
453.0985838305
 20
412.8063204103
  0
LINE
  5
A1
330
1F
100
AcDbEntity
  8
0
  6
Continuous
 62
   252
370
     0
100
AcDbLine
 10
498.2325839937
 20
365.9792522613
 30
0.0
 11
498.2325839937
 21
412.0207480233
 31
0.0
  0
ARC
  5
A2
330
1F
100
AcDbEntity
  8
0
  6
Continuous
 62
     7
370
    30
100
AcDbCircle
 10
100.2516373178
 20
473.5001713375
 30
0.0
 40
0.5000000000000151
100
AcDbArc
 50
0.0
 51
91.5
  0
ARC
  5
A3
330
1F
100
AcDbEntity
  8
0
  6
Continuous
 62
     7
370
    30
100
AcDbCircle
 10
100.2516373178
 20
304.4998286625
 30
0.0
 40
0.5000000000000142
100
AcDbArc
 50
268.5
 51
0.0
  0
LINE
  5
A4
330
1F
100
AcDbEntity
  8
0
  6
Continuous
 62
     7
370
    30
100
AcDbLine
 10
100.2385488437
 20
474.0
 30
0.0
 11
90.5115003925
 21
473.7452882721
 31
0.0
  0
LINE
  5
A5
330
1F
100
AcDbEntity
  8
0
  6
Continuous
 62
     7
370
    30
100
AcDbLine
 10
90.5115003908
 20
304.2547117279
 30
0.0
 11
100.2385488437
 21
304.0
 31
0.0
  0
ARC
  5
A6
330
1F
100
AcDbEntity
  8
0
  6
Continuous
 62
     7
370
    30
100
AcDbCircle
 10
90.5638542874
 20
306.2540263778
 30
0.0
 40
2.00000000000006
100
AcDbArc
 50
182.5092650429
 51
268.4999999998
  0
ARC
  5
A7
330
1F
100
AcDbEntity
  8
0
  6
Continuous
 62
     7
370
    30
100
AcDbCircle
 10
90.563854289
 20
471.7459736222
 30
0.0
 40
1.999999999999992
100
AcDbArc
 50
91.499999999
 51
177.4907349559
  0
ARC
  5
A8
330
1F
100
AcDbEntity
  8
0
  6
Continuous
 62
     7
370
    30
100
AcDbCircle
 10
1978.7516372778
 20
388.9999999813
 30
0.0
 40
1892.0
100
AcDbArc
 50
180.7209425628
 51
182.509265046
  0
ARC
  5
A9
330
1F
100
AcDbEntity
  8
0
  6
Continuous
 62
     7
370
    30
100
AcDbCircle
 10
1978.7516372778
 20
388.9999999813
 30
0.0
 40
1892.0
100
AcDbArc
 50
177.4907349529
 51
179.2790498515
  0
ARC
  5
AA
330
1F
100
AcDbEntity
  8
0
  6
Continuous
 62
     7
370
    30
100
AcDbCircle
 10
41.8016373178
 20
411.926785787
 30
0.0
 40
0.1000000000000463
100
AcDbArc
 50
47.0663979575
 51
110.0117664589
  0
ARC
  5
AB
330
1F
100
AcDbEntity
  8
0
  6
Continuous
 62
     7
370
    30
100
AcDbCircle
 10
41.8016373178
 20
366.0732144976
 30
0.0
 40
0.1000000000000463
100
AcDbArc
 50
249.9882335411
 51
312.9336020425
  0
ARC
  5
AC
330
1F
100
AcDbEntity
  8
0
  6
Continuous
 62
     7
370
    30
100
AcDbCircle
 10
50.1516373178
 20
389.0000001423
 30
0.0
 40
24.50000000000455
100
AcDbArc
 50
110.0117664665
 51
125.2812618273
  0
ARC
  5
AD
330
1F
100
AcDbEntity
  8
0
  6
Continuous
 62
     7
370
    30
100
AcDbCircle
 10
50.1516373178
 20
389.0000001423
 30
0.0
 40
24.50000000000444
100
AcDbArc
 50
200.7996984537
 51
249.9882335335
  0
LINE
  5
AE
330
1F
100
AcDbEntity
  8
0
  6
Continuous
 62
     7
370
    30
100
AcDbLine
 10
86.9014159658
 20
412.0000001423
 30
0.0
 11
41.8697523542
 21
412.0000001423
 31
0.0
  0
LINE
  5
AF
330
1F
100
AcDbEntity
  8
0
  6
Continuous
 62
     7
370
    30
100
AcDbLine
 10
41.8697523542
 20
366.0000001423
 30
0.0
 11
86.9014129207
 21
366.0000001423
 31
0.0
  0
LINE
  5
B0
330
1F
100
AcDbEntity
  8
0
  6
Continuous
 62
     7
370
    30
100
AcDbLine
 10
100.7516373178
 20
389.0
 30
0.0
 11
100.7516373178
 21
304.4998286625
 31
0.0
  0
LINE
  5
B1
330
1F
100
AcDbEntity
  8
0
  6
Continuous
 62
     7
370
    30
100
AcDbLine
 10
100.7516373178
 20
473.5001713375
 30
0.0
 11
100.7516373178
 21
389.0
 31
0.0
  0
LWPOLYLINE
  5
B2
330
1F
100
AcDbEntity
  8
0
  6
Continuous
 62
     7
370
    30
100
AcDbPolyline
 90
      121
 70
   128
 43
0.0
 10
86.9014161695
 20
412.8063204103
 10
86.9014161537
 20
412.7981626218
 10
86.9014161368
 20
412.7736948472
 10
86.9014161189
 20
412.7329338555
 10
86.9014161
 20
412.6759075822
 10
86.90141608
 20
412.6026551103
 10
86.901416059
 20
412.5132266434
 10
86.9014160369
 20
412.4076834712
 10
86.9014160139
 20
412.2860979279
 10
86.9014159899
 20
412.1485533421
 10
86.901415965
 20
411.9951439799
 10
86.9014159391
 20
411.8259749805
 10
86.9014159123
 20
411.6411622838
 10
86.9014158846
 20
411.4408325512
 10
86.901415856
 20
411.2251230788
 10
86.9014158266
 20
410.994181703
 10
86.9014157963
 20
410.7481666996
 10
86.9014157652
 20
410.4872466748
 10
86.9014157332
 20
410.2116004503
 10
86.9014157005
 20
409.9214169402
 10
86.9014156671
 20
409.6168950218
 10
86.9014156329
 20
409.2982433992
 10
86.901415598
 20
408.9656804603
 10
86.9014155624
 20
408.6194341272
 10
86.9014155261
 20
408.2597416997
 10
86.9014154892
 20
407.8868496932
 10
86.9014154517
 20
407.501013669
 10
86.9014154136
 20
407.1024980601
 10
86.9014153749
 20
406.6915759891
 10
86.9014153357
 20
406.2685290814
 10
86.901415296
 20
405.8336472723
 10
86.9014152558
 20
405.387228608
 10
86.9014152151
 20
404.9295790417
 10
86.9014151741
 20
404.4610122233
 10
86.9014151326
 20
403.9818492853
 10
86.9014150907
 20
403.492418622
 10
86.9014150486
 20
402.9930556646
 10
86.9014150061
 20
402.4841026517
 10
86.9014149633
 20
401.9659083943
 10
86.9014149203
 20
401.4388280366
 10
86.901414877
 20
400.9032228134
 10
86.9014148336
 20
400.3594598017
 10
86.9014147899
 20
399.8079116695
 10
86.9014147462
 20
399.2489564203
 10
86.9014147023
 20
398.6829771341
 10
86.9014146584
 20
398.1103617049
 10
86.9014146145
 20
397.5315025746
 10
86.9014145705
 20
396.9467964645
 10
86.9014145265
 20
396.3566441028
 10
86.9014144826
 20
395.7614499506
 10
86.9014144387
 20
395.1616219241
 10
86.901414395
 20
394.5575711156
 10
86.9014143514
 20
393.9497115112
 10
86.9014143079
 20
393.3384597077
 10
86.9014142647
 20
392.7242346263
 10
86.9014142217
 20
392.1074572264
 10
86.9014141789
 20
391.4885502164
 10
86.9014141364
 20
390.8679377642
 10
86.9014140943
 20
390.2460452065
 10
86.9014140525
 20
389.6232987575
 10
86.901414011
 20
389.0001252165
 10
86.90141397
 20
388.3769516756
 10
86.9014139293
 20
387.7542052266
 10
86.9014138892
 20
387.1323126689
 10
86.9014138495
 20
386.5117002167
 10
86.9014138103
 20
385.8927932067
 10
86.9014137717
 20
385.2760158068
 10
86.9014137336
 20
384.6617907254
 10
86.9014136961
 20
384.0505389219
 10
86.9014136592
 20
383.4426793175
 10
86.901413623
 20
382.838628509
 10
86.9014135874
 20
382.2388004825
 10
86.9014135525
 20
381.6436063303
 10
86.9014135184
 20
381.0534539686
 10
86.9014134849
 20
380.4687478585
 10
86.9014134523
 20
379.8898887282
 10
86.9014134204
 20
379.317273299
 10
86.9014133893
 20
378.7512940128
 10
86.9014133591
 20
378.1923387636
 10
86.9014133296
 20
377.6407906314
 10
86.9014133011
 20
377.0970276197
 10
86.9014132734
 20
376.5614223965
 10
86.9014132467
 20
376.0343420388
 10
86.9014132209
 20
375.5161477813
 10
86.901413196
 20
375.0071947685
 10
86.901413172
 20
374.5078318111
 10
86.9014131491
 20
374.0184011478
 10
86.9014131271
 20
373.5392382098
 10
86.9014131062
 20
373.0706713914
 10
86.9014130862
 20
372.6130218251
 10
86.9014130673
 20
372.1666031608
 10
86.9014130494
 20
371.7317213517
 10
86.9014130326
 20
371.308674444
 10
86.9014130169
 20
370.897752373
 10
86.9014130022
 20
370.4992367641
 10
86.9014129887
 20
370.1134007399
 10
86.9014129762
 20
369.7405087334
 10
86.9014129649
 20
369.3808163059
 10
86.9014129546
 20
369.0345699728
 10
86.9014129455
 20
368.7020070339
 10
86.9014129375
 20
368.3833554113
 10
86.9014129307
 20
368.0788334929
 10
86.901412925
 20
367.7886499828
 10
86.9014129204
 20
367.5130037583
 10
86.901412917
 20
367.2520837335
 10
86.9014129147
 20
367.0060687301
 10
86.9014129136
 20
366.7751273543
 10
86.9014129136
 20
366.5594178819
 10
86.9014129148
 20
366.3590881493
 10
86.9014129171
 20
366.1742754526
 10
86.9014129206
 20
366.0051064532
 10
86.9014129252
 20
365.851697091
 10
86.901412931
 20
365.7141525052
 10
86.9014129379
 20
365.5925669618
 10
86.9014129459
 20
365.4870237897
 10
86.9014129551
 20
365.3975953228
 10
86.9014129654
 20
365.3243428509
 10
86.9014129768
 20
365.2673165776
 10
86.9014129894
 20
365.2265555859
 10
86.901413003
 20
365.2020878113
 10
86.9014130177
 20
365.1939300228
  0
SPLINE
  5
B3
330
1F
100
AcDbEntity
  8
0
  6
Continuous
 62
     7
370
    30
100
AcDbSpline
210
0.0
220
0.0
230
1.0
 70
     8
 71
     3
 72
    45
 73
    41
 74
     0
 42
0.000000001
 43
0.00000001
 40
0.0
 40
0.0
 40
0.0
 40
0.0
 40
0.0259438367548075
 40
0.0519090951647117
 40
0.0778739239273123
 40
0.1038171743138984
 40
0.130493269695596
 40
0.1571936829269459
 40
0.1838936370836067
 40
0.2105691058817226
 40
0.2365215267233527
 40
0.2624971888581054
 40
0.2884725209173289
 40
0.3144244912518336
 40
0.3411685571016176
 40
0.3679387288609434
 40
0.3947086868126359
 40
0.4214524608215303
 40
0.4467702169820061
 40
0.4721103591208546
 40
0.4974504886241118
 40
0.5227682275389988
 40
0.5488369755730822
 40
0.574930030928151
 40
0.6010232516032716
 40
0.6270922252837315
 40
0.652171506854879
 40
0.6772719867860021
 40
0.7023727347586601
 40
0.7274523821492264
 40
0.753232254175815
 40
0.7790344189394899
 40
0.8048369718395136
 40
0.8306173735991667
 40
0.8588008370237423
 40
0.8870387020754938
 40
0.9153052796495743
 40
0.9435732613824858
 40
0.9718143699898849
 40
1.0
 40
1.0
 40
1.0
 40
1.0
 10
27.85455230654232
 20
384.3000001422743
 30
0.0
 10
27.86572678968326
 20
384.2463447070902
 30
0.0
 10
27.88808498266224
 20
384.1389895337826
 30
0.0
 10
27.91985778927691
 20
383.9778374093292
 30
0.0
 10
27.95025695077227
 20
383.8169477658205
 30
0.0
 10
27.97935595396266
 20
383.6550972556885
 30
0.0
 10
28.0070687556576
 20
383.4925453308207
 30
0.0
 10
28.03328550579351
 20
383.3295689992494
 30
0.0
 10
28.0576861908136
 20
383.1680168482233
 30
0.0
 10
28.07999601382983
 20
383.0096850535991
 30
0.0
 10
28.10021087874352
 20
382.8547845690572
 30
0.0
 10
28.11836387577367
 20
382.7034690835763
 30
0.0
 10
28.13459548766005
 20
382.5546313662794
 30
0.0
 10
28.14900177828172
 20
382.4071106658911
 30
0.0
 10
28.16146159937821
 20
382.2612658483187
 30
0.0
 10
28.17188872327796
 20
382.1174371303402
 30
0.0
 10
28.18013308033938
 20
381.9774021113697
 30
0.0
 10
28.18605638784791
 20
381.8439096116004
 30
0.0
 10
28.18976201714524
 20
381.7169642168832
 30
0.0
 10
28.19139431129036
 20
381.5964491328247
 30
0.0
 10
28.19102128731762
 20
381.4802659051826
 30
0.0
 10
28.18861603610154
 20
381.3675581725903
 30
0.0
 10
28.18409608850912
 20
381.2586900298753
 30
0.0
 10
28.17741879666935
 20
381.1539603605957
 30
0.0
 10
28.16865276229051
 20
381.0546295610815
 30
0.0
 10
28.15795517920992
 20
380.9620990657934
 30
0.0
 10
28.14542530712934
 20
380.8762953076412
 30
0.0
 10
28.13119298504574
 20
380.7970274226155
 30
0.0
 10
28.11513635880622
 20
380.7233096472237
 30
0.0
 10
28.09712719255529
 20
380.6546440437282
 30
0.0
 10
28.07712970095819
 20
380.5913351400343
 30
0.0
 10
28.0551421538133
 20
380.5335991564199
 30
0.0
 10
28.03140717740322
 20
380.4820925925517
 30
0.0
 10
28.0051953031139
 20
380.435486475933
 30
0.0
 10
27.97633668340521
 20
380.3945995250443
 30
0.0
 10
27.94471017279868
 20
380.3601651167668
 30
0.0
 10
27.91126177732653
 20
380.3332986912482
 30
0.0
 10
27.87607157848189
 20
380.3142159493261
 30
0.0
 10
27.83939220799454
 20
380.3022332692692
 30
0.0
 10
27.81365457253603
 20
380.3007440298639
 30
0.0
 10
27.80079840738911
 20
380.3000001422691
 30
0.0
  0
ARC
  5
B4
330
1F
100
AcDbEntity
  8
0
  6
Continuous
 62
     7
370
    30
100
AcDbCircle
 10
50.1516502695
 20
388.9999974244
 30
0.0
 40
22.78706984286028
100
AcDbArc
 50
144.3949744474
 51
191.9031043982
  0
SPLINE
  5
B5
330
1F
100
AcDbEntity
  8
0
  6
Continuous
 62
     7
370
    30
100
AcDbSpline
210
0.0
220
0.0
230
1.0
 70
     8
 71
     3
 72
    54
 73
    50
 74
     0
 42
0.000000001
 43
0.00000001
 40
0.0
 40
0.0
 40
0.0
 40
0.0
 40
0.0161724096901012
 40
0.0323448334719041
 40
0.0505139118384281
 40
0.0686899405830623
 40
0.0868592930996533
 40
0.1054115349195966
 40
0.1239707633876835
 40
0.1425235024843811
 40
0.1594034583868869
 40
0.1762835285967699
 40
0.1979020546985306
 40
0.2195208990957879
 40
0.2413983388394053
 40
0.2632917115565115
 40
0.285186784040463
 40
0.3070665433031039
 40
0.3291974799318796
 40
0.3513286876174083
 40
0.3716527112253936
 40
0.3919815452591341
 40
0.4123061265132807
 40
0.4328383090071681
 40
0.4533747293676724
 40
0.4739073627137972
 40
0.4947282235348144
 40
0.5155529151216932
 40
0.5363741367645781
 40
0.5573827765826939
 40
0.5783948893567339
 40
0.5994038066734947
 40
0.6194443826079991
 40
0.6394850092161946
 40
0.6618154406920455
 40
0.6841494235167174
 40
0.7064800608531777
 40
0.7305920699923281
 40
0.7547082277369613
 40
0.7788204219195746
 40
0.8031325954842048
 40
0.8274487901661391
 40
0.8517610751735307
 40
0.8763653472959588
 40
0.9009736490152729
 40
0.9255779697822246
 40
0.9503839583515925
 40
0.9751940214913406
 40
1.0
 40
1.0
 40
1.0
 40
1.0
 10
36.00066561970299
 20
408.6540729739835
 30
0.0
 10
36.00028230796836
 20
408.6435226480411
 30
0.0
 10
35.99951568416511
 20
408.6224219869636
 30
0.0
 10
35.99309120930809
 20
408.5841205016799
 30
0.0
 10
35.98217338359684
 20
408.5400129051787
 30
0.0
 10
35.96583388965759
 20
408.4891941124672
 30
0.0
 10
35.94453230752591
 20
408.4331806929131
 30
0.0
 10
35.91818172007452
 20
408.3719187306972
 30
0.0
 10
35.88682753977952
 20
408.3054736788406
 30
0.0
 10
35.85186762203266
 20
408.2365541953238
 30
0.0
 10
35.81390754956802
 20
408.1657745435998
 30
0.0
 10
35.76975353066193
 20
408.0869631382106
 30
0.0
 10
35.71706366822131
 20
407.9967555518276
 30
0.0
 10
35.65451201936455
 20
407.8936887041842
 30
0.0
 10
35.58642354981367
 20
407.7850193022903
 30
0.0
 10
35.5130394178401
 20
407.6709656625989
 30
0.0
 10
35.4349525326851
 20
407.5522625192413
 30
0.0
 10
35.35214807425957
 20
407.4287161373981
 30
0.0
 10
35.26484835444244
 20
407.3005117664216
 30
0.0
 10
35.17577016193751
 20
407.1714389703986
 30
0.0
 10
35.08584639431913
 20
407.0425496366132
 30
0.0
 10
34.9956150525101
 20
406.9143641766928
 30
0.0
 10
34.90236278269889
 20
406.782888150674
 30
0.0
 10
34.80624165447349
 20
406.648238436724
 30
0.0
 10
34.70739913520016
 20
406.5105349129315
 30
0.0
 10
34.60585528192707
 20
406.3697174115941
 30
0.0
 10
34.50173657746264
 20
406.2258781473753
 30
0.0
 10
34.39516378522228
 20
406.0791125894711
 30
0.0
 10
34.28644160068669
 20
405.9297649817709
 30
0.0
 10
34.17569343031813
 20
405.7779302265052
 30
0.0
 10
34.0630339788776
 20
405.6237046108612
 30
0.0
 10
33.95067347457255
 20
405.470048094485
 30
0.0
 10
33.83881039442192
 20
405.3171649272044
 30
0.0
 10
33.72336953446496
 20
405.1594393001497
 30
0.0
 10
33.60252389110052
 20
404.9943279238824
 30
0.0
 10
33.47625413628204
 20
404.8217546571033
 30
0.0
 10
33.34556688169571
 20
404.6430430773756
 30
0.0
 10
33.21048363235593
 20
404.4581599404855
 30
0.0
 10
33.07104377907512
 20
404.2671032939763
 30
0.0
 10
32.93039303633311
 20
404.0741355429436
 30
0.0
 10
32.78864452352162
 20
403.8793668212148
 30
0.0
 10
32.64590345658433
 20
403.6829139345828
 30
0.0
 10
32.50209575601974
 20
403.4846466703341
 30
0.0
 10
32.3573230954164
 20
403.2846738541178
 30
0.0
 10
32.21168312066057
 20
403.0831140131971
 30
0.0
 10
32.06545225760576
 20
402.8803382580846
 30
0.0
 10
31.91873450788009
 20
402.676465001212
 30
0.0
 10
31.77160710117188
 20
402.4716381221807
 30
0.0
 10
31.673619680909
 20
402.3348751568651
 30
0.0
 10
31.62463000417533
 20
402.2664993036996
 30
0.0
  0
LINE
  5
B6
330
1F
100
AcDbEntity
  8
0
  6
Continuous
 62
     7
370
    30
100
AcDbLine
 10
36.0006656197
 20
408.654072974
 30
0.0
 11
36.0006656197
 21
409.0000001423
 31
0.0
  0
LINE
  5
B7
330
1F
100
AcDbEntity
  8
0
  6
Continuous
 62
     7
370
    30
100
AcDbLine
 10
27.2483625625
 20
380.3000001423
 30
0.0
 11
27.8007984074
 21
380.3000001423
 31
0.0
  0
LINE
  5
B8
330
1F
100
AcDbEntity
  8
0
  6
Continuous
 62
   252
370
     0
100
AcDbLine
 10
100.2385488437
 20
389.0
 30
0.0
 11
100.2385488437
 21
304.0
 31
0.0
  0
LINE
  5
B9
330
1F
100
AcDbEntity
  8
0
  6
Continuous
 62
   252
370
     0
100
AcDbLine
 10
100.2385488437
 20
474.0
 30
0.0
 11
100.2385488437
 21
389.0
 31
0.0
  0
LINE
  5
BA
330
1F
100
AcDbEntity
  8
0
  6
Continuous
 62
   252
370
     0
100
AcDbLine
 10
90.5115003916
 20
389.0
 30
0.0
 11
90.5115003908
 21
304.2547117279
 31
0.0
  0
LINE
  5
BB
330
1F
100
AcDbEntity
  8
0
  6
Continuous
 62
   252
370
     0
100
AcDbLine
 10
90.5115003925
 20
473.7452882721
 30
0.0
 11
90.5115003916
 21
389.0
 31
0.0
  0
LINE
  5
BC
330
1F
100
AcDbEntity
  8
0
  6
Continuous
 62
   252
370
     0
100
AcDbLine
 10
88.5657719782
 20
389.0
 30
0.0
 11
88.5657719774
 21
306.166464501
 31
0.0
  0
LINE
  5
BD
330
1F
100
AcDbEntity
  8
0
  6
Continuous
 62
   252
370
     0
100
AcDbLine
 10
88.565771979
 20
471.833535499
 30
0.0
 11
88.5657719782
 21
389.0
 31
0.0
  0
LINE
  5
BE
330
1F
100
AcDbEntity
  8
0
  6
Continuous
 62
   252
370
     0
100
AcDbLine
 10
41.7674160063
 20
412.0207480233
 30
0.0
 11
41.7674160063
 21
365.9792522613
 31
0.0
  0
ARC
  5
BF
330
1F
100
AcDbEntity
  8
0
  6
Continuous
 62
     7
370
    30
100
AcDbCircle
 10
185.4998286625
 20
249.2516373178
 30
0.0
 40
0.5
100
AcDbArc
 50
90.0
 51
181.5
  0
ARC
  5
C0
330
1F
100
AcDbEntity
  8
0
  6
Continuous
 62
     7
370
    30
100
AcDbCircle
 10
354.5001713375
 20
249.2516373178
 30
0.0
 40
0.5000000000000143
100
AcDbArc
 50
358.5
 51
90.0
  0
LINE
  5
C1
330
1F
100
AcDbEntity
  8
0
  6
Continuous
 62
     7
370
    30
100
AcDbLine
 10
185.0
 20
249.2385488437
 30
0.0
 11
185.2547117279
 21
239.5115003916
 31
0.0
  0
LINE
  5
C2
330
1F
100
AcDbEntity
  8
0
  6
Continuous
 62
     7
370
    30
100
AcDbLine
 10
354.7452882721
 20
239.5115003916
 30
0.0
 11
355.0
 21
249.2385488437
 31
0.0
  0
ARC
  5
C3
330
1F
100
AcDbEntity
  8
0
  6
Continuous
 62
     7
370
    30
100
AcDbCircle
 10
352.7459736222
 20
239.5638542882
 30
0.0
 40
2.000000000000018
100
AcDbArc
 50
272.5092650435
 51
358.5000000004
  0
ARC
  5
C4
330
1F
100
AcDbEntity
  8
0
  6
Continuous
 62
     7
370
    30
100
AcDbCircle
 10
187.2540263778
 20
239.5638542882
 30
0.0
 40
2.000000000000024
100
AcDbArc
 50
181.4999999996
 51
267.4907349565
  0
ARC
  5
C5
330
1F
100
AcDbEntity
  8
0
  6
Continuous
 62
     7
370
    30
100
AcDbCircle
 10
270.0
 20
2127.7516372778
 30
0.0
 40
1892.0
100
AcDbArc
 50
267.4907349535
 51
269.2790522422
  0
ARC
  5
C6
330
1F
100
AcDbEntity
  8
0
  6
Continuous
 62
     7
370
    30
100
AcDbCircle
 10
270.0
 20
2127.7516372778
 30
0.0
 40
1892.0
100
AcDbArc
 50
270.7209449535
 51
272.5092650465
  0
ARC
  5
C7
330
1F
100
AcDbEntity
  8
0
  6
Continuous
 62
     7
370
    30
100
AcDbCircle
 10
247.0732143553
 20
190.8016373178
 30
0.0
 40
0.1000000000000268
100
AcDbArc
 50
137.0663979575
 51
200.0117664589
  0
ARC
  5
C8
330
1F
100
AcDbEntity
  8
0
  6
Continuous
 62
     7
370
    30
100
AcDbCircle
 10
292.9267856447
 20
190.8016373178
 30
0.0
 40
0.0999999999999938
100
AcDbArc
 50
339.988233541
 51
42.9336020425
  0
ARC
  5
C9
330
1F
100
AcDbEntity
  8
0
  6
Continuous
 62
     7
370
    30
100
AcDbCircle
 10
270.0
 20
199.1516373178
 30
0.0
 40
24.50000000000448
100
AcDbArc
 50
200.0117664665
 51
248.4479106727
  0
ARC
  5
CA
330
1F
100
AcDbEntity
  8
0
  6
Continuous
 62
     7
370
    30
100
AcDbCircle
 10
270.0
 20
199.1516373178
 30
0.0
 40
24.50000000000456
100
AcDbArc
 50
291.5520892476
 51
339.9882335335
  0
ARC
  5
CB
330
1F
100
AcDbEntity
  8
0
  6
Continuous
 62
     7
370
    30
100
AcDbCircle
 10
270.0
 20
210.4508179957
 30
0.0
 40
32.95523042541686
100
AcDbArc
 50
254.1513141936
 51
270.0
  0
ARC
  5
CC
330
1F
100
AcDbEntity
  8
0
  6
Continuous
 62
     7
370
    30
100
AcDbCircle
 10
270.0
 20
210.4508179957
 30
0.0
 40
32.95523042541686
100
AcDbArc
 50
270.0
 51
285.8486858064
  0
LINE
  5
CD
330
1F
100
AcDbEntity
  8
0
  6
Continuous
 62
     7
370
    30
100
AcDbLine
 10
247.0
 20
235.9014147498
 30
0.0
 11
247.0
 21
190.8697523542
 31
0.0
  0
LINE
  5
CE
330
1F
100
AcDbEntity
  8
0
  6
Continuous
 62
     7
370
    30
100
AcDbLine
 10
293.0
 20
190.8697523542
 30
0.0
 11
293.0
 21
235.9014136241
 31
0.0
  0
LINE
  5
CF
330
1F
100
AcDbEntity
  8
0
  6
Continuous
 62
     7
370
    30
100
AcDbLine
 10
185.4998286625
 20
249.7516373178
 30
0.0
 11
354.5001713375
 21
249.7516373178
 31
0.0
  0
LWPOLYLINE
  5
D0
330
1F
100
AcDbEntity
  8
0
  6
Continuous
 62
     7
370
    30
100
AcDbPolyline
 90
       11
 70
   128
 43
0.0
 10
293.8061488964
 20
235.901414011
 10
293.7979911082
 20
235.90141397
 10
293.7735233336
 20
235.9014139293
 10
293.7327623418
 20
235.9014138892
 10
293.6757360686
 20
235.9014138495
 10
293.6024835967
 20
235.9014138103
 10
293.5130551298
 20
235.9014137717
 10
293.4075119576
 20
235.9014137336
 10
293.2859264143
 20
235.9014136961
 10
293.1483818285
 20
235.9014136592
 10
293.0
 20
235.9014136241
  0
LWPOLYLINE
  5
D1
330
1F
100
AcDbEntity
  8
0
  6
Continuous
 62
     7
370
    30
100
AcDbPolyline
 90
       11
 70
   128
 43
0.0
 10
247.0
 20
235.9014147498
 10
246.8515255774
 20
235.9014147922
 10
246.7139809915
 20
235.9014148358
 10
246.5923954482
 20
235.9014148792
 10
246.4868522761
 20
235.9014149225
 10
246.3974238092
 20
235.9014149655
 10
246.3241713373
 20
235.9014150082
 10
246.267145064
 20
235.9014150507
 10
246.2263840723
 20
235.9014150929
 10
246.2019162977
 20
235.9014151347
 10
246.1937585095
 20
235.9014151762
  0
SPLINE
  5
D2
330
1F
100
AcDbEntity
  8
0
  6
Continuous
 62
     7
370
    30
100
AcDbSpline
210
0.0
220
0.0
230
1.0
 70
     8
 71
     3
 72
    45
 73
    41
 74
     0
 42
0.000000001
 43
0.00000001
 40
0.0
 40
0.0
 40
0.0
 40
0.0
 40
0.0259438367548075
 40
0.0519090951647117
 40
0.0778739239273123
 40
0.1038171743138984
 40
0.130493269695596
 40
0.1571936829269459
 40
0.1838936370836067
 40
0.2105691058817226
 40
0.2365215267233527
 40
0.2624971888581054
 40
0.2884725209173289
 40
0.3144244912518336
 40
0.3411685571016176
 40
0.3679387288609434
 40
0.3947086868126359
 40
0.4214524608215303
 40
0.4467702169820061
 40
0.4721103591208546
 40
0.4974504886241118
 40
0.5227682275389987
 40
0.5488369755730821
 40
0.5749300309281509
 40
0.6010232516032715
 40
0.6270922252837314
 40
0.6521715068548789
 40
0.677271986786002
 40
0.7023727347586598
 40
0.7274523821492263
 40
0.7532322541758149
 40
0.7790344189394897
 40
0.8048369718395136
 40
0.8306173735991664
 40
0.8588008370237423
 40
0.8870387020754936
 40
0.9153052796495742
 40
0.9435732613824858
 40
0.9718143699898849
 40
0.9999999999999999
 40
0.9999999999999999
 40
0.9999999999999999
 40
0.9999999999999999
 10
279.0
 20
176.8545523065423
 30
0.0
 10
278.9993733084524
 20
176.8657267896833
 30
0.0
 10
278.9981194079021
 20
176.8880849826622
 30
0.0
 10
278.9879934755643
 20
176.9198577892769
 30
0.0
 10
278.9718314613129
 20
176.9502569507723
 30
0.0
 10
278.9488119746866
 20
176.9793559539626
 30
0.0
 10
278.9188253767253
 20
177.0070687556576
 30
0.0
 10
278.8816676036403
 20
177.0332855057935
 30
0.0
 10
278.8376865906125
 20
177.0576861908136
 30
0.0
 10
278.7873836637127
 20
177.0799960138299
 30
0.0
 10
278.7309692380385
 20
177.1002108787435
 30
0.0
 10
278.6687579233916
 20
177.1183638757737
 30
0.0
 10
278.6003486386204
 20
177.13459548766
 30
0.0
 10
278.5250924262818
 20
177.1490017782817
 30
0.0
 10
278.4428123797253
 20
177.1614615993782
 30
0.0
 10
278.3534608943761
 20
177.1718887232779
 30
0.0
 10
278.2580607834116
 20
177.1801330803394
 30
0.0
 10
278.1586005449236
 20
177.1860563878479
 30
0.0
 10
278.0555507719016
 20
177.1897620171452
 30
0.0
 10
277.9494366645889
 20
177.1913943112904
 30
0.0
 10
277.8385852201254
 20
177.1910212873176
 30
0.0
 10
277.7220740245646
 20
177.1886160361016
 30
0.0
 10
277.5998837961268
 20
177.1840960885091
 30
0.0
 10
277.4720985582969
 20
177.1774187966693
 30
0.0
 10
277.3401948213618
 20
177.1686527622905
 30
0.0
 10
277.2061716910642
 20
177.1579551792099
 30
0.0
 10
277.0703872677386
 20
177.1454253071294
 30
0.0
 10
276.9332175436023
 20
177.1311929850457
 30
0.0
 10
276.7931835952429
 20
177.1151363588062
 30
0.0
 10
276.6492353666633
 20
177.0971271925553
 30
0.0
 10
276.5014813233518
 20
177.0771297009582
 30
0.0
 10
276.350091069924
 20
177.0551421538133
 30
0.0
 10
276.1967289955718
 20
177.0314071774032
 30
0.0
 10
276.0368930789721
 20
177.0051953031139
 30
0.0
 10
275.8705579233857
 20
176.9763366834052
 30
0.0
 10
275.6978249112905
 20
176.9447101727987
 30
0.0
 10
275.5239053468081
 20
176.9112617773265
 30
0.0
 10
275.3493147560953
 20
176.8760715784819
 30
0.0
 10
275.1745306198495
 20
176.8393922079945
 30
0.0
 10
275.0581387279031
 20
176.813654572536
 30
0.0
 10
275.0000000000065
 20
176.8007984073891
 30
0.0
  0
LINE
  5
D3
330
1F
100
AcDbEntity
  8
0
  6
Continuous
 62
     7
370
    30
100
AcDbLine
 10
279.0
 20
176.3645800071
 30
0.0
 11
279.0
 21
180.6246300042
 31
0.0
  0
SPLINE
  5
D4
330
1F
100
AcDbEntity
  8
0
  6
Continuous
 62
     7
370
    30
100
AcDbSpline
210
0.0
220
0.0
230
1.0
 70
     8
 71
     3
 72
    54
 73
    50
 74
     0
 42
0.000000001
 43
0.00000001
 40
0.0
 40
0.0
 40
0.0
 40
0.0
 40
0.0161724096901012
 40
0.0323448334719041
 40
0.0505139118384281
 40
0.0686899405830623
 40
0.0868592930996533
 40
0.1054115349195966
 40
0.1239707633876835
 40
0.1425235024843811
 40
0.1594034583868869
 40
0.1762835285967699
 40
0.1979020546985306
 40
0.2195208990957879
 40
0.2413983388394053
 40
0.2632917115565115
 40
0.285186784040463
 40
0.3070665433031039
 40
0.3291974799318796
 40
0.3513286876174083
 40
0.3716527112253936
 40
0.3919815452591341
 40
0.4123061265132807
 40
0.4328383090071681
 40
0.4533747293676724
 40
0.4739073627137972
 40
0.4947282235348144
 40
0.5155529151216932
 40
0.5363741367645781
 40
0.5573827765826939
 40
0.5783948893567339
 40
0.5994038066734947
 40
0.6194443826079991
 40
0.6394850092161946
 40
0.6618154406920455
 40
0.6841494235167174
 40
0.7064800608531777
 40
0.7305920699923281
 40
0.7547082277369613
 40
0.7788204219195746
 40
0.8031325954842048
 40
0.8274487901661391
 40
0.8517610751735307
 40
0.8763653472959588
 40
0.9009736490152729
 40
0.9255779697822246
 40
0.9503839583515925
 40
0.9751940214913406
 40
1.0
 40
1.0
 40
1.0
 40
1.0
 10
273.7037037037027
 20
185.000665619703
 30
0.0
 10
273.7575210397587
 20
185.0002823079683
 30
0.0
 10
273.8651557587641
 20
184.9995156841651
 30
0.0
 10
274.0320308091969
 20
184.9930912093081
 30
0.0
 10
274.2042512983882
 20
184.9821733835969
 30
0.0
 10
274.3812750123988
 20
184.9658338896576
 30
0.0
 10
274.5575589278682
 20
184.9445323075259
 30
0.0
 10
274.7327919144645
 20
184.9181817200745
 30
0.0
 10
274.9067004358997
 20
184.8868275397795
 30
0.0
 10
275.0727145355356
 20
184.8518676220326
 30
0.0
 10
275.2309088239581
 20
184.813907549568
 30
0.0
 10
275.3955655540327
 20
184.7697535306619
 30
0.0
 10
275.5706774523646
 20
184.7170636682213
 30
0.0
 10
275.7557157227033
 20
184.6545120193645
 30
0.0
 10
275.9366630908914
 20
184.5864235498137
 30
0.0
 10
276.1133213196281
 20
184.5130394178401
 30
0.0
 10
276.2848315787132
 20
184.4349525326851
 30
0.0
 10
276.4516902345823
 20
184.3521480742596
 30
0.0
 10
276.6137466629889
 20
184.2648483544424
 30
0.0
 10
276.7666678172199
 20
184.1757701619375
 30
0.0
 10
276.9103224791082
 20
184.0858463943191
 30
0.0
 10
277.0451936525702
 20
183.9956150525101
 30
0.0
 10
277.1758582736295
 20
183.9023627826989
 30
0.0
 10
277.3022611991406
 20
183.8062416544735
 30
0.0
 10
277.4243639862828
 20
183.7073991352001
 30
0.0
 10
277.5423043069702
 20
183.6058552819271
 30
0.0
 10
277.6560205197698
 20
183.5017365774626
 30
0.0
 10
277.7654604619727
 20
183.3951637852223
 30
0.0
 10
277.8704344524958
 20
183.2864416006867
 30
0.0
 10
277.9709139216517
 20
183.1756934303181
 30
0.0
 10
278.0668757208254
 20
183.0630339788776
 30
0.0
 10
278.1566438546902
 20
182.9506734745726
 30
0.0
 10
278.2404885584902
 20
182.8388103944219
 30
0.0
 10
278.3216618069585
 20
182.723369534465
 30
0.0
 10
278.4009218777955
 20
182.6025238911005
 30
0.0
 10
278.4776672173632
 20
182.4762541362821
 30
0.0
 10
278.5510139691478
 20
182.3455668816957
 30
0.0
 10
278.6204764703245
 20
182.2104836323559
 30
0.0
 10
278.6855565190004
 20
182.0710437790751
 30
0.0
 10
278.7446805749897
 20
181.9303930363331
 30
0.0
 10
278.7977991263689
 20
181.7886445235216
 30
0.0
 10
278.8448667583255
 20
181.6459034565843
 30
0.0
 10
278.8859076220315
 20
181.5020957560197
 30
0.0
 10
278.9208374295047
 20
181.3573230954164
 30
0.0
 10
278.9495627031222
 20
181.2116831206606
 30
0.0
 10
278.9720461117608
 20
181.0654522576058
 30
0.0
 10
278.988059585582
 20
180.9187345078801
 30
0.0
 10
278.9981292692709
 20
180.7716071011719
 30
0.0
 10
278.9993764573152
 20
180.673619680909
 30
0.0
 10
279.0
 20
180.6246300041753
 30
0.0
  0
LINE
  5
D5
330
1F
100
AcDbEntity
  8
0
  6
Continuous
 62
     7
370
    30
100
AcDbLine
 10
273.7037037037
 20
185.0006656197
 30
0.0
 11
266.2962962963
 21
185.0006656197
 31
0.0
  0
SPLINE
  5
D6
330
1F
100
AcDbEntity
  8
0
  6
Continuous
 62
     7
370
    30
100
AcDbSpline
210
0.0
220
0.0
230
1.0
 70
     8
 71
     3
 72
    53
 73
    49
 74
     0
 42
0.000000001
 43
0.00000001
 40
0.0
 40
0.0
 40
0.0
 40
0.0
 40
0.0161724396658351
 40
0.0323448934233981
 40
0.0505140054665027
 40
0.0686900679006
 40
0.0868594540942797
 40
0.1054117303010011
 40
0.123970993168816
 40
0.1425237666532134
 40
0.1594037538428976
 40
0.1762838553401709
 40
0.1979024215121003
 40
0.2195213059801163
 40
0.2413987862738017
 40
0.2632921995705077
 40
0.2851873126372096
 40
0.3070671124542177
 40
0.3291980901029206
 40
0.3513293388088788
 40
0.3716534000876587
 40
0.3919822718011099
 40
0.4123068907270847
 40
0.4328391112775914
 40
0.4533755697025699
 40
0.4739082411061496
 40
0.4947291405188544
 40
0.5155538707045207
 40
0.5363751309397622
 40
0.557383809697616
 40
0.5783959614178312
 40
0.5994049176748447
 40
0.624759126022574
 40
0.6501188197264743
 40
0.6754734425371308
 40
0.7010823453116285
 40
0.7266963742664884
 40
0.752305558683712
 40
0.7782808676870315
 40
0.8042611665182122
 40
0.8302366525498743
 40
0.8564610322649392
 40
0.8826903277840583
 40
0.9089147916795325
 40
0.9259749928594143
 40
0.9430351952343198
 40
0.9715176017724069
 40
1.0
 40
1.0
 40
1.0
 40
1.0
 10
266.2962962962973
 20
185.000665619703
 30
0.0
 10
266.2424789602413
 20
185.0002823079683
 30
0.0
 10
266.134844241236
 20
184.9995156841651
 30
0.0
 10
265.9679691908031
 20
184.9930912093081
 30
0.0
 10
265.7957487016118
 20
184.9821733835968
 30
0.0
 10
265.6187249876012
 20
184.9658338896576
 30
0.0
 10
265.4424410721318
 20
184.9445323075259
 30
0.0
 10
265.2672080855355
 20
184.9181817200745
 30
0.0
 10
265.0932995641004
 20
184.8868275397795
 30
0.0
 10
264.9272854644644
 20
184.8518676220326
 30
0.0
 10
264.7690911760419
 20
184.813907549568
 30
0.0
 10
264.6044344459674
 20
184.7697535306619
 30
0.0
 10
264.4293225476355
 20
184.7170636682213
 30
0.0
 10
264.2442842772967
 20
184.6545120193645
 30
0.0
 10
264.0633369091086
 20
184.5864235498137
 30
0.0
 10
263.8866786803719
 20
184.5130394178401
 30
0.0
 10
263.7151684212868
 20
184.4349525326851
 30
0.0
 10
263.5483097654177
 20
184.3521480742595
 30
0.0
 10
263.3862533370111
 20
184.2648483544424
 30
0.0
 10
263.2333321827801
 20
184.1757701619375
 30
0.0
 10
263.0896775208917
 20
184.085846394319
 30
0.0
 10
262.9548063474302
 20
183.9956150525106
 30
0.0
 10
262.8241417263691
 20
183.902362782697
 30
0.0
 10
262.6977388008647
 20
183.8062416544807
 30
0.0
 10
262.5756360136975
 20
183.7073991351732
 30
0.0
 10
262.4576956931042
 20
183.6058552820281
 30
0.0
 10
262.3439794799488
 20
183.5017365770795
 30
0.0
 10
262.2345395390773
 20
183.3951637866517
 30
0.0
 10
262.1295655435714
 20
183.286441595333
 30
0.0
 10
262.029086093174
 20
183.1756934505001
 30
0.0
 10
261.9331242238545
 20
183.063033903571
 30
0.0
 10
261.8356706091578
 20
182.9410537078231
 30
0.0
 10
261.7379183044972
 20
182.8095276834004
 30
0.0
 10
261.6411526979943
 20
182.668287970819
 30
0.0
 10
261.5509587972418
 20
182.5250091904441
 30
0.0
 10
261.4673890462108
 20
182.3798524910628
 30
0.0
 10
261.3904914677532
 20
182.2329650664234
 30
0.0
 10
261.320185066344
 20
182.0842814981377
 30
0.0
 10
261.2565692097439
 20
181.9339381544693
 30
0.0
 10
261.1997392634318
 20
181.7820631006596
 30
0.0
 10
261.1498233959322
 20
181.6290184471763
 30
0.0
 10
261.106898703652
 20
181.4749341782222
 30
0.0
 10
261.0710317377888
 20
181.319932623012
 30
0.0
 10
261.0457091402746
 20
181.1827169576559
 30
0.0
 10
261.0282639313004
 20
181.0634899264555
 30
0.0
 10
261.0139833554331
 20
180.9397506096015
 30
0.0
 10
261.0024589915748
 20
180.7933907516017
 30
0.0
 10
261.0008196637786
 20
180.6808835811796
 30
0.0
 10
261.0
 20
180.6246300041753
 30
0.0
  0
LINE
  5
D7
330
1F
100
AcDbEntity
  8
0
  6
Continuous
 62
     7
370
    30
100
AcDbLine
 10
261.0
 20
180.6246300042
 30
0.0
 11
261.0
 21
176.3645800999
 31
0.0
  0
SPLINE
  5
D8
330
1F
100
AcDbEntity
  8
0
  6
Continuous
 62
     7
370
    30
100
AcDbSpline
210
0.0
220
0.0
230
1.0
 70
     8
 71
     3
 72
    45
 73
    41
 74
     0
 42
0.000000001
 43
0.00000001
 40
0.0
 40
0.0
 40
0.0
 40
0.0
 40
0.0259438367548414
 40
0.0519090951647829
 40
0.0778739239274416
 40
0.1038171743140902
 40
0.1304932696958045
 40
0.1571936829271708
 40
0.1838936370838481
 40
0.210569105881981
 40
0.236521526723629
 40
0.2624971888583997
 40
0.2884725209176408
 40
0.3144244912521635
 40
0.3411685571019677
 40
0.3679387288613135
 40
0.3947086868130261
 40
0.4214524608219404
 40
0.4467702169824132
 40
0.4721103591212586
 40
0.4974504886245124
 40
0.5227682275393967
 40
0.5488369755734762
 40
0.574930030928541
 40
0.6010232516036579
 40
0.6270922252841138
 40
0.6521715068552584
 40
0.6772719867863787
 40
0.7023727347590334
 40
0.7274523821495966
 40
0.7532322541761818
 40
0.7790344189398538
 40
0.8048369718398746
 40
0.8306173735995247
 40
0.8588008370240408
 40
0.8870387020757327
 40
0.9153052796497525
 40
0.9435732613826046
 40
0.9718143699899446
 40
0.9999999999999999
 40
0.9999999999999999
 40
0.9999999999999999
 40
0.9999999999999999
 10
260.9999999999884
 20
176.8545523065346
 30
0.0
 10
261.0006266915365
 20
176.8657267896758
 30
0.0
 10
261.0018805920877
 20
176.8880849826554
 30
0.0
 10
261.01200652443
 20
176.9198577892731
 30
0.0
 10
261.0281685386857
 20
176.9502569507714
 30
0.0
 10
261.0511880253139
 20
176.979355953963
 30
0.0
 10
261.0811746232748
 20
177.0070687556576
 30
0.0
 10
261.11833239636
 20
177.0332855057936
 30
0.0
 10
261.1623134093877
 20
177.0576861908137
 30
0.0
 10
261.2126163362877
 20
177.0799960138299
 30
0.0
 10
261.2690307619619
 20
177.1002108787436
 30
0.0
 10
261.3312420766089
 20
177.1183638757738
 30
0.0
 10
261.3996513613803
 20
177.1345954876601
 30
0.0
 10
261.474907573719
 20
177.1490017782818
 30
0.0
 10
261.5571876202756
 20
177.1614615993783
 30
0.0
 10
261.646539105625
 20
177.171888723278
 30
0.0
 10
261.7419392165895
 20
177.1801330803394
 30
0.0
 10
261.8413994550777
 20
177.186056387848
 30
0.0
 10
261.9444492280998
 20
177.1897620171453
 30
0.0
 10
262.0505633354126
 20
177.1913943112904
 30
0.0
 10
262.1614147798761
 20
177.1910212873176
 30
0.0
 10
262.2779259754371
 20
177.1886160361015
 30
0.0
 10
262.4001162038749
 20
177.1840960885091
 30
0.0
 10
262.5279014417048
 20
177.1774187966692
 30
0.0
 10
262.6598051786399
 20
177.1686527622903
 30
0.0
 10
262.7938283089376
 20
177.1579551792098
 30
0.0
 10
262.9296127322633
 20
177.1454253071292
 30
0.0
 10
263.0667824563996
 20
177.1311929850455
 30
0.0
 10
263.2068164047591
 20
177.115136358806
 30
0.0
 10
263.3507646333387
 20
177.097127192555
 30
0.0
 10
263.4985186766502
 20
177.0771297009579
 30
0.0
 10
263.649908930078
 20
177.055142153813
 30
0.0
 10
263.8032710044303
 20
177.0314071774029
 30
0.0
 10
263.9631069210299
 20
177.0051953031136
 30
0.0
 10
264.1294420766161
 20
176.9763366834048
 30
0.0
 10
264.3021750887109
 20
176.9447101727984
 30
0.0
 10
264.4760946531929
 20
176.9112617773263
 30
0.0
 10
264.6506852439055
 20
176.8760715784818
 30
0.0
 10
264.8254693801509
 20
176.8393922079945
 30
0.0
 10
264.9418612720971
 20
176.813654572536
 30
0.0
 10
264.9999999999936
 20
176.8007984073891
 30
0.0
  0
ARC
  5
D9
330
1F
100
AcDbEntity
  8
0
  6
Continuous
 62
     7
370
    30
100
AcDbCircle
 10
270.000042202
 20
199.1518309774
 30
0.0
 40
22.90347307653899
100
AcDbArc
 50
257.3902479309
 51
258.0230829441
  0
ARC
  5
DA
330
1F
100
AcDbEntity
  8
0
  6
Continuous
 62
     7
370
    30
100
AcDbCircle
 10
269.9999999423
 20
199.1516477628
 30
0.0
 40
22.90328508066147
100
AcDbArc
 50
258.0230912484
 51
282.6097492414
  0
LINE
  5
DB
330
1F
100
AcDbEntity
  8
0
  6
Continuous
 62
   252
370
     0
100
AcDbLine
 10
185.0
 20
249.2385488437
 30
0.0
 11
355.0
 21
249.2385488437
 31
0.0
  0
LINE
  5
DC
330
1F
100
AcDbEntity
  8
0
  6
Continuous
 62
   252
370
     0
100
AcDbLine
 10
185.2547117279
 20
239.5115003916
 30
0.0
 11
354.7452882721
 21
239.5115003916
 31
0.0
  0
LINE
  5
DD
330
1F
100
AcDbEntity
  8
0
  6
Continuous
 62
   252
370
     0
100
AcDbLine
 10
187.166464501
 20
237.5657719782
 30
0.0
 11
352.833535499
 21
237.5657719782
 31
0.0
  0
LWPOLYLINE
  5
DE
330
1F
100
AcDbEntity
  8
0
  6
Continuous
 62
   252
370
     0
100
AcDbPolyline
 90
       62
 70
   128
 43
0.0
 10
269.9999537029
 20
235.9014161695
 10
270.6231272439
 20
235.9014161537
 10
271.2458736929
 20
235.9014161368
 10
271.8677662506
 20
235.9014161189
 10
272.4883787028
 20
235.9014161
 10
273.1072857128
 20
235.90141608
 10
273.7240631127
 20
235.901416059
 10
274.338288194
 20
235.9014160369
 10
274.9495399976
 20
235.9014160139
 10
275.557399602
 20
235.9014159899
 10
276.1614504105
 20
235.901415965
 10
276.761278437
 20
235.9014159391
 10
277.3564725892
 20
235.9014159123
 10
277.9466249509
 20
235.9014158846
 10
278.531331061
 20
235.901415856
 10
279.1101901912
 20
235.9014158266
 10
279.6828056205
 20
235.9014157963
 10
280.2487849066
 20
235.9014157652
 10
280.8077401559
 20
235.9014157332
 10
281.3592882881
 20
235.9014157005
 10
281.9030512998
 20
235.9014156671
 10
282.438656523
 20
235.9014156329
 10
282.9657368807
 20
235.901415598
 10
283.4839311381
 20
235.9014155624
 10
283.992884151
 20
235.9014155261
 10
284.4922471084
 20
235.9014154892
 10
284.9816777717
 20
235.9014154517
 10
285.4608407097
 20
235.9014154136
 10
285.929407528
 20
235.9014153749
 10
286.3870570944
 20
235.9014153357
 10
286.8334757587
 20
235.901415296
 10
287.2683575678
 20
235.9014152558
 10
287.6914044755
 20
235.9014152151
 10
288.1023265465
 20
235.9014151741
 10
288.5008421554
 20
235.9014151326
 10
288.8866781795
 20
235.9014150907
 10
289.2595701861
 20
235.9014150486
 10
289.6192626136
 20
235.9014150061
 10
289.9655089467
 20
235.9014149633
 10
290.2980718856
 20
235.9014149203
 10
290.6167235082
 20
235.901414877
 10
290.9212454266
 20
235.9014148336
 10
291.2114289367
 20
235.9014147899
 10
291.4870751612
 20
235.9014147462
 10
291.747995186
 20
235.9014147023
 10
291.9940101894
 20
235.9014146584
 10
292.2249515652
 20
235.9014146145
 10
292.4406610376
 20
235.9014145705
 10
292.6409907702
 20
235.9014145265
 10
292.8258034668
 20
235.9014144826
 10
292.9949724663
 20
235.9014144387
 10
293.1483818285
 20
235.901414395
 10
293.2859264143
 20
235.9014143514
 10
293.4075119576
 20
235.9014143079
 10
293.5130551298
 20
235.9014142647
 10
293.6024835967
 20
235.9014142217
 10
293.6757360686
 20
235.9014141789
 10
293.7327623418
 20
235.9014141364
 10
293.7735233336
 20
235.9014140943
 10
293.7979911082
 20
235.9014140525
 10
293.8061488967
 20
235.901414011
 10
293.8061488964
 20
235.901414011
  0
LWPOLYLINE
  5
DF
330
1F
100
AcDbEntity
  8
0
  6
Continuous
 62
   252
370
     0
100
AcDbPolyline
 90
       62
 70
   128
 43
0.0
 10
246.1937585095
 20
235.9014151762
 10
246.1937585092
 20
235.9014151762
 10
246.2019162977
 20
235.9014152172
 10
246.2263840723
 20
235.9014152578
 10
246.267145064
 20
235.901415298
 10
246.3241713373
 20
235.9014153377
 10
246.3974238092
 20
235.9014153769
 10
246.4868522761
 20
235.9014154155
 10
246.5923954482
 20
235.9014154536
 10
246.7139809915
 20
235.9014154911
 10
246.8515255774
 20
235.901415528
 10
247.0049349396
 20
235.9014155642
 10
247.174103939
 20
235.9014155998
 10
247.3589166357
 20
235.9014156346
 10
247.5592463682
 20
235.9014156688
 10
247.7749558407
 20
235.9014157022
 10
248.0058972164
 20
235.9014157349
 10
248.2519122199
 20
235.9014157668
 10
248.5128322447
 20
235.9014157979
 10
248.7884784692
 20
235.9014158281
 10
249.0786619793
 20
235.9014158575
 10
249.3831838977
 20
235.9014158861
 10
249.7018355203
 20
235.9014159137
 10
250.0343984592
 20
235.9014159405
 10
250.3806447923
 20
235.9014159663
 10
250.7403372198
 20
235.9014159912
 10
251.1132292263
 20
235.9014160151
 10
251.4990652504
 20
235.9014160381
 10
251.8975808594
 20
235.9014160601
 10
252.3085029304
 20
235.901416081
 10
252.7315498381
 20
235.901416101
 10
253.1664316472
 20
235.9014161199
 10
253.6128503114
 20
235.9014161377
 10
254.0704998778
 20
235.9014161545
 10
254.5390666962
 20
235.9014161703
 10
255.0182296342
 20
235.9014161849
 10
255.5076602975
 20
235.9014161985
 10
256.0070232548
 20
235.901416211
 10
256.5159762677
 20
235.9014162223
 10
257.0341705252
 20
235.9014162325
 10
257.5612508828
 20
235.9014162417
 10
258.0968561061
 20
235.9014162497
 10
258.6406191178
 20
235.9014162565
 10
259.19216725
 20
235.9014162622
 10
259.7511224992
 20
235.9014162668
 10
260.3171017854
 20
235.9014162702
 10
260.8897172146
 20
235.9014162725
 10
261.4685763449
 20
235.9014162736
 10
262.053282455
 20
235.9014162736
 10
262.6434348167
 20
235.9014162724
 10
263.2386289689
 20
235.9014162701
 10
263.8384569954
 20
235.9014162666
 10
264.4425078039
 20
235.9014162619
 10
265.0503674083
 20
235.9014162562
 10
265.6616192118
 20
235.9014162493
 10
266.2758442932
 20
235.9014162412
 10
266.892621693
 20
235.9014162321
 10
267.5115287031
 20
235.9014162218
 10
268.1321411553
 20
235.9014162103
 10
268.754033713
 20
235.9014161978
 10
269.3767801619
 20
235.9014161842
 10
269.9999537029
 20
235.9014161695
  0
LINE
  5
E0
330
1F
100
AcDbEntity
  8
0
  6
Continuous
 62
   252
370
     0
100
AcDbLine
 10
246.979252119
 20
190.7674160063
 30
0.0
 11
293.020747881
 21
190.7674160063
 31
0.0
  0
LINE
  5
E1
330
1F
100
AcDbEntity
  8
0
  6
Continuous
 62
   252
370
     0
100
AcDbLine
 10
265.0
 20
177.8770983371
 30
0.0
 11
265.0
 21
176.8007984074
 31
0.0
  0
LINE
  5
E2
330
1F
100
AcDbEntity
  8
0
  6
Continuous
 62
   252
370
     0
100
AcDbLine
 10
275.0
 20
177.8770983371
 30
0.0
 11
275.0
 21
176.8007984074
 31
0.0
  0
SPLINE
  5
E3
330
1F
100
AcDbEntity
  8
0
  6
Continuous
 62
     7
370
    30
100
AcDbSpline
210
0.0
220
0.0
230
1.0
 70
     8
 71
     3
 72
   227
 73
   223
 74
     0
 42
0.000000001
 43
0.00000001
 40
0.0
 40
0.0
 40
0.0
 40
0.0
 40
0.0041259908134779
 40
0.0085956391108664
 40
0.013065554756905
 40
0.0175358042072611
 40
0.0220064533390797
 40
0.0264775673408058
 40
0.0309492106037945
 40
0.0354214466161943
 40
0.0398943378592756
 40
0.0443679457068898
 40
0.0488423303274214
 40
0.0533175505897344
 40
0.057793663972218
 40
0.0622707264758637
 40
0.0667487925413046
 40
0.0712279149700825
 40
0.0757081448504463
 40
0.080189531487679
 40
0.0846721223390682
 40
0.0891559629539586
 40
0.0936410969187336
 40
0.0981275658069325
 40
0.1026154091345583
 40
0.1071046643204252
 40
0.1115953666524448
 40
0.1160875492585904
 40
0.1205812430834496
 40
0.1250764768703027
 40
0.1295732771480899
 40
0.1340716682240832
 40
0.1385716721814413
 40
0.1430733088820538
 40
0.1475765959741653
 40
0.152081548905146
 40
0.1565881809388378
 40
0.1610965031775285
 40
0.1656065245884693
 40
0.1701182520344492
 40
0.1746316903086901
 40
0.179146842173343
 40
0.1836637084019662
 40
0.188182287825167
 40
0.1927025773794934
 40
0.1972245721596168
 40
0.2017482654727453
 40
0.2062736488961822
 40
0.2108007123364087
 40
0.2153294440909643
 40
0.2198598309114534
 40
0.2243918580685117
 40
0.2289255094178189
 40
0.2334607674673211
 40
0.2379976134450741
 40
0.2425360273680124
 40
0.2470759881106328
 40
0.2516174734742114
 40
0.2561604602557658
 40
0.2607049243168614
 40
0.2652508406518297
 40
0.2697981834554005
 40
0.2743469261897309
 40
0.2788970416501735
 40
0.2834485020301618
 40
0.2880012789844884
 40
0.2925553436918679
 40
0.2971106669153124
 40
0.3016672190611203
 40
0.3062249702365359
 40
0.3107838903049846
 40
0.3153439489400305
 40
0.3199051156770022
 40
0.3244673599629024
 40
0.3290306512042901
 40
0.3335949588128065
 40
0.3381602522492104
 40
0.3427265010646549
 40
0.3472936749405592
 40
0.3518617437256283
 40
0.3564306774716219
 40
0.3610004464663512
 40
0.365571021265073
 40
0.3701423727197142
 40
0.3747144720059549
 40
0.3792872906488138
 40
0.3838608005457212
 40
0.3884349739883149
 40
0.3930097836821247
 40
0.397585202764398
 40
0.4021612048205052
 40
0.4067377638986079
 40
0.4113148545225445
 40
0.4158924517035416
 40
0.4204705309500683
 40
0.4250490682766606
 40
0.4296280402111529
 40
0.4342074238007564
 40
0.4387871966168714
 40
0.4433673367585946
 40
0.4479478228557132
 40
0.4525286340697419
 40
0.4571097500948411
 40
0.4616911511573625
 40
0.4662728180147422
 40
0.4708547319533166
 40
0.4754368747857998
 40
0.480019228847621
 40
0.4846017769931124
 40
0.4891845025906318
 40
0.4937673895173971
 40
0.4983504221537685
 40
0.5029335853771552
 40
0.5075168645552882
 40
0.5121002455393275
 40
0.5166837146566728
 40
0.5212672587030827
 40
0.525850864935053
 40
0.5304345210617252
 40
0.5350182152363951
 40
0.5396019360482203
 40
0.5441856725134928
 40
0.5487694127333989
 40
0.5533531445887672
 40
0.5579368584567159
 40
0.5625205451029789
 40
0.5671041956733208
 40
0.5716878016841591
 40
0.5762713550139839
 40
0.5808548478940405
 40
0.585438272899784
 40
0.5900216229416939
 40
0.5946048912568429
 40
0.5991880713998694
 40
0.6037711572346414
 40
0.6083541429255995
 40
0.6129370229293669
 40
0.6175197919864973
 40
0.6221024451133746
 40
0.6266849775939558
 40
0.6312673849722098
 40
0.6358496630438962
 40
0.6404318078494701
 40
0.6450138156660462
 40
0.6495956830005287
 40
0.6541774065820822
 40
0.6587589833553291
 40
0.6633404104733607
 40
0.6679216852909077
 40
0.6725028053579466
 40
0.6770837684131691
 40
0.6816645723776932
 40
0.6862452153490514
 40
0.6908256955950852
 40
0.6954060115481717
 40
0.6999861617996226
 40
0.7045661450941403
 40
0.7091459603244213
 40
0.7137256065259135
 40
0.7183050828718837
 40
0.7228843886682333
 40
0.7274635233489322
 40
0.7320424864712982
 40
0.7366212777114055
 40
0.7411998968597273
 40
0.7457783438170037
 40
0.7503566185899561
 40
0.7549347212872811
 40
0.7595126521159862
 40
0.7640904113772938
 40
0.7686679994633822
 40
0.7732454168535166
 40
0.7778226641109021
 40
0.7823997418792167
 40
0.786976650879542
 40
0.7915533919071331
 40
0.7961299658286248
 40
0.8007063735789577
 40
0.8052826161586839
 40
0.809858694631379
 40
0.8144346101207868
 40
0.8190103638085483
 40
0.8235859569317204
 40
0.8281613907803425
 40
0.8327366666953009
 40
0.837311786066068
 40
0.8418867503287126
 40
0.846461560963741
 40
0.851036219494289
 40
0.8556107274842197
 40
0.8601850865361422
 40
0.8647592982900132
 40
0.8693333644211296
 40
0.8739072866387231
 40
0.8784810666843718
 40
0.8830547063304425
 40
0.8876282073787809
 40
0.8922015716591746
 40
0.8967748010282085
 40
0.9013478973678828
 40
0.9059208625844521
 40
0.9104936986071683
 40
0.9150664073873367
 40
0.9196389908969816
 40
0.9242114511281159
 40
0.9287837900914246
 40
0.9333560098155804
 40
0.9379281123463207
 40
0.9425000997453153
 40
0.9470719740896987
 40
0.9516437374709441
 40
0.9562153919943442
 40
0.960786939778223
 40
0.9653583829530707
 40
0.9699297236611569
 40
0.9745009640556765
 40
0.9790721063002654
 40
0.9836431525682802
 40
0.9882141050425651
 40
0.9927849659144424
 40
0.9973557373837063
 40
1.0
 40
1.0
 40
1.0
 40
1.0
 10
402.5524903825841
 20
229.7205016828451
 30
0.0
 10
402.4738871737606
 20
229.6712500704953
 30
0.0
 10
402.3101338241904
 20
229.5686446347285
 30
0.0
 10
402.0631866651206
 20
229.4094257524066
 30
0.0
 10
401.8111940700148
 20
229.2436201806337
 30
0.0
 10
401.5608282589575
 20
229.0751299593105
 30
0.0
 10
401.3120510950296
 20
228.9040374900305
 30
0.0
 10
401.0648830776689
 20
228.7303272001276
 30
0.0
 10
400.8193289983873
 20
228.5540098237106
 30
0.0
 10
400.5753978670095
 20
228.3750891011008
 30
0.0
 10
400.3330975745344
 20
228.1935707079587
 30
0.0
 10
400.0924363260429
 20
228.0094598674382
 30
0.0
 10
399.8534222589309
 20
227.8227619954144
 30
0.0
 10
399.6160635471574
 20
227.633482532991
 30
0.0
 10
399.3803683748975
 20
227.4416269969421
 30
0.0
 10
399.1463449448616
 20
227.2472009718494
 30
0.0
 10
398.9140014769807
 20
227.0502101179411
 30
0.0
 10
398.6833462093268
 20
226.8506601747767
 30
0.0
 10
398.4543873980888
 20
226.6485569660734
 30
0.0
 10
398.2271333174585
 20
226.4439064042331
 30
0.0
 10
398.0015922591974
 20
226.2367144949326
 30
0.0
 10
397.7777725319505
 20
226.0269873416554
 30
0.0
 10
397.5556824602928
 20
225.8147311501722
 30
0.0
 10
397.3353303835191
 20
225.5999522329486
 30
0.0
 10
397.1167246541876
 20
225.382657013466
 30
0.0
 10
396.8998736364125
 20
225.1628520304297
 30
0.0
 10
396.6847857039259
 20
224.9405439418565
 30
0.0
 10
396.4714692379099
 20
224.7157395290206
 30
0.0
 10
396.2599326246155
 20
224.4884457002485
 30
0.0
 10
396.050184252777
 20
224.258669494546
 30
0.0
 10
395.8422325108268
 20
224.0264180850395
 30
0.0
 10
395.6360857839351
 20
223.7916987822295
 30
0.0
 10
395.4317524508739
 20
223.5545190370328
 30
0.0
 10
395.2292408807319
 20
223.3148864436161
 30
0.0
 10
395.0285594294839
 20
223.0728087420026
 30
0.0
 10
394.8297164364347
 20
222.8282938204487
 30
0.0
 10
394.6327202205489
 20
222.5813497175809
 30
0.0
 10
394.4375790766834
 20
222.331984624289
 30
0.0
 10
394.244301271737
 20
222.0802068853732
 30
0.0
 10
394.052895040731
 20
221.8260250009371
 30
0.0
 10
393.8633685828395
 20
221.5694476275312
 30
0.0
 10
393.6757300573776
 20
221.3104835790384
 30
0.0
 10
393.4899875797691
 20
221.0491418273093
 30
0.0
 10
393.3061492175065
 20
220.7854315025445
 30
0.0
 10
393.1242229861128
 20
220.5193618934282
 30
0.0
 10
392.9442168451285
 20
220.250942447018
 30
0.0
 10
392.7661386941235
 20
219.9801827683876
 30
0.0
 10
392.5899963687652
 20
219.7070926200455
 30
0.0
 10
392.4157976369342
 20
219.4316819211138
 30
0.0
 10
392.2435501949195
 20
219.1539607462965
 30
0.0
 10
392.0732616636877
 20
218.8739393246261
 30
0.0
 10
391.9049395852495
 20
218.591628038014
 30
0.0
 10
391.738591419124
 20
218.3070374196019
 30
0.0
 10
391.5742245389165
 20
218.0201781519341
 30
0.0
 10
391.4118462290122
 20
217.73106106495
 30
0.0
 10
391.2514636813999
 20
217.4396971338224
 30
0.0
 10
391.0930839926242
 20
217.1460974766379
 30
0.0
 10
390.9367141608823
 20
216.8502733519446
 30
0.0
 10
390.782361083258
 20
216.5522361561661
 30
0.0
 10
390.6300315531096
 20
216.2519974209058
 30
0.0
 10
390.4797322576072
 20
215.9495688101468
 30
0.0
 10
390.3314697754245
 20
215.6449621173591
 30
0.0
 10
390.1852505745861
 20
215.3381892625283
 30
0.0
 10
390.0410810104726
 20
215.0292622891148
 30
0.0
 10
389.8989673239864
 20
214.7181933609644
 30
0.0
 10
389.7589156398713
 20
214.4049947591649
 30
0.0
 10
389.6209319651911
 20
214.0896788788755
 30
0.0
 10
389.4850221879634
 20
213.7722582261298
 30
0.0
 10
389.351192075947
 20
213.4527454146287
 30
0.0
 10
389.2194472755812
 20
213.1311531625313
 30
0.0
 10
389.0897933110696
 20
212.8074942892459
 30
0.0
 10
388.9622355836133
 20
212.4817817122472
 30
0.0
 10
388.8367793707803
 20
212.1540284439078
 30
0.0
 10
388.7134298260129
 20
211.8242475883661
 30
0.0
 10
388.592191978267
 20
211.4924523384346
 30
0.0
 10
388.4730707317761
 20
211.1586559725483
 30
0.0
 10
388.356070865941
 20
210.8228718517755
 30
0.0
 10
388.2411970353284
 20
210.4851134168724
 30
0.0
 10
388.1284537697891
 20
210.1453941854186
 30
0.0
 10
388.0178454746735
 20
209.8037277490032
 30
0.0
 10
387.9093764311517
 20
209.4601277704975
 30
0.0
 10
387.8030507966217
 20
209.1146079813907
 30
0.0
 10
387.6988726052111
 20
208.7671821792132
 30
0.0
 10
387.5968457683558
 20
208.4178642250396
 30
0.0
 10
387.4969740754562
 20
208.0666680410707
 30
0.0
 10
387.3992611946052
 20
207.7136076083092
 30
0.0
 10
387.3037106733772
 20
207.3586969643113
 30
0.0
 10
387.2103259396779
 20
207.0019502010341
 30
0.0
 10
387.1191103026483
 20
206.6433814627661
 30
0.0
 10
387.0300669536144
 20
206.2830049441489
 30
0.0
 10
386.9431989670821
 20
205.9208348882852
 30
0.0
 10
386.8585093017683
 20
205.5568855849332
 30
0.0
 10
386.7760008016647
 20
205.1911713687861
 30
0.0
 10
386.6956761971327
 20
204.8237066178441
 30
0.0
 10
386.6175381060181
 20
204.45450575186
 30
0.0
 10
386.5415890347884
 20
204.083583230876
 30
0.0
 10
386.4678313796844
 20
203.7109535538337
 30
0.0
 10
386.3962674278833
 20
203.3366312572681
 30
0.0
 10
386.3268993586714
 20
202.9606309140798
 30
0.0
 10
386.2597292446185
 20
202.5829671323728
 30
0.0
 10
386.1947590527573
 20
202.2036545543756
 30
0.0
 10
386.1319906457571
 20
201.8227078554205
 30
0.0
 10
386.0714257830977
 20
201.440141743003
 30
0.0
 10
386.0130661222311
 20
201.0559709558902
 30
0.0
 10
385.9569132197386
 20
200.6702102633048
 30
0.0
 10
385.9029685324722
 20
200.2828744641603
 30
0.0
 10
385.8512334186862
 20
199.8939783863602
 30
0.0
 10
385.8017091391494
 20
199.5035368861396
 30
0.0
 10
385.7543968582427
 20
199.1115648474688
 30
0.0
 10
385.7092976450369
 20
198.7180771814978
 30
0.0
 10
385.6664124743514
 20
198.3230888260548
 30
0.0
 10
385.6257422277905
 20
197.9266147451788
 30
0.0
 10
385.587287694758
 20
197.5286699286988
 30
0.0
 10
385.5510495734493
 20
197.1292693918487
 30
0.0
 10
385.5170284718182
 20
196.7284281749177
 30
0.0
 10
385.4852249085208
 20
196.3261613429368
 30
0.0
 10
385.4556393138332
 20
195.922483985392
 30
0.0
 10
385.4282720305442
 20
195.5174112159693
 30
0.0
 10
385.4031233148224
 20
195.1109581723222
 30
0.0
 10
385.3801933370571
 20
194.7031400158663
 30
0.0
 10
385.3594821826737
 20
194.2939719315997
 30
0.0
 10
385.3409898547157
 20
193.8834691677444
 30
0.0
 10
385.3247162741702
 20
193.4716470551736
 30
0.0
 10
385.3106612768206
 20
193.0585209453301
 30
0.0
 10
385.2988246132541
 20
192.6441061697172
 30
0.0
 10
385.28920595056
 20
192.2284180199759
 30
0.0
 10
385.2818048754668
 20
191.8114718106542
 30
0.0
 10
385.276620894972
 20
191.3932828791218
 30
0.0
 10
385.2736534369471
 20
190.973866585515
 30
0.0
 10
385.2729018507189
 20
190.5532383126656
 30
0.0
 10
385.2743654076268
 20
190.1314134660572
 30
0.0
 10
385.2780433015585
 20
189.7084074737622
 30
0.0
 10
385.2839346494619
 20
189.284235786403
 30
0.0
 10
385.2920384918364
 20
188.8589138770961
 30
0.0
 10
385.3023537932021
 20
188.4324572414111
 30
0.0
 10
385.31487944255
 20
188.0048813973191
 30
0.0
 10
385.3296142537696
 20
187.5762018851467
 30
0.0
 10
385.3465569660609
 20
187.1464342675214
 30
0.0
 10
385.3657062443235
 20
186.7155941293209
 30
0.0
 10
385.3870606795321
 20
186.2836970776091
 30
0.0
 10
385.4106187890901
 20
185.8507587415841
 30
0.0
 10
385.4363790171712
 20
185.4167947724971
 30
0.0
 10
385.4643397350404
 20
184.9818208435942
 30
0.0
 10
385.4944992413634
 20
184.5458526500238
 30
0.0
 10
385.5268557624979
 20
184.1089059087637
 30
0.0
 10
385.5614074527736
 20
183.6709963585182
 30
0.0
 10
385.5981523947569
 20
183.2321397596238
 30
0.0
 10
385.6370885995027
 20
182.7923518939418
 30
0.0
 10
385.678214006795
 20
182.3516485647426
 30
0.0
 10
385.7215264853743
 20
181.9100455965836
 30
0.0
 10
385.7670238331552
 20
181.4675588351742
 30
0.0
 10
385.8147037774328
 20
181.0242041472366
 30
0.0
 10
385.8645639750787
 20
180.5799974203575
 30
0.0
 10
385.9166020127283
 20
180.1349545628296
 30
0.0
 10
385.9708154069581
 20
179.6890915034855
 30
0.0
 10
386.0272016044565
 20
179.2424241915182
 30
0.0
 10
386.0857579821844
 20
178.7949685962955
 30
0.0
 10
386.14648184753
 20
178.3467407071673
 30
0.0
 10
386.2093704384561
 20
177.8977565332579
 30
0.0
 10
386.2744209236404
 20
177.4480321032563
 30
0.0
 10
386.3416304026115
 20
176.9975834651889
 30
0.0
 10
386.4109959058766
 20
176.5464266861897
 30
0.0
 10
386.4825143950474
 20
176.0945778522553
 30
0.0
 10
386.556182762958
 20
175.642053067997
 30
0.0
 10
386.6319978337809
 20
175.1888684563777
 30
0.0
 10
386.7099563631377
 20
174.7350401584425
 30
0.0
 10
386.7900550382068
 20
174.2805843330411
 30
0.0
 10
386.8722904778278
 20
173.8255171565386
 30
0.0
 10
386.9566592326019
 20
173.3698548225231
 30
0.0
 10
387.0431577849925
 20
172.9136135414921
 30
0.0
 10
387.1317825494199
 20
172.4568095405488
 30
0.0
 10
387.2225298723577
 20
171.9994590630688
 30
0.0
 10
387.3153960324244
 20
171.5415783683787
 30
0.0
 10
387.4103772404764
 20
171.0831837314088
 30
0.0
 10
387.5074696396968
 20
170.6242914423524
 30
0.0
 10
387.6066693056874
 20
170.1649178063043
 30
0.0
 10
387.7079722465559
 20
169.7050791429029
 30
0.0
 10
387.8113744030056
 20
169.244791785956
 30
0.0
 10
387.9168716484245
 20
168.7840720830619
 30
0.0
 10
388.0244597889733
 20
168.3229363952258
 30
0.0
 10
388.134134563675
 20
167.8614010964635
 30
0.0
 10
388.2458916445045
 20
167.3994825734039
 30
0.0
 10
388.3597266364789
 20
166.9371972248793
 30
0.0
 10
388.4756350777491
 20
166.4745614615123
 30
0.0
 10
388.5936124396904
 20
166.0115917052976
 30
0.0
 10
388.7136541269984
 20
165.5483043891707
 30
0.0
 10
388.8357554777818
 20
165.0847159565781
 30
0.0
 10
388.9599117636598
 20
164.6208428610347
 30
0.0
 10
389.0861181898601
 20
164.1567015656792
 30
0.0
 10
389.2143698953177
 20
163.6923085428252
 30
0.0
 10
389.3446619527782
 20
163.2276802734996
 30
0.0
 10
389.4769893688991
 20
162.7628332469859
 30
0.0
 10
389.6113470843583
 20
162.2977839603496
 30
0.0
 10
389.7477299739606
 20
161.8325489179708
 30
0.0
 10
389.8861328467482
 20
161.3671446310632
 30
0.0
 10
390.0265504461142
 20
160.9015876171905
 30
0.0
 10
390.168977449917
 20
160.4358943997829
 30
0.0
 10
390.3134084705994
 20
159.97008150764
 30
0.0
 10
390.4598380553077
 20
159.5041654744372
 30
0.0
 10
390.6082606860178
 20
159.0381628382211
 30
0.0
 10
390.7586707796584
 20
158.5720901409089
 30
0.0
 10
390.9110626882429
 20
158.1059639277744
 30
0.0
 10
391.0654306989986
 20
157.6398007469404
 30
0.0
 10
391.2217690345053
 20
157.1736171488548
 30
0.0
 10
391.3800718528296
 20
156.7074296857793
 30
0.0
 10
391.5403332476698
 20
156.2412549112583
 30
0.0
 10
391.7025472484945
 20
155.775109379593
 30
0.0
 10
391.8667078207122
 20
155.3090096453155
 30
0.0
 10
392.0328088657358
 20
154.8429722626385
 30
0.0
 10
392.2008442214642
 20
154.3770137849769
 30
0.0
 10
392.3708076612089
 20
153.9111507642143
 30
0.0
 10
392.5426928984577
 20
153.4453997508546
 30
0.0
 10
392.7164935698565
 20
152.9797772909075
 30
0.0
 10
392.8922032994989
 20
152.5142999349304
 30
0.0
 10
393.0698154598014
 20
152.0489842016906
 30
0.0
 10
393.2493240647045
 20
151.5838467111841
 30
0.0
 10
393.4307204371468
 20
151.11890368559
 30
0.0
 10
393.614005646658
 20
150.6541728090748
 30
0.0
 10
393.7991440939535
 20
150.1896662844673
 30
0.0
 10
393.9862367311523
 20
149.7254167426952
 30
0.0
 10
394.1483731775631
 20
149.3265722582394
 30
0.0
 10
394.2488926545501
 20
149.0825944999165
 30
0.0
 10
394.285732382825
 20
148.9931782535218
 30
0.0
  0
SPLINE
  5
E4
330
1F
100
AcDbEntity
  8
0
  6
Continuous
 62
     7
370
    30
100
AcDbSpline
210
0.0
220
0.0
230
1.0
 70
     8
 71
     3
 72
   227
 73
   223
 74
     0
 42
0.000000001
 43
0.00000001
 40
0.0
 40
0.0
 40
0.0
 40
0.0
 40
0.0020749680554607
 40
0.0066456284841023
 40
0.0112163769341342
 40
0.0157872156307056
 40
0.020358146791767
 40
0.0249291726279916
 40
0.0295002953420363
 40
0.0340715171280098
 40
0.0386428401711899
 40
0.0432142666473216
 40
0.0477857987219612
 40
0.0523574385500344
 40
0.0569291882752046
 40
0.0615010500290095
 40
0.066073025930369
 40
0.0706451180848164
 40
0.0752173285836832
 40
0.0797896595032665
 40
0.0843621129042559
 40
0.088934690830535
 40
0.0935073953084431
 40
0.0980802283458068
 40
0.1026531919310488
 40
0.1072262880319418
 40
0.1117995185947313
 40
0.1163728855429757
 40
0.1209463907761995
 40
0.1255200361690348
 40
0.1300938235695752
 40
0.1346677547983722
 40
0.1392418316468542
 40
0.143816055875962
 40
0.1483904292146741
 40
0.1529649533585208
 40
0.157539629967876
 40
0.1621144606662722
 40
0.1666894470388467
 40
0.1712645906303321
 40
0.1758398929433373
 40
0.1804153554362743
 40
0.1849909795214402
 40
0.189566766562915
 40
0.1941427178743847
 40
0.1987188347167775
 40
0.203295118296247
 40
0.2078715697612714
 40
0.2124481902006259
 40
0.2170249806405252
 40
0.2216019420419231
 40
0.2261790752978396
 40
0.2307563812304533
 40
0.2353338605881283
 40
0.2399115140421536
 40
0.2444893421839895
 40
0.2490673455213838
 40
0.2536455244754057
 40
0.2582238793767944
 40
0.2628024104623327
 40
0.2673811178709757
 40
0.271960001640116
 40
0.2765390617015851
 40
0.2811182978773797
 40
0.2856977098755926
 40
0.2902772972858794
 40
0.2948570595749669
 40
0.2994369960820165
 40
0.3040171060139427
 40
0.3085973884401695
 40
0.3131778422878887
 40
0.3177584663366892
 40
0.3223392592129748
 40
0.3269202193848845
 40
0.331501345156218
 40
0.3360826346608229
 40
0.3406640858566484
 40
0.3452456965193798
 40
0.3498274642363826
 40
0.3544093864001749
 40
0.3589914602018329
 40
0.3635736826242468
 40
0.3681560504352642
 40
0.3727385601804682
 40
0.3773212081761652
 40
0.3819039905019205
 40
0.3864869029930241
 40
0.3910699412328938
 40
0.3956531005452312
 40
0.4002363759860705
 40
0.4048197623358241
 40
0.4094032540908781
 40
0.4139868454554347
 40
0.4185705303329612
 40
0.4231543023177142
 40
0.4277381546860188
 40
0.4323220803875167
 40
0.4369060720363581
 40
0.4414901219023449
 40
0.4460742219018148
 40
0.4506583635888595
 40
0.4552425381459382
 40
0.4598267363751517
 40
0.4644109486890071
 40
0.4689951634309728
 40
0.473579368323401
 40
0.4781635524154449
 40
0.4827477043278271
 40
0.4873318122442852
 40
0.4919158639028085
 40
0.4964998465873265
 40
0.5010837471194239
 40
0.5056675518502829
 40
0.5102512466530863
 40
0.5148348169153971
 40
0.5194182475321046
 40
0.5240015228986699
 40
0.5285846269047032
 40
0.5331675429281536
 40
0.5377502538299183
 40
0.5423327419488044
 40
0.5469149890973695
 40
0.5514969765582797
 40
0.5560786850812228
 40
0.5606600948808537
 40
0.5652411856352287
 40
0.5698219364852163
 40
0.5744023260349251
 40
0.5789823323528485
 40
0.5835619329743612
 40
0.5881411049048662
 40
0.5927198246246764
 40
0.5972980680943838
 40
0.6018758107621113
 40
0.6064530275720061
 40
0.6110296929736925
 40
0.6156057809336873
 40
0.620181264948187
 40
0.6247561180573047
 40
0.6293303128610221
 40
0.6339038215370262
 40
0.6384766158601157
 40
0.6430486672233247
 40
0.6476199466612399
 40
0.6521904248749264
 40
0.6567600722589643
 40
0.6613288589303729
 40
0.6658967547598071
 40
0.6704637294043807
 40
0.675029752343052
 40
0.6795947929138002
 40
0.6841588203529594
 40
0.6887218038367804
 40
0.6932837125250253
 40
0.6978445156064993
 40
0.702404182347101
 40
0.7069626821393411
 40
0.7115199845543528
 40
0.716076059395543
 40
0.7206308767543064
 40
0.7251844070674086
 40
0.7297366211763028
 40
0.7342874903879373
 40
0.7388369865370574
 40
0.7433850820501042
 40
0.7479317500103313
 40
0.752476964223935
 40
0.7570206992874506
 40
0.7615629306557936
 40
0.766103634710994
 40
0.7706427888315646
 40
0.7751803714618436
 40
0.7797163621819104
 40
0.7842507417769726
 40
0.7887834923065921
 40
0.7933145971734074
 40
0.7978440411907746
 40
0.8023718106498865
 40
0.8068978933851048
 40
0.8114222788381419
 40
0.8159449581203339
 40
0.8204659240728209
 40
0.8249851713245919
 40
0.8295026963481408
 40
0.8340184975120049
 40
0.8385325751307664
 40
0.8430449315112695
 40
0.847555570996032
 40
0.8520645000024463
 40
0.8565717270583811
 40
0.8610772628335287
 40
0.8655811201665122
 40
0.8700833140876792
 40
0.8745838618368943
 40
0.8790827828769252
 40
0.8835800989017525
 40
0.8880758338397625
 40
0.8925700138519846
 40
0.8970626673247637
 40
0.9015538248575277
 40
0.9060435192449872
 40
0.9105317854540266
 40
0.9150186605950189
 40
0.919504183888045
 40
0.9239883966235921
 40
0.928471342117994
 40
0.9329530656634967
 40
0.9374336144735304
 40
0.9419130376224014
 40
0.9463913859805261
 40
0.9508687121447689
 40
0.95534507036391
 40
0.9598205164599306
 40
0.9642951077451405
 40
0.9687689029347258
 40
0.9732419620561966
 40
0.9777143463547248
 40
0.9821861181953334
 40
0.9866573409618123
 40
0.9911280789534066
 40
0.995598397278235
 40
1.0
 40
1.0
 40
1.0
 40
1.0
 10
413.2324918433594
 20
116.1729894550102
 30
0.0
 10
413.2787796026788
 20
116.112843926128
 30
0.0
 10
413.4270282713694
 20
115.9202121220483
 30
0.0
 10
413.6784824708624
 20
115.5966592717884
 30
0.0
 10
413.9867946374138
 20
115.2022861584925
 30
0.0
 10
414.2963208422762
 20
114.8094913600669
 30
0.0
 10
414.6069658710285
 20
114.4181831882723
 30
0.0
 10
414.9187413802584
 20
114.0284040924321
 30
0.0
 10
415.2316303438798
 20
113.6401605141485
 30
0.0
 10
415.5456233762275
 20
113.2534684784101
 30
0.0
 10
415.8607089995147
 20
112.8683413765596
 30
0.0
 10
416.1768762522437
 20
112.4847932393913
 30
0.0
 10
416.4941139907615
 20
112.1028378595566
 30
0.0
 10
416.8124110769153
 20
111.722489026182
 30
0.0
 10
417.1317563282706
 20
111.3437604614681
 30
0.0
 10
417.4521385319496
 20
110.9666658371502
 30
0.0
 10
417.7735464414232
 20
110.5912187695654
 30
0.0
 10
418.0959687778723
 20
110.2174328204542
 30
0.0
 10
418.4193942303187
 20
109.8453214962367
 30
0.0
 10
418.7438114560915
 20
109.4748982476958
 30
0.0
 10
419.0692090811972
 20
109.1061764695625
 30
0.0
 10
419.3955757007178
 20
108.7391695001303
 30
0.0
 10
419.7228998791948
 20
108.3738906208719
 30
0.0
 10
420.0511701510232
 20
108.0103530560528
 30
0.0
 10
420.380375020836
 20
107.6485699723579
 30
0.0
 10
420.7105029638909
 20
107.2885544785173
 30
0.0
 10
421.0415424264528
 20
106.9303196249407
 30
0.0
 10
421.3734818261764
 20
106.5738784033548
 30
0.0
 10
421.7063095524882
 20
106.2192437464407
 30
0.0
 10
422.0400139669609
 20
105.8664285274864
 30
0.0
 10
422.3745834036961
 20
105.5154455600292
 30
0.0
 10
422.7100061696909
 20
105.1663075975187
 30
0.0
 10
423.0462705452132
 20
104.8190273329724
 30
0.0
 10
423.3833647841665
 20
104.4736173986438
 30
0.0
 10
423.7212771144585
 20
104.1300903656888
 30
0.0
 10
424.0599957383621
 20
103.7884587438403
 30
0.0
 10
424.3995088328737
 20
103.4487349810888
 30
0.0
 10
424.739804550069
 20
103.1109314633638
 30
0.0
 10
425.0808710174547
 20
102.7750605142236
 30
0.0
 10
425.4226963383189
 20
102.4411343945443
 30
0.0
 10
425.7652685920707
 20
102.1091653022221
 30
0.0
 10
426.1085758345823
 20
101.7791653718721
 30
0.0
 10
426.4526060985238
 20
101.4511466745358
 30
0.0
 10
426.7973473936948
 20
101.12512121739
 30
0.0
 10
427.1427877073473
 20
100.8011009434653
 30
0.0
 10
427.4889150045108
 20
100.4790977313614
 30
0.0
 10
427.8357172283006
 20
100.1591233949777
 30
0.0
 10
428.1831823002346
 20
99.84118968323416
 30
0.0
 10
428.5312981205311
 20
99.52530827981022
 30
0.0
 10
428.8800525684107
 20
99.21149080287692
 30
0.0
 10
429.2294335023843
 20
98.89974880484112
 30
0.0
 10
429.5794287605392
 20
98.59009377208858
 30
0.0
 10
429.9300261608197
 20
98.28253712473008
 30
0.0
 10
430.2812135012928
 20
97.97709021635855
 30
0.0
 10
430.6329785604189
 20
97.67376433379796
 30
0.0
 10
430.9853090972995
 20
97.37257069687051
 30
0.0
 10
431.3381928519325
 20
97.07352045815188
 30
0.0
 10
431.691617545446
 20
96.77662470274306
 30
0.0
 10
432.0455708803374
 20
96.48189444803154
 30
0.0
 10
432.4000405406915
 20
96.18934064346766
 30
0.0
 10
432.7550141923948
 20
95.8989741703373
 30
0.0
 10
433.1104794833419
 20
95.61080584153696
 30
0.0
 10
433.4664240436307
 20
95.32484640135219
 30
0.0
 10
433.8228354857496
 20
95.0411065252361
 30
0.0
 10
434.1797014047503
 20
94.75959681959307
 30
0.0
 10
434.537009378416
 20
94.4803278215598
 30
0.0
 10
434.894746967413
 20
94.20330999879077
 30
0.0
 10
435.2529017154397
 20
93.92855374923907
 30
0.0
 10
435.6114611493559
 20
93.6560694009444
 30
0.0
 10
435.9704127793076
 20
93.38586721181456
 30
0.0
 10
436.3297440988347
 20
93.11795736941143
 30
0.0
 10
436.6894425849695
 20
92.85234999073536
 30
0.0
 10
437.0494956983241
 20
92.5890551220043
 30
0.0
 10
437.4098908831612
 20
92.32808273843847
 30
0.0
 10
437.7706155674614
 20
92.06944274403318
 30
0.0
 10
438.1316571629676
 20
91.81314497133742
 30
0.0
 10
438.4930030652212
 20
91.55919918122696
 30
0.0
 10
438.8546406535851
 20
91.30761506267181
 30
0.0
 10
439.2165572912508
 20
91.05840223250301
 30
0.0
 10
439.5787403252373
 20
90.81157023516963
 30
0.0
 10
439.941177086372
 20
90.5671285424947
 30
0.0
 10
440.3038548892598
 20
90.32508655342214
 30
0.0
 10
440.6667610322353
 20
90.08545359376099
 30
0.0
 10
441.0298827973058
 20
89.8482389159172
 30
0.0
 10
441.3932074500759
 20
89.61345169862139
 30
0.0
 10
441.7567222396629
 20
89.38110104664466
 30
0.0
 10
442.1204143985931
 20
89.15119599050689
 30
0.0
 10
442.4842711426872
 20
88.92374548617434
 30
0.0
 10
442.8482796709314
 20
88.69875841474501
 30
0.0
 10
443.2124271653361
 20
88.47624358212131
 30
0.0
 10
443.5767007907776
 20
88.25620971867254
 30
0.0
 10
443.9410876948311
 20
88.03866547887951
 30
0.0
 10
444.3055750075842
 20
87.82361944096922
 30
0.0
 10
444.6701498414454
 20
87.6110801065281
 30
0.0
 10
445.0347992909339
 20
87.40105590010269
 30
0.0
 10
445.3995104324606
 20
87.19355516878115
 30
0.0
 10
445.764270324095
 20
86.98858618175548
 30
0.0
 10
446.1290660053254
 20
86.78615712986374
 30
0.0
 10
446.4938844968039
 20
86.58627612511225
 30
0.0
 10
446.8587128000872
 20
86.38895120017327
 30
0.0
 10
447.2235378973587
 20
86.19419030786524
 30
0.0
 10
447.5883467511545
 20
86.00200132060066
 30
0.0
 10
447.9531263040722
 20
85.81239202981588
 30
0.0
 10
448.3178634341811
 20
85.62537016808362
 30
0.0
 10
448.6825449490954
 20
85.44094340961716
 30
0.0
 10
449.0471576319655
 20
85.25911934459104
 30
0.0
 10
449.4116882854001
 20
85.07990545703204
 30
0.0
 10
449.7761237367121
 20
84.90330912303855
 30
0.0
 10
450.1404507913108
 20
84.72933763343855
 30
0.0
 10
450.5046562324087
 20
84.55799819299315
 30
0.0
 10
450.8687268207252
 20
84.3892979195683
 30
0.0
 10
451.2326492942014
 20
84.22324384326926
 30
0.0
 10
451.5964103677222
 20
84.05984290553837
 30
0.0
 10
451.9599967328467
 20
83.89910195821605
 30
0.0
 10
452.3233950575533
 20
83.74102776256238
 30
0.0
 10
452.6865919859957
 20
83.58562698824086
 30
0.0
 10
453.0495741382781
 20
83.4329062122611
 30
0.0
 10
453.4123281102508
 20
83.28287191788064
 30
0.0
 10
453.7748404733278
 20
83.13553049346527
 30
0.0
 10
454.1370977743271
 20
82.99088823130862
 30
0.0
 10
454.4990865353393
 20
82.84895132640938
 30
0.0
 10
454.8607932536268
 20
82.70972587520603
 30
0.0
 10
455.2222044015581
 20
82.57321787426838
 30
0.0
 10
455.5833064265799
 20
82.43943321894666
 30
0.0
 10
455.9440857512265
 20
82.30837770197891
 30
0.0
 10
456.3045287731753
 20
82.18005701205561
 30
0.0
 10
456.6646218653485
 20
82.05447673234313
 30
0.0
 10
457.0243513760644
 20
81.93164233896637
 30
0.0
 10
457.3837036292495
 20
81.81155919944936
 30
0.0
 10
457.742664924698
 20
81.69423257112052
 30
0.0
 10
458.1012215384067
 20
81.57966759947546
 30
0.0
 10
458.4593597229604
 20
81.46786931650885
 30
0.0
 10
458.8170657079991
 20
81.35884263900768
 30
0.0
 10
459.1743257007528
 20
81.25259236681399
 30
0.0
 10
459.5311258866566
 20
81.14912318105644
 30
0.0
 10
459.8874524300439
 20
81.04843964235543
 30
0.0
 10
460.2432914749238
 20
80.95054618900323
 30
0.0
 10
460.5986291458504
 20
80.85544713512171
 30
0.0
 10
460.95345154888
 20
80.76314666880286
 30
0.0
 10
461.3077447726248
 20
80.67364885023466
 30
0.0
 10
461.6614948894083
 20
80.58695760981585
 30
0.0
 10
462.0146879565178
 20
80.50307674626514
 30
0.0
 10
462.3673100175643
 20
80.42200992472961
 30
0.0
 10
462.719347103946
 20
80.3437606748961
 30
0.0
 10
463.0707852364281
 20
80.26833238911141
 30
0.0
 10
463.4216104268255
 20
80.19572832051759
 30
0.0
 10
463.7718086798084
 20
80.12595158120703
 30
0.0
 10
464.1213659948145
 20
80.05900514040441
 30
0.0
 10
464.4702683680845
 20
79.99489182268161
 30
0.0
 10
464.8185017948086
 20
79.9336143062126
 30
0.0
 10
465.166052271395
 20
79.87517512107443
 30
0.0
 10
465.5129057978513
 20
79.81957664760293
 30
0.0
 10
465.8590483802853
 20
79.76682111480928
 30
0.0
 10
466.2044660335164
 20
79.71691059886555
 30
0.0
 10
466.549144783806
 20
79.66984702166707
 30
0.0
 10
466.893070671691
 20
79.62563214947889
 30
0.0
 10
467.2362297549349
 20
79.58426759167497
 30
0.0
 10
467.5786081115722
 20
79.54575479957778
 30
0.0
 10
467.9201918430619
 20
79.51009506540603
 30
0.0
 10
468.2609670775282
 20
79.47728952133903
 30
0.0
 10
468.6009199730977
 20
79.44733913870495
 30
0.0
 10
468.9400367213154
 20
79.42024472730135
 30
0.0
 10
469.278303550639
 20
79.39600693485474
 30
0.0
 10
469.6157067300001
 20
79.37462624662774
 30
0.0
 10
469.9522325724287
 20
79.35610298517933
 30
0.0
 10
470.2878674387285
 20
79.3404373102862
 30
0.0
 10
470.6225977411951
 20
79.3276292190308
 30
0.0
 10
470.956409947366
 20
79.31767854606265
 30
0.0
 10
471.2892905837934
 20
79.31058496403726
 30
0.0
 10
471.6212262398281
 20
79.30634798423877
 30
0.0
 10
471.9522035713982
 20
79.30496695738958
 30
0.0
 10
472.2822093047818
 20
79.30644107465072
 30
0.0
 10
472.6112302403488
 20
79.31076936881664
 30
0.0
 10
472.9392532562696
 20
79.31795071570514
 30
0.0
 10
473.2662653121675
 20
79.32798383574534
 30
0.0
 10
473.5922534527056
 20
79.34086729576266
 30
0.0
 10
473.9172048111005
 20
79.35659951096204
 30
0.0
 10
474.2411066125381
 20
79.37517874710629
 30
0.0
 10
474.5639461774911
 20
79.39660312288979
 30
0.0
 10
474.8857109249096
 20
79.42087061250156
 30
0.0
 10
475.2063883752843
 20
79.44797904837618
 30
0.0
 10
475.5259661535582
 20
79.47792612412563
 30
0.0
 10
475.8444319918858
 20
79.51070939764706
 30
0.0
 10
476.1617737322156
 20
79.54632629439921
 30
0.0
 10
476.4779793286951
 20
79.58477411083989
 30
0.0
 10
476.7930368498694
 20
79.62605001801325
 30
0.0
 10
477.1069344806861
 20
79.67015106528146
 30
0.0
 10
477.4196605242735
 20
79.71707418418522
 30
0.0
 10
477.731203403503
 20
79.7668161924256
 30
0.0
 10
478.0415516623069
 20
79.81937379795149
 30
0.0
 10
478.3506939667587
 20
79.87474360314114
 30
0.0
 10
478.6586191059041
 20
79.93292210906475
 30
0.0
 10
478.9653159923342
 20
79.99390571981027
 30
0.0
 10
479.2707736625018
 20
80.05769074686184
 30
0.0
 10
479.5749812767709
 20
80.12427341351082
 30
0.0
 10
479.8779281192039
 20
80.1936498592866
 30
0.0
 10
480.1796035970802
 20
80.26581614438945
 30
0.0
 10
480.4799972401422
 20
80.34076825410682
 30
0.0
 10
480.7790986995803
 20
80.41850210320004
 30
0.0
 10
481.07689774675
 20
80.49901354024071
 30
0.0
 10
481.3733842716335
 20
80.58229835188318
 30
0.0
 10
481.6685482810373
 20
80.6683522670518
 30
0.0
 10
481.9623798965428
 20
80.75717096102976
 30
0.0
 10
482.2548693522117
 20
80.84875005943069
 30
0.0
 10
482.5460069920599
 20
80.94308514203865
 30
0.0
 10
482.8357832672979
 20
81.04017174649864
 30
0.0
 10
483.1241887333643
 20
81.14000537184056
 30
0.0
 10
483.4112140467358
 20
81.24258148183968
 30
0.0
 10
483.6968499615916
 20
81.34789550811638
 30
0.0
 10
483.9810873261447
 20
81.45594285329194
 30
0.0
 10
484.2639170793615
 20
81.56671889293708
 30
0.0
 10
484.5453302454717
 20
81.68021898097837
 30
0.0
 10
484.8253179360129
 20
81.79643844109609
 30
0.0
 10
485.1038713231417
 20
81.9153726092339
 30
0.0
 10
485.3809817195902
 20
82.03701668420449
 30
0.0
 10
485.6566402602612
 20
82.16136629306511
 30
0.0
 10
485.9308390697539
 20
82.28841538830318
 30
0.0
 10
486.2035668852747
 20
82.41816409929913
 30
0.0
 10
486.4748253678527
 20
82.55058944016145
 30
0.0
 10
486.7445682177774
 20
82.68575461274631
 30
0.0
 10
487.0115603949136
 20
82.82269950398172
 30
0.0
 10
487.1878457374307
 20
82.91601270608442
 30
0.0
 10
487.2753057181222
 20
82.96230793822124
 30
0.0
  0
LINE
  5
E5
330
1F
100
AcDbEntity
  8
0
  6
Continuous
 62
     7
370
    30
100
AcDbLine
 10
409.3481960811
 20
233.9398886262
 30
0.0
 11
402.5998163738
 21
229.7500745723
 31
0.0
  0
LINE
  5
E6
330
1F
100
AcDbEntity
  8
0
  6
Continuous
 62
     7
370
    30
100
AcDbLine
 10
487.3236876791
 20
82.9881228925
 30
0.0
 11
494.3267147439
 21
86.736826992
 31
0.0
  0
SPLINE
  5
E7
330
1F
100
AcDbEntity
  8
0
  6
Continuous
 62
     7
370
    30
100
AcDbSpline
210
0.0
220
0.0
230
1.0
 70
     8
 71
     3
 72
   535
 73
   531
 74
     0
 42
0.000000001
 43
0.00000001
 40
0.0
 40
0.0
 40
0.0
 40
0.0
 40
0.0006324379039134
 40
0.0025200509441267
 40
0.0044076485859602
 40
0.0062952388771754
 40
0.0081828284746891
 40
0.0100704241573583
 40
0.0119580339735284
 40
0.0138456659417643
 40
0.0157333280345441
 40
0.0176210281622932
 40
0.0195087741575961
 40
0.0213965737596247
 40
0.023284434599039
 40
0.0251723641832334
 40
0.0270603698820094
 40
0.0289484589138101
 40
0.0308366383324686
 40
0.0327249150145352
 40
0.034613295647339
 40
0.0365017867175402
 40
0.0383903945005895
 40
0.0402791250507619
 40
0.0421679841920091
 40
0.0440569775096458
 40
0.0459461103427035
 40
0.0478353877771775
 40
0.0497248146401546
 40
0.0516143954945452
 40
0.0535041346349284
 40
0.0553940360839153
 40
0.0572841035896192
 40
0.0591743406236703
 40
0.0610647503802215
 40
0.0629553357755342
 40
0.0648460994485317
 40
0.0667370437618899
 40
0.0686281708039636
 40
0.0705194823912797
 40
0.0724109800717811
 40
0.0743026651285981
 40
0.0761945385844927
 40
0.0780866012067426
 40
0.079978853512582
 40
0.0818712957752022
 40
0.0837639280299857
 40
0.085656750081394
 40
0.087549761509936
 40
0.0894429616797443
 40
0.0913363497461882
 40
0.0932299246638976
 40
0.0951236851949522
 40
0.0970176299171342
 40
0.0989117572325758
 40
0.10080606537621
 40
0.1027005524245128
 40
0.1045952163041979
 40
0.106490054800958
 40
0.1083850655681308
 40
0.1102802461353756
 40
0.1121755939172627
 40
0.1140711062217798
 40
0.1159667802587059
 40
0.1178626131478152
 40
0.1197586019270414
 40
0.1216547435603342
 40
0.1235510349454351
 40
0.1254474729213337
 40
0.1273440542756619
 40
0.1292407757517527
 40
0.1311376340554898
 40
0.1330346258619131
 40
0.1349317478216061
 40
0.1368289965668337
 40
0.1387263687173524
 40
0.1406238608860491
 40
0.1425214696842584
 40
0.1444191917268457
 40
0.1463170236370265
 40
0.1482149620509642
 40
0.150113003622025
 40
0.1520111450248241
 40
0.1539093829590847
 40
0.1558077141531424
 40
0.1577061353672978
 40
0.1596046433968327
 40
0.1615032350749825
 40
0.1634019072754585
 40
0.1653006569148679
 40
0.1671994809549965
 40
0.1690983764047724
 40
0.1709973403220642
 40
0.1728963698152817
 40
0.174795462044912
 40
0.1766946142246914
 40
0.1785938236227626
 40
0.1804930875626135
 40
0.1823924034238759
 40
0.1842917686430218
 40
0.1861911807138238
 40
0.1880906371878262
 40
0.189990135674554
 40
0.1918896738417153
 40
0.193789249415283
 40
0.1956888601794097
 40
0.1975885039763454
 40
0.1994881787061087
 40
0.2013878823263891
 40
0.203287612851973
 40
0.2051873683543657
 40
0.2070871469613384
 40
0.2089869468563214
 40
0.2108867662777554
 40
0.2127866035184449
 40
0.214686456924878
 40
0.2165863248964412
 40
0.2184862058846356
 40
0.2203860983922287
 40
0.222286000972485
 40
0.2241859122281823
 40
0.2260858308108526
 40
0.2279857554197208
 40
0.2298856848008728
 40
0.2317856177463379
 40
0.2336855530930068
 40
0.2355854897218523
 40
0.2374854263218597
 40
0.2393853617582569
 40
0.2412852950516853
 40
0.2431852252625676
 40
0.2450851514901779
 40
0.2469850728716173
 40
0.2488849885810035
 40
0.2507848978283654
 40
0.2526847998588425
 40
0.2545846939516263
 40
0.256484579419161
 40
0.2583844556061412
 40
0.2602843218887299
 40
0.2621841776734993
 40
0.2640840223967958
 40
0.2659838555236822
 40
0.2678836765471955
 40
0.2697834849874975
 40
0.2716832803910672
 40
0.2735830623299164
 40
0.2754828304008164
 40
0.2773825842245003
 40
0.2792823234449108
 40
0.281182047728521
 40
0.2830817567635912
 40
0.2849814502594913
 40
0.2868811279459274
 40
0.288780789572423
 40
0.2906804349075262
 40
0.292580063738291
 40
0.2944796758695762
 40
0.2963792711234849
 40
0.2982788493387595
 40
0.300178410370231
 40
0.3020779540882233
 40
0.303977480378091
 40
0.3058769891395723
 40
0.3077764802864159
 40
0.3096759537457685
 40
0.3115754094577483
 40
0.3134748473749919
 40
0.3153742674621182
 40
0.3172736696954399
 40
0.3191730540623283
 40
0.321072420561005
 40
0.3229717691999723
 40
0.3248710999977599
 40
0.3267704129824066
 40
0.3286697081912409
 40
0.330568985670425
 40
0.3324682454746317
 40
0.3343674876667552
 40
0.3362667123175048
 40
0.3381659195052234
 40
0.3400651093154461
 40
0.3419642818406893
 40
0.3438634371801868
 40
0.3457625754395469
 40
0.3476616967305726
 40
0.3495608011709109
 40
0.3514598888839173
 40
0.3533589599983398
 40
0.3552580146481392
 40
0.3571570529722315
 40
0.3590560751143079
 40
0.3609550812225802
 40
0.3628540714496912
 40
0.3647530459523842
 40
0.3666520048914291
 40
0.368550948431405
 40
0.3704498767405461
 40
0.3723487899905158
 40
0.3742476883563591
 40
0.3761465720162701
 40
0.3780454411514598
 40
0.3799442959460595
 40
0.3818431365868973
 40
0.3837419632634949
 40
0.3856407761678137
 40
0.3875395754942558
 40
0.3894383614394195
 40
0.3913371342021102
 40
0.3932358939831622
 40
0.3951346409853801
 40
0.3970333754134062
 40
0.3989320974736493
 40
0.4008308073741858
 40
0.4027295053246789
 40
0.4046281915363001
 40
0.4065268662216549
 40
0.4084255295946871
 40
0.4103241818706266
 40
0.4122228232659019
 40
0.4141214539981189
 40
0.4160200742859637
 40
0.4179186843490971
 40
0.4198172844082187
 40
0.4217158746848894
 40
0.4236144554015446
 40
0.4255130267814275
 40
0.4274115890486102
 40
0.4293101424277934
 40
0.4312086871443794
 40
0.4331072234244872
 40
0.4350057514947021
 40
0.4369042715823063
 40
0.4388027839150107
 40
0.4407012887210654
 40
0.4425997862291888
 40
0.4444982766685145
 40
0.4463967602686194
 40
0.4482952372593979
 40
0.4501937078711631
 40
0.45209217233453
 40
0.4539906308804341
 40
0.4558890837400927
 40
0.4577875311449713
 40
0.4596859733268455
 40
0.4615844105176489
 40
0.4634828429496015
 40
0.4653812708550513
 40
0.4672796944665918
 40
0.4691781140169639
 40
0.4710765297390833
 40
0.4729749418659642
 40
0.4748733506307932
 40
0.4767717562668939
 40
0.4786701590076822
 40
0.4805685590866858
 40
0.4824669567374906
 40
0.4843653521938404
 40
0.4862637456894864
 40
0.4881621374582913
 40
0.4900605277341719
 40
0.491958916751089
 40
0.4938573047430844
 40
0.4957556919441813
 40
0.4976540785885015
 40
0.4995524649101767
 40
0.5014508511433375
 40
0.5033492374998676
 40
0.505247624158205
 40
0.5071460113524983
 40
0.509044399316976
 40
0.510942788285799
 40
0.5128411784931517
 40
0.5147395701731976
 40
0.5166379635600713
 40
0.5185363588878797
 40
0.520434756390684
 40
0.5223331563025427
 40
0.5242315588573905
 40
0.526129964289173
 40
0.5280283728317338
 40
0.5299267847188289
 40
0.5318252001841686
 40
0.5337236194613113
 40
0.535622042783776
 40
0.5375204703848867
 40
0.5394189024979186
 40
0.5413173393559321
 40
0.543215781191881
 40
0.5451142282385186
 40
0.5470126807284228
 40
0.548911138893959
 40
0.5508096029673134
 40
0.5527080731803755
 40
0.5546065497648262
 40
0.5565050329520248
 40
0.5584035229730835
 40
0.560302020058746
 40
0.5622005244394199
 40
0.5640990363451601
 40
0.5659975560055658
 40
0.5678960836498934
 40
0.5697946195068757
 40
0.5716931638047512
 40
0.573591716771269
 40
0.5754902786335861
 40
0.5773888496182862
 40
0.5792874299512911
 40
0.5811860198578359
 40
0.5830846195624565
 40
0.5849832292889002
 40
0.5868818492600927
 40
0.5887804796981035
 40
0.5906791208240569
 40
0.5925777728581365
 40
0.5944764360194462
 40
0.5963751105260172
 40
0.5982737965946819
 40
0.6001724944411004
 40
0.602071204279587
 40
0.6039699263230737
 40
0.6058686607830828
 40
0.6077674078695856
 40
0.6096661677908969
 40
0.6115649407536892
 40
0.6134637269628337
 40
0.6153625266212682
 40
0.6172613399299453
 40
0.6191601670877886
 40
0.6210590082914391
 40
0.6229578637352634
 40
0.6248567336111929
 40
0.6267556181086228
 40
0.628654517414202
 40
0.6305534317118503
 40
0.6324523611824732
 40
0.6343513060039047
 40
0.6362502663507291
 40
0.6381492423941374
 40
0.6400482343017382
 40
0.6419472422374801
 40
0.643846266361303
 40
0.6457453068291724
 40
0.6476443637927005
 40
0.6495434373990923
 40
0.6514425277908545
 40
0.6533416351056458
 40
0.6552407594760161
 40
0.6571399010292232
 40
0.6590390598869255
 40
0.6609382361650746
 40
0.6628374299735063
 40
0.6647366414157772
 40
0.6666358705889183
 40
0.6685351175830515
 40
0.6704343824812025
 40
0.6723336653589923
 40
0.6742329662842496
 40
0.6761322853168026
 40
0.6780316225080758
 40
0.6799309779007348
 40
0.6818303515284424
 40
0.6837297434153787
 40
0.6856291535759262
 40
0.6875285820142671
 40
0.6894280287240087
 40
0.6913274936877225
 40
0.6932269768765725
 40
0.6951264782498507
 40
0.6970259977545478
 40
0.6989255353248326
 40
0.7008250908816557
 40
0.7027246643321732
 40
0.7046242555693287
 40
0.706523864471239
 40
0.708423490900738
 40
0.7103231347047737
 40
0.7122227957138516
 40
0.7141224737414686
 40
0.7160221685834693
 40
0.7179218800175314
 40
0.7198216078024162
 40
0.7217213516773875
 40
0.723621111361551
 40
0.725520886553161
 40
0.7274206769288788
 40
0.7293204821432031
 40
0.7312203018275306
 40
0.7331201355896516
 40
0.7350199830127697
 40
0.7369198436548589
 40
0.738819717047832
 40
0.740719602696752
 40
0.7426195000789688
 40
0.7445194086432952
 40
0.7464193278092007
 40
0.7483192569658634
 40
0.7502191954713843
 40
0.7521191426517758
 40
0.7540190978001755
 40
0.7559190601758305
 40
0.7578190290032556
 40
0.7597190034711921
 40
0.7616189827317605
 40
0.7635189658994321
 40
0.765418952050145
 40
0.7673189402201989
 40
0.769218929405459
 40
0.7711189182395939
 40
0.7730189055831186
 40
0.7749188902898043
 40
0.7768188711686744
 40
0.7787188469830412
 40
0.7806188164496005
 40
0.7825187782374118
 40
0.784418730967084
 40
0.7863186732097532
 40
0.7882186034862495
 40
0.7901185202662276
 40
0.7920184219673169
 40
0.7939183069542608
 40
0.7958181735382672
 40
0.7977180199761503
 40
0.7996178444696231
 40
0.8015176451647729
 40
0.8034174201513508
 40
0.8053171674622551
 40
0.8072168850730731
 40
0.8091165709016602
 40
0.811016222807739
 40
0.812915838592747
 40
0.8148154159995468
 40
0.8167149527123934
 40
0.8186144463569548
 40
0.8205138945003673
 40
0.8224132946514641
 40
0.8243126442611987
 40
0.8262119407229936
 40
0.8281111813733946
 40
0.8300103634927518
 40
0.8319094843061968
 40
0.8338085409845646
 40
0.8357075306456107
 40
0.8376064503554222
 40
0.8395052971299354
 40
0.8414040679365942
 40
0.8433027596963858
 40
0.8452013692858217
 40
0.8470998935393526
 40
0.8489983292518576
 40
0.8508966731813904
 40
0.8527949220522216
 40
0.8546930725579539
 40
0.8565911213650664
 40
0.8584890651165287
 40
0.8603869004358152
 40
0.8622846239310459
 40
0.8641822321995152
 40
0.8660797218322639
 40
0.8679770894192478
 40
0.869874331554399
 40
0.8717714448411901
 40
0.8736684258984142
 40
0.8755652713661698
 40
0.8774619779121623
 40
0.8793585422381555
 40
0.8812549610868596
 40
0.883151231248823
 40
0.8850473495697414
 40
0.8869433129578809
 40
0.8888391183918075
 40
0.8907347629281143
 40
0.8926302437096391
 40
0.8945255579734985
 40
0.8964207030595874
 40
0.8983156764189465
 40
0.9002104756224156
 40
0.9021050983692602
 40
0.9039995424958901
 40
0.9058938059846733
 40
0.907787886972585
 40
0.9096817837600373
 40
0.9115754948194854
 40
0.9134690188040137
 40
0.9153623545557982
 40
0.9172555011144284
 40
0.919148457724985
 40
0.9210412238458556
 40
0.9229337991564418
 40
0.9248261835643974
 40
0.9267183772125712
 40
0.928610380485604
 40
0.9305021940160422
 40
0.932393818690082
 40
0.9342852556527288
 40
0.9361765063124341
 40
0.9380675723452719
 40
0.9399584556983477
 40
0.9418491585927079
 40
0.9437396835255341
 40
0.9456300332716091
 40
0.9475202108841313
 40
0.949410219694771
 40
0.9513000633128427
 40
0.9531897456239371
 40
0.9550792707874872
 40
0.9569686432336894
 40
0.9588578676595523
 40
0.9607469490241728
 40
0.9626358925430771
 40
0.9645247036818841
 40
0.9664133881489819
 40
0.9683019518876108
 40
0.9701904010669392
 40
0.9720787420725828
 40
0.973966981496169
 40
0.9758551261243933
 40
0.9777431829272216
 40
0.9796311590455082
 40
0.9815190617780493
 40
0.9834068985679413
 40
0.98529467698856
 40
0.9871824047289539
 40
0.9890700895788673
 40
0.9909577394133628
 40
0.992845362177159
 40
0.9947329658686583
 40
0.9966205585238234
 40
0.9985081480252648
 40
1.0
 40
1.0
 40
1.0
 40
1.0
 10
494.5321235562708
 20
86.84824884256321
 30
0.0
 10
494.5612533266122
 20
86.86404117730613
 30
0.0
 10
494.6773255999483
 20
86.92696828498364
 30
0.0
 10
494.8787918436193
 20
87.03976279039583
 30
0.0
 10
495.1364969376851
 20
87.18664658577829
 30
0.0
 10
495.3925612578503
 20
87.3363734891288
 30
0.0
 10
495.6471091404329
 20
87.4887023270831
 30
0.0
 10
495.9000959098804
 20
87.64369092976833
 30
0.0
 10
496.1515222987419
 20
87.80131694874903
 30
0.0
 10
496.401377002102
 20
87.9615794684261
 30
0.0
 10
496.6496520092338
 20
88.12447174379103
 30
0.0
 10
496.8963384788145
 20
88.28998849506765
 30
0.0
 10
497.1414278430753
 20
88.45812395191881
 30
0.0
 10
497.3849115109359
 20
88.62887237625739
 30
0.0
 10
497.6267809466473
 20
88.80222792082441
 30
0.0
 10
497.8670276479227
 20
88.97818466568548
 30
0.0
 10
498.1056431511132
 20
89.15673660699078
 30
0.0
 10
498.3426190292496
 20
89.33787765847464
 30
0.0
 10
498.577946892116
 20
89.52160164949916
 30
0.0
 10
498.8116183859015
 20
89.70790232399119
 30
0.0
 10
499.0436251930856
 20
89.89677333911389
 30
0.0
 10
499.2739590323903
 20
90.0882082639972
 30
0.0
 10
499.502611658834
 20
90.28220057844447
 30
0.0
 10
499.7295748638869
 20
90.4787436716509
 30
0.0
 10
499.9548404757234
 20
90.6778308409319
 30
0.0
 10
500.1784003595689
 20
90.8794552904702
 30
0.0
 10
500.4002464181427
 20
91.08361013008823
 30
0.0
 10
500.6203705921939
 20
91.29028837405413
 30
0.0
 10
500.8387648611228
 20
91.49948293992388
 30
0.0
 10
501.0554212436944
 20
91.71118664743183
 30
0.0
 10
501.2703317988254
 20
91.92539221742447
 30
0.0
 10
501.4834886264599
 20
92.14209227085814
 30
0.0
 10
501.6948838685082
 20
92.36127932784854
 30
0.0
 10
501.9045097098649
 20
92.58294580679261
 30
0.0
 10
502.1123583794809
 20
92.8070840235498
 30
0.0
 10
502.3184221515026
 20
93.0336861907041
 30
0.0
 10
502.5226933464592
 20
93.26274441689375
 30
0.0
 10
502.7251643325029
 20
93.49425070622551
 30
0.0
 10
502.9258275266857
 20
93.72819695776109
 30
0.0
 10
503.1246753962775
 20
93.96457496509
 30
0.0
 10
503.321700460112
 20
94.20337641598111
 30
0.0
 10
503.5168952899623
 20
94.44459289212155
 30
0.0
 10
503.7102525119316
 20
94.68821586893478
 30
0.0
 10
503.9017648078599
 20
94.93423671548305
 30
0.0
 10
504.0914249167403
 20
95.18264669445325
 30
0.0
 10
504.2792256361373
 20
95.43343696222144
 30
0.0
 10
504.4651598236056
 20
95.68659856900337
 30
0.0
 10
504.6492203980974
 20
95.94212245907374
 30
0.0
 10
504.8314003413661
 20
96.1999994710731
 30
0.0
 10
505.0116926993453
 20
96.46022033837806
 30
0.0
 10
505.1900905835161
 20
96.72277568955256
 30
0.0
 10
505.3665871722446
 20
96.98765604886088
 30
0.0
 10
505.5411757120932
 20
97.25485183684833
 30
0.0
 10
505.7138495191033
 20
97.5243533709867
 30
0.0
 10
505.8846019800391
 20
97.7961508663736
 30
0.0
 10
506.0534265535985
 20
98.07023443649378
 30
0.0
 10
506.2203167715821
 20
98.34659409402515
 30
0.0
 10
506.3852662400218
 20
98.62521975170026
 30
0.0
 10
506.5482686402648
 20
98.90610122320773
 30
0.0
 10
506.7093177300121
 20
99.18922822413514
 30
0.0
 10
506.8684073443096
 20
99.47459037294873
 30
0.0
 10
507.0255313964938
 20
99.76217719200811
 30
0.0
 10
507.1806838790864
 20
100.0519781086098
 30
0.0
 10
507.3338588646399
 20
100.3439824560545
 30
0.0
 10
507.4850505065345
 20
100.6381794747406
 30
0.0
 10
507.6342530397247
 20
100.9345583132724
 30
0.0
 10
507.7814607814377
 20
101.2331080295905
 30
0.0
 10
507.9266681318189
 20
101.533817592105
 30
0.0
 10
508.0698695745325
 20
101.8366758808462
 30
0.0
 10
508.2110596773123
 20
102.1416716886174
 30
0.0
 10
508.3502330924658
 20
102.4487937221544
 30
0.0
 10
508.487384557331
 20
102.7580306032805
 30
0.0
 10
508.6225088946883
 20
103.0693708700636
 30
0.0
 10
508.7556010131302
 20
103.3828029779695
 30
0.0
 10
508.886655907387
 20
103.6983153010074
 30
0.0
 10
509.0156686586116
 20
104.0158961328681
 30
0.0
 10
509.1426344346239
 20
104.3355336880492
 30
0.0
 10
509.2675484901188
 20
104.657216102971
 30
0.0
 10
509.3904061668362
 20
104.980931437078
 30
0.0
 10
509.5112028936981
 20
105.3066676739265
 30
0.0
 10
509.6299341869113
 20
105.6344127222555
 30
0.0
 10
509.7465956500387
 20
105.9641544170388
 30
0.0
 10
509.8611829740414
 20
106.2958805205196
 30
0.0
 10
509.9736919372925
 20
106.6295787232268
 30
0.0
 10
510.0841184055666
 20
106.9652366449735
 30
0.0
 10
510.1924583320008
 20
107.3028418358284
 30
0.0
 10
510.2987077570379
 20
107.6423817770752
 30
0.0
 10
510.402862808344
 20
107.9838438821443
 30
0.0
 10
510.504919700709
 20
108.3272154975263
 30
0.0
 10
510.604874735928
 20
108.6724839036612
 30
0.0
 10
510.7027243026676
 20
109.0196363158111
 30
0.0
 10
510.7984648763162
 20
109.3686598849098
 30
0.0
 10
510.8920930188197
 20
109.7195416983863
 30
0.0
 10
510.983605378507
 20
110.0722687809736
 30
0.0
 10
511.0729986899033
 20
110.4268280954932
 30
0.0
 10
511.1602697735347
 20
110.7832065436226
 30
0.0
 10
511.2454155357227
 20
111.1413909666365
 30
0.0
 10
511.3284329683727
 20
111.5013681461351
 30
0.0
 10
511.4093191487577
 20
111.8631248047515
 30
0.0
 10
511.4880712392929
 20
112.2266476068386
 30
0.0
 10
511.5646864873099
 20
112.5919231591414
 30
0.0
 10
511.6391622248252
 20
112.9589380114465
 30
0.0
 10
511.7114958683069
 20
113.3276786572204
 30
0.0
 10
511.78168491844
 20
113.6981315342289
 30
0.0
 10
511.849726959891
 20
114.0702830251429
 30
0.0
 10
511.9156196610711
 20
114.4441194581298
 30
0.0
 10
511.9793607738999
 20
114.8196271074228
 30
0.0
 10
512.0409481335718
 20
115.1967921938918
 30
0.0
 10
512.100379658321
 20
115.5756008855874
 30
0.0
 10
512.1576533491906
 20
115.9560392982819
 30
0.0
 10
512.2127672898031
 20
116.3380934959908
 30
0.0
 10
512.2657196461333
 20
116.7217494914932
 30
0.0
 10
512.3165086662859
 20
117.1069932468366
 30
0.0
 10
512.3651326802736
 20
117.4938106738293
 30
0.0
 10
512.4115900998014
 20
117.8821876345294
 30
0.0
 10
512.4558794180537
 20
118.2721099417251
 30
0.0
 10
512.4979992094854
 20
118.6635633594064
 30
0.0
 10
512.5379481296171
 20
119.056533603226
 30
0.0
 10
512.5757249148354
 20
119.4510063409606
 30
0.0
 10
512.6113283821956
 20
119.8469671929596
 30
0.0
 10
512.6447574292325
 20
120.2444017325984
 30
0.0
 10
512.6760110337717
 20
120.6432954867125
 30
0.0
 10
512.705088253748
 20
121.0436339360405
 30
0.0
 10
512.7319882270284
 20
121.4454025156564
 30
0.0
 10
512.7567101712375
 20
121.8485866153992
 30
0.0
 10
512.7792533835908
 20
122.2531715803053
 30
0.0
 10
512.7996172398897
 20
122.6591426942923
 30
0.0
 10
512.817801195285
 20
123.0664851898657
 30
0.0
 10
512.8338047846548
 20
123.4751842566083
 30
0.0
 10
512.847627622859
 20
123.8852250585926
 30
0.0
 10
512.8592694038731
 20
124.29659272537
 30
0.0
 10
512.868729900281
 20
124.7092723441905
 30
0.0
 10
512.8760089631386
 20
125.1232489604277
 30
0.0
 10
512.8811065218399
 20
125.5385075779893
 30
0.0
 10
512.8840225839881
 20
125.9550331597431
 30
0.0
 10
512.8847572352691
 20
126.3728106279237
 30
0.0
 10
512.8833106393291
 20
126.7918248645602
 30
0.0
 10
512.8796830376551
 20
127.2120607118887
 30
0.0
 10
512.8738747494584
 20
127.6335029727828
 30
0.0
 10
512.8658861715621
 20
128.0561364111653
 30
0.0
 10
512.8557177782897
 20
128.4799457524443
 30
0.0
 10
512.843370121357
 20
128.9049156839294
 30
0.0
 10
512.8288438297675
 20
129.3310308552693
 30
0.0
 10
512.8121396097085
 20
129.7582758788729
 30
0.0
 10
512.7932582444503
 20
130.1866353303477
 30
0.0
 10
512.772200594247
 20
130.6160937489345
 30
0.0
 10
512.7489675962391
 20
131.0466356379469
 30
0.0
 10
512.7235602643581
 20
131.4782454652099
 30
0.0
 10
512.695979689232
 20
131.9109076635009
 30
0.0
 10
512.6662270380936
 20
132.3446066309967
 30
0.0
 10
512.6343035546873
 20
132.7793267317235
 30
0.0
 10
512.60021055918
 20
133.2150522960123
 30
0.0
 10
512.5639494480706
 20
133.6517676209459
 30
0.0
 10
512.5255216941013
 20
134.0894569708227
 30
0.0
 10
512.4849288461699
 20
134.5281045776113
 30
0.0
 10
512.4421725292408
 20
134.9676946414226
 30
0.0
 10
512.3972544442594
 20
135.408211330969
 30
0.0
 10
512.3501763680626
 20
135.8496387840401
 30
0.0
 10
512.300940153294
 20
136.2919611079708
 30
0.0
 10
512.2495477283148
 20
136.7351623801217
 30
0.0
 10
512.1960010971176
 20
137.1792266483552
 30
0.0
 10
512.1403023392378
 20
137.6241379315225
 30
0.0
 10
512.0824536096673
 20
138.0698802199429
 30
0.0
 10
512.022457138763
 20
138.5164374759004
 30
0.0
 10
511.9603152321612
 20
138.9637936341274
 30
0.0
 10
511.8960302706851
 20
139.4119326023057
 30
0.0
 10
511.8296047102548
 20
139.860838261561
 30
0.0
 10
511.7610410817969
 20
140.3104944669633
 30
0.0
 10
511.6903419911492
 20
140.7608850480374
 30
0.0
 10
511.6175101189701
 20
141.2119938092591
 30
0.0
 10
511.5425482206407
 20
141.6638045305771
 30
0.0
 10
511.4654591261717
 20
142.1163009679127
 30
0.0
 10
511.3862457401026
 20
142.5694668536886
 30
0.0
 10
511.3049110414056
 20
143.0232858973345
 30
0.0
 10
511.2214580833831
 20
143.4777417858189
 30
0.0
 10
511.1358899935669
 20
143.9328181841656
 30
0.0
 10
511.0482099736133
 20
144.3884987359853
 30
0.0
 10
510.9584212991987
 20
144.8447670640015
 30
0.0
 10
510.8665273199123
 20
145.3016067705804
 30
0.0
 10
510.772531459146
 20
145.7590014382722
 30
0.0
 10
510.6764372139851
 20
146.2169346303398
 30
0.0
 10
510.5782481550941
 20
146.6753898913032
 30
0.0
 10
510.4779679266023
 20
147.1343507474777
 30
0.0
 10
510.375600245987
 20
147.5938007075194
 30
0.0
 10
510.2711489039538
 20
148.0537232629738
 30
0.0
 10
510.1646177643167
 20
148.5141018888161
 30
0.0
 10
510.0560107638739
 20
148.9749200440102
 30
0.0
 10
509.945331912282
 20
149.4361611720553
 30
0.0
 10
509.8325852919283
 20
149.8978087015462
 30
0.0
 10
509.7177750578011
 20
150.3598460467245
 30
0.0
 10
509.6009054373567
 20
150.8222566080408
 30
0.0
 10
509.4819807303853
 20
151.2850237727099
 30
0.0
 10
509.3610053088726
 20
151.7481309152805
 30
0.0
 10
509.2379836168616
 20
152.2115613981925
 30
0.0
 10
509.1129201703085
 20
152.6752985723486
 30
0.0
 10
508.9858195569406
 20
153.1393257776759
 30
0.0
 10
508.8566864361061
 20
153.603626343702
 30
0.0
 10
508.7255255386277
 20
154.068183590118
 30
0.0
 10
508.5923416666481
 20
154.5329808273558
 30
0.0
 10
508.4571396934768
 20
154.998001357159
 30
0.0
 10
508.3199245634314
 20
155.4632284731614
 30
0.0
 10
508.1807012916777
 20
155.9286454614611
 30
0.0
 10
508.0394749640697
 20
156.3942356011959
 30
0.0
 10
507.8962507369803
 20
156.8599821651284
 30
0.0
 10
507.7510338371377
 20
157.3258684202189
 30
0.0
 10
507.6038295614508
 20
157.7918776282164
 30
0.0
 10
507.4546432768401
 20
158.2579930462292
 30
0.0
 10
507.3034804200591
 20
158.7241979273179
 30
0.0
 10
507.150346497518
 20
159.1904755210729
 30
0.0
 10
506.9952470851
 20
159.6568090742078
 30
0.0
 10
506.8381878279793
 20
160.1231818311399
 30
0.0
 10
506.6791744404339
 20
160.5895770345803
 30
0.0
 10
506.5182127056567
 20
161.0559779261198
 30
0.0
 10
506.3553084755637
 20
161.5223677468194
 30
0.0
 10
506.1904676705989
 20
161.9887297377994
 30
0.0
 10
506.0236962795367
 20
162.4550471408311
 30
0.0
 10
505.8550003592823
 20
162.9213031989264
 30
0.0
 10
505.6843860346692
 20
163.3874811569296
 30
0.0
 10
505.5118594982532
 20
163.8535642621078
 30
0.0
 10
505.3374270101045
 20
164.3195357647471
 30
0.0
 10
505.1610948975959
 20
164.7853789187452
 30
0.0
 10
504.9828695551906
 20
165.2510769822015
 30
0.0
 10
504.8027574442248
 20
165.7166132180144
 30
0.0
 10
504.62076509269
 20
166.1819708944718
 30
0.0
 10
504.4368990950094
 20
166.6471332858507
 30
0.0
 10
504.2511661118164
 20
167.1120836730052
 30
0.0
 10
504.0635728697225
 20
167.5768053439718
 30
0.0
 10
503.8741261610924
 20
168.0412815945553
 30
0.0
 10
503.6828328438099
 20
168.5054957289267
 30
0.0
 10
503.489699841042
 20
168.9694310602195
 30
0.0
 10
503.2947341410035
 20
169.4330709111222
 30
0.0
 10
503.0979427967117
 20
169.8963986144823
 30
0.0
 10
502.8993329257505
 20
170.3593975138874
 30
0.0
 10
502.6989117100176
 20
170.8220509642749
 30
0.0
 10
502.4966863954814
 20
171.2843423325166
 30
0.0
 10
502.2926642919271
 20
171.7462549980203
 30
0.0
 10
502.086852772703
 20
172.2077723533242
 30
0.0
 10
501.8792592744673
 20
172.6688778046859
 30
0.0
 10
501.669891296926
 20
173.1295547726837
 30
0.0
 10
501.4587564025738
 20
173.5897866928055
 30
0.0
 10
501.2458622164282
 20
174.0495570160483
 30
0.0
 10
501.0312164257646
 20
174.5088492095063
 30
0.0
 10
500.8148267798482
 20
174.9676467569645
 30
0.0
 10
500.5967010896592
 20
175.4259331594955
 30
0.0
 10
500.3768472276222
 20
175.8836919360458
 30
0.0
 10
500.1552731273258
 20
176.3409066240353
 30
0.0
 10
499.9319867832488
 20
176.7975607799375
 30
0.0
 10
499.7069962504732
 20
177.2536379798809
 30
0.0
 10
499.4803096444038
 20
177.7091218202314
 30
0.0
 10
499.2519351404785
 20
178.1639959181884
 30
0.0
 10
499.0218809738831
 20
178.6182439123655
 30
0.0
 10
498.7901554392579
 20
179.0718494633821
 30
0.0
 10
498.5567668904037
 20
179.5247962544519
 30
0.0
 10
498.3217237399848
 20
179.9770679919701
 30
0.0
 10
498.085034459231
 20
180.4286484060975
 30
0.0
 10
497.8467075776392
 20
180.8795212513407
 30
0.0
 10
497.6067516826658
 20
181.329670307144
 30
0.0
 10
497.3651754194245
 20
181.7790793784654
 30
0.0
 10
497.1219874903747
 20
182.2277322963657
 30
0.0
 10
496.8771966550146
 20
182.6756129185825
 30
0.0
 10
496.6308117295661
 20
183.1227051301155
 30
0.0
 10
496.38284158666
 20
183.5689928438046
 30
0.0
 10
496.1332951550211
 20
184.0144600009037
 30
0.0
 10
495.8821814191455
 20
184.4590905716637
 30
0.0
 10
495.6295094189809
 20
184.9028685559042
 30
0.0
 10
495.3752882496012
 20
185.3457779835909
 30
0.0
 10
495.1195270618828
 20
185.7878029136764
 30
0.0
 10
494.8622350637198
 20
186.2289274321014
 30
0.0
 10
494.6034215172427
 20
186.6691356567239
 30
0.0
 10
494.3430957374529
 20
187.1084117396103
 30
0.0
 10
494.0812670903064
 20
187.546739870146
 30
0.0
 10
493.8179449948912
 20
187.9841042712922
 30
0.0
 10
493.5531389230926
 20
188.4204892001437
 30
0.0
 10
493.2868583992483
 20
188.8558789484993
 30
0.0
 10
493.0191129998075
 20
189.2902578434212
 30
0.0
 10
492.7499123529851
 20
189.7236102477963
 30
0.0
 10
492.4792661384125
 20
190.1559205609007
 30
0.0
 10
492.2071840867915
 20
190.5871732189512
 30
0.0
 10
491.9336759795392
 20
191.0173526956696
 30
0.0
 10
491.6587516484381
 20
191.4464435028314
 30
0.0
 10
491.3824209752777
 20
191.8744301908253
 30
0.0
 10
491.1046938914994
 20
192.3012973492025
 30
0.0
 10
490.825580377837
 20
192.7270296072257
 30
0.0
 10
490.5450904639532
 20
193.1516116344239
 30
0.0
 10
490.2632342280812
 20
193.5750281411313
 30
0.0
 10
489.9800217966541
 20
193.9972638790423
 30
0.0
 10
489.6954633439445
 20
194.4183036417451
 30
0.0
 10
489.4095690916901
 20
194.8381322652729
 30
0.0
 10
489.1223493087284
 20
195.256734628636
 30
0.0
 10
488.8338143106216
 20
195.6740956543657
 30
0.0
 10
488.5439744592847
 20
196.0902003090468
 30
0.0
 10
488.2528401626075
 20
196.5050336038567
 30
0.0
 10
487.9604218740798
 20
196.9185805950929
 30
0.0
 10
487.6667300924108
 20
197.330826384708
 30
0.0
 10
487.3717753611518
 20
197.7417561208322
 30
0.0
 10
487.0755682683092
 20
198.1513549983075
 30
0.0
 10
486.7781194459649
 20
198.5596082592058
 30
0.0
 10
486.4794395698887
 20
198.9665011933551
 30
0.0
 10
486.1795393591527
 20
199.3720191388578
 30
0.0
 10
485.878429575744
 20
199.7761474826074
 30
0.0
 10
485.57612102417
 20
200.1788716608111
 30
0.0
 10
485.2726245510724
 20
200.5801771594969
 30
0.0
 10
484.9679510448309
 20
200.9800495150288
 30
0.0
 10
484.6621114351719
 20
201.3784743146135
 30
0.0
 10
484.3551166927713
 20
201.7754371968094
 30
0.0
 10
484.0469778288556
 20
202.1709238520335
 30
0.0
 10
483.7377058948073
 20
202.5649200230597
 30
0.0
 10
483.4273119817637
 20
202.957411505521
 30
0.0
 10
483.1158072202159
 20
203.3483841484073
 30
0.0
 10
482.8032027796069
 20
203.7378238545608
 30
0.0
 10
482.4895098679279
 20
204.1257165811697
 30
0.0
 10
482.1747397313145
 20
204.5120483402576
 30
0.0
 10
481.8589036536411
 20
204.8968051991721
 30
0.0
 10
481.5420129561122
 20
205.279973281072
 30
0.0
 10
481.2240789968575
 20
205.6615387654077
 30
0.0
 10
480.9051131705206
 20
206.0414878884045
 30
0.0
 10
480.585126907853
 20
206.4198069435359
 30
0.0
 10
480.2641316752977
 20
206.7964822820054
 30
0.0
 10
479.9421389745817
 20
207.1715003132149
 30
0.0
 10
479.6191603423015
 20
207.5448475052364
 30
0.0
 10
479.2952073495108
 20
207.9165103852784
 30
0.0
 10
478.9702916013044
 20
208.2864755401526
 30
0.0
 10
478.6444247364052
 20
208.6547296167339
 30
0.0
 10
478.3176184267471
 20
209.0212593224205
 30
0.0
 10
477.9898843770579
 20
209.386051425592
 30
0.0
 10
477.661234324442
 20
209.7490927560624
 30
0.0
 10
477.3316800379657
 20
210.1103702055284
 30
0.0
 10
477.0012333182353
 20
210.4698707280211
 30
0.0
 10
476.6699059969795
 20
210.8275813403504
 30
0.0
 10
476.3377099366289
 20
211.1834891225479
 30
0.0
 10
476.0046570298989
 20
211.5375812183044
 30
0.0
 10
475.6707591993647
 20
211.8898448354113
 30
0.0
 10
475.3360283970466
 20
212.2402672461885
 30
0.0
 10
475.0004766039832
 20
212.5888357879211
 30
0.0
 10
474.6641158298163
 20
212.935537863282
 30
0.0
 10
474.3269581123632
 20
213.2803609407626
 30
0.0
 10
473.9890155172013
 20
213.6232925550895
 30
0.0
 10
473.6503001372419
 20
213.9643203076473
 30
0.0
 10
473.310824092312
 20
214.3034318668926
 30
0.0
 10
472.9705995287279
 20
214.6406149687712
 30
0.0
 10
472.6296386188804
 20
214.9758574171211
 30
0.0
 10
472.2879535608063
 20
215.3091470840878
 30
0.0
 10
471.9455565777754
 20
215.6404719105194
 30
0.0
 10
471.6024599178604
 20
215.9698199063766
 30
0.0
 10
471.2586758535247
 20
216.2971791511231
 30
0.0
 10
470.9142166811952
 20
216.6225377941268
 30
0.0
 10
470.569094720847
 20
216.945884055047
 30
0.0
 10
470.2233223155808
 20
217.2672062242272
 30
0.0
 10
469.8769118312084
 20
217.5864926630759
 30
0.0
 10
469.5298756558287
 20
217.9037318044554
 30
0.0
 10
469.182226199416
 20
218.2189121530559
 30
0.0
 10
468.8339758933993
 20
218.532022285776
 30
0.0
 10
468.4851371902485
 20
218.8430508520941
 30
0.0
 10
468.1357225630589
 20
219.1519865744397
 30
0.0
 10
467.785744505136
 20
219.4588182485618
 30
0.0
 10
467.4352155295839
 20
219.7635347438928
 30
0.0
 10
467.0841481688923
 20
220.0661250039104
 30
0.0
 10
466.732554974525
 20
220.366578046497
 30
0.0
 10
466.3804485165132
 20
220.664882964294
 30
0.0
 10
466.0278413830458
 20
220.9610289250541
 30
0.0
 10
465.674746180062
 20
221.2550051719941
 30
0.0
 10
465.3211755308473
 20
221.5468010241389
 30
0.0
 10
464.9671420756271
 20
221.8364058766692
 30
0.0
 10
464.6126584711686
 20
222.123809201259
 30
0.0
 10
464.2577373903772
 20
222.4090005464178
 30
0.0
 10
463.9023915218993
 20
222.6919695378243
 30
0.0
 10
463.5466335697251
 20
222.9727058786613
 30
0.0
 10
463.1904762527941
 20
223.2511993499455
 30
0.0
 10
462.8339323046005
 20
223.5274398108575
 30
0.0
 10
462.4770144728053
 20
223.801417199065
 30
0.0
 10
462.1197355188458
 20
224.0731215310482
 30
0.0
 10
461.7621082175521
 20
224.3425429024179
 30
0.0
 10
461.4041453567582
 20
224.6096714882386
 30
0.0
 10
461.0458597369257
 20
224.8744975433404
 30
0.0
 10
460.6872641707598
 20
225.1370114026374
 30
0.0
 10
460.3283714828371
 20
225.3972034814362
 30
0.0
 10
459.9691945092288
 20
225.6550642757489
 30
0.0
 10
459.6097460971313
 20
225.9105843626
 30
0.0
 10
459.2500391044987
 20
226.1637544003317
 30
0.0
 10
458.8900863996728
 20
226.4145651289133
 30
0.0
 10
458.5299008610248
 20
226.6630073702403
 30
0.0
 10
458.1694953765925
 20
226.9090720284391
 30
0.0
 10
457.8088828437265
 20
227.1527500901654
 30
0.0
 10
457.4480761687336
 20
227.3940326249058
 30
0.0
 10
457.0870882665303
 20
227.6329107852735
 30
0.0
 10
456.7259320602897
 20
227.86937580731
 30
0.0
 10
456.3646204811049
 20
228.1034190107759
 30
0.0
 10
456.003166467638
 20
228.3350317994551
 30
0.0
 10
455.6415829657936
 20
228.564205661442
 30
0.0
 10
455.2798829283756
 20
228.7909321694435
 30
0.0
 10
454.918079314764
 20
229.015202981069
 30
0.0
 10
454.5561850905801
 20
229.237009839131
 30
0.0
 10
454.1942132273662
 20
229.4563445719375
 30
0.0
 10
453.8321767022649
 20
229.6731990935887
 30
0.0
 10
453.4700884977007
 20
229.8875654042741
 30
0.0
 10
453.1079616010664
 20
230.09943559057
 30
0.0
 10
452.7458090044089
 20
230.30880182574
 30
0.0
 10
452.3836437041277
 20
230.5156563700319
 30
0.0
 10
452.0214787006644
 20
230.7199915709824
 30
0.0
 10
451.6593269982075
 20
230.9217998637176
 30
0.0
 10
451.2972016043866
 20
231.1210737712618
 30
0.0
 10
450.9351155299852
 20
231.3178059048417
 30
0.0
 10
450.5730817886422
 20
231.5119889641997
 30
0.0
 10
450.211113396567
 20
231.7036157379035
 30
0.0
 10
449.8492233722459
 20
231.8926791036668
 30
0.0
 10
449.4874247361657
 20
232.0791720286634
 30
0.0
 10
449.1257305105246
 20
232.2630875698543
 30
0.0
 10
448.7641537392979
 20
232.4444188641098
 30
0.0
 10
448.402707470837
 20
232.6231591377909
 30
0.0
 10
448.0414047552543
 20
232.7993017083485
 30
0.0
 10
447.6802586238525
 20
232.9728399942392
 30
0.0
 10
447.3192821059586
 20
233.1437675066016
 30
0.0
 10
446.9584882309956
 20
233.312077848449
 30
0.0
 10
446.5978900282097
 20
233.4777647150265
 30
0.0
 10
446.2375005263908
 20
233.6408218941778
 30
0.0
 10
445.8773327536019
 20
233.8012432667129
 30
0.0
 10
445.5173997369007
 20
233.9590228067859
 30
0.0
 10
445.1577145020651
 20
234.1141545822773
 30
0.0
 10
444.798290073312
 20
234.2666327551841
 30
0.0
 10
444.4391394730205
 20
234.416451582016
 30
0.0
 10
444.0802757214434
 20
234.5636054142005
 30
0.0
 10
443.7217118364227
 20
234.7080886984941
 30
0.0
 10
443.3634608331001
 20
234.8498959774012
 30
0.0
 10
443.0055357236208
 20
234.9890218896006
 30
0.0
 10
442.6479495168337
 20
235.1254611703814
 30
0.0
 10
442.2907152179826
 20
235.2592086520862
 30
0.0
 10
441.9338458283975
 20
235.3902592645611
 30
0.0
 10
441.5773543451721
 20
235.5186080356159
 30
0.0
 10
441.2212537608388
 20
235.6442500914912
 30
0.0
 10
440.865557063029
 20
235.7671806573347
 30
0.0
 10
440.5102772341306
 20
235.8873950576846
 30
0.0
 10
440.1554272509273
 20
236.0048887169631
 30
0.0
 10
439.8010200842334
 20
236.1196571599754
 30
0.0
 10
439.4470686985123
 20
236.2316960124186
 30
0.0
 10
439.0935860514852
 20
236.341001001397
 30
0.0
 10
438.7405850937205
 20
236.4475679559456
 30
0.0
 10
438.3880787682128
 20
236.5513928075602
 30
0.0
 10
438.0360800099418
 20
236.652471590735
 30
0.0
 10
437.6846017454219
 20
236.7508004435042
 30
0.0
 10
437.3336568922223
 20
236.8463756079923
 30
0.0
 10
436.9832583584767
 20
236.9391934309675
 30
0.0
 10
436.6334190423696
 20
237.0292503644005
 30
0.0
 10
436.2841518316039
 20
237.1165429660263
 30
0.0
 10
435.9354696028405
 20
237.2010678999102
 30
0.0
 10
435.5873852211216
 20
237.2828219370149
 30
0.0
 10
435.2399115392634
 20
237.3618019557696
 30
0.0
 10
434.8930613972325
 20
237.4380049426377
 30
0.0
 10
434.5468476214854
 20
237.5114279926856
 30
0.0
 10
434.2012830242915
 20
237.5820683101471
 30
0.0
 10
433.8563804030202
 20
237.649923208986
 30
0.0
 10
433.5121525394031
 20
237.7149901134534
 30
0.0
 10
433.1686121987681
 20
237.7772665586374
 30
0.0
 10
432.825772129239
 20
237.8367501910066
 30
0.0
 10
432.4836450609126
 20
237.8934387689424
 30
0.0
 10
432.142243704995
 20
237.9473301632611
 30
0.0
 10
431.8015807529149
 20
237.9984223577222
 30
0.0
 10
431.4616688753966
 20
238.0467134495215
 30
0.0
 10
431.1225207215127
 20
238.0922016497681
 30
0.0
 10
430.7841489176907
 20
238.1348852839408
 30
0.0
 10
430.4465660667015
 20
238.174762792324
 30
0.0
 10
430.1097847466048
 20
238.2118327304211
 30
0.0
 10
429.7738175096731
 20
238.2460937693397
 30
0.0
 10
429.4386768812758
 20
238.2775446961516
 30
0.0
 10
429.1043753587368
 20
238.3061844142214
 30
0.0
 10
428.770925410167
 20
238.3320119435018
 30
0.0
 10
428.4383394732602
 20
238.3550264207952
 30
0.0
 10
428.1066299540709
 20
238.3752270999769
 30
0.0
 10
427.7758092257573
 20
238.3926133521798
 30
0.0
 10
427.44588962731
 20
238.4071846659361
 30
0.0
 10
427.1168834622476
 20
238.4189406472749
 30
0.0
 10
426.7888029973042
 20
238.4278810197742
 30
0.0
 10
426.4616604610872
 20
238.4340056245627
 30
0.0
 10
426.1354680427326
 20
238.4373144202724
 30
0.0
 10
425.8102378905324
 20
238.4378074829376
 30
0.0
 10
425.485982110568
 20
238.4354850058396
 30
0.0
 10
425.1627127653224
 20
238.4303472992949
 30
0.0
 10
424.8404418723013
 20
238.4223947903867
 30
0.0
 10
424.5191814026461
 20
238.4116280226353
 30
0.0
 10
424.1989432797532
 20
238.3980476556105
 30
0.0
 10
423.8797393779026
 20
238.3816544644807
 30
0.0
 10
423.5615815208937
 20
238.3624493395017
 30
0.0
 10
423.2444814807035
 20
238.3404332854419
 30
0.0
 10
422.928450976158
 20
238.3156074209459
 30
0.0
 10
422.6135016716341
 20
238.2879729778349
 30
0.0
 10
422.2996451757845
 20
238.2575313003455
 30
0.0
 10
421.9868930402986
 20
238.2242838443068
 30
0.0
 10
421.675256758705
 20
238.1882321762583
 30
0.0
 10
421.364747765211
 20
238.1493779725072
 30
0.0
 10
421.0553774335925
 20
238.1077230181307
 30
0.0
 10
420.7471570761325
 20
238.0632692059213
 30
0.0
 10
420.4400979426198
 20
238.0160185352809
 30
0.0
 10
420.134211219408
 20
237.9659731110656
 30
0.0
 10
419.829508028534
 20
237.9131351423818
 30
0.0
 10
419.525999426911
 20
237.8575069413426
 30
0.0
 10
419.2236964055913
 20
237.7990909217817
 30
0.0
 10
418.9226098891058
 20
237.7378895979354
 30
0.0
 10
418.6227507348842
 20
237.6739055830928
 30
0.0
 10
418.3241297327545
 20
237.60714158822
 30
0.0
 10
418.0267576045318
 20
237.5376004205662
 30
0.0
 10
417.7306450036922
 20
237.4652849822527
 30
0.0
 10
417.4358025151363
 20
237.3901982688542
 30
0.0
 10
417.1422406550436
 20
237.3123433679756
 30
0.0
 10
416.8499698708218
 20
237.2317234578334
 30
0.0
 10
416.559000541143
 20
237.1483418058428
 30
0.0
 10
416.2693429760797
 20
237.0622017672246
 30
0.0
 10
415.981007417327
 20
236.9733067836291
 30
0.0
 10
415.6940040385225
 20
236.8816603817922
 30
0.0
 10
415.4083429456501
 20
236.7872661722223
 30
0.0
 10
415.1240341775362
 20
236.6901278479312
 30
0.0
 10
414.8410877064279
 20
236.5902491832089
 30
0.0
 10
414.5595134386617
 20
236.4876340324556
 30
0.0
 10
414.2793212154019
 20
236.3822863290691
 30
0.0
 10
414.0005208134633
 20
236.2742100844004
 30
0.0
 10
413.723121946197
 20
236.1634093867749
 30
0.0
 10
413.4471342644467
 20
236.0498884006003
 30
0.0
 10
413.1725673575741
 20
235.9336513655216
 30
0.0
 10
412.8994307544831
 20
235.8147025957719
 30
0.0
 10
412.6277339249241
 20
235.6930464792084
 30
0.0
 10
412.3574862799616
 20
235.5686874779386
 30
0.0
 10
412.088697175767
 20
235.4416301234539
 30
0.0
 10
411.8213759051604
 20
235.3118790327129
 30
0.0
 10
411.5555317349952
 20
235.1794388465009
 30
0.0
 10
411.2911737725603
 20
235.0443144583236
 30
0.0
 10
411.0283114701214
 20
234.9065101595261
 30
0.0
 10
410.7669527480071
 20
234.7660328294631
 30
0.0
 10
410.5071110051376
 20
234.6228800302233
 30
0.0
 10
410.2487789618299
 20
234.4770844376133
 30
0.0
 10
409.9920262922116
 20
234.3285480305317
 30
0.0
 10
409.7544832536082
 20
234.188205642065
 30
0.0
 10
409.6032549061822
 20
234.0961387721418
 30
0.0
 10
409.5364952625151
 20
234.0554959195667
 30
0.0
  0
ARC
  5
E8
330
1F
100
AcDbEntity
  8
0
  6
Continuous
 62
     7
370
    30
100
AcDbCircle
 10
417.2077288391
 20
140.3470423016
 30
0.0
 40
24.50000000000451
100
AcDbArc
 50
144.7773071595
 51
180.0
  0
ARC
  5
E9
330
1F
100
AcDbEntity
  8
0
  6
Continuous
 62
     7
370
    30
100
AcDbCircle
 10
417.2077288391
 20
140.3470423016
 30
0.0
 40
24.5000000000045
100
AcDbArc
 50
180.0
 51
275.2173163078
  0
SPLINE
  5
EA
330
1F
100
AcDbEntity
  8
0
  6
Continuous
 62
     7
370
    30
100
AcDbSpline
210
0.0
220
0.0
230
1.0
 70
     8
 71
     3
 72
    91
 73
    87
 74
     0
 42
0.000000001
 43
0.00000001
 40
0.0
 40
0.0
 40
0.0
 40
0.0
 40
0.0076992605226076
 40
0.0197928684869361
 40
0.0318847358277371
 40
0.0439748729546215
 40
0.0560632989419734
 40
0.0681500418466164
 40
0.0802351389526203
 40
0.0923186369354625
 40
0.1044005919377786
 40
0.1164810695505138
 40
0.1285601446946524
 40
0.1406379013994981
 40
0.1527144324761883
 40
0.1647898390861285
 40
0.1768642302061424
 40
0.1889377219943661
 40
0.201010437062709
 40
0.2130825036634183
 40
0.2251540547993952
 40
0.2372252272692982
 40
0.2492961606602529
 40
0.2613669963014401
 40
0.2734378409605276
 40
0.285508824397146
 40
0.2975800873465258
 40
0.3096517683557867
 40
0.3217240027542032
 40
0.3337969216689334
 40
0.3458706510995559
 40
0.3579453110629195
 40
0.3700210148189128
 40
0.382097868185799
 40
0.3941759689516226
 40
0.4062554063867647
 40
0.4183362608604435
 40
0.4304186035620486
 40
0.4425024963264304
 40
0.4545879915604756
 40
0.4666751322666625
 40
0.4787639521579837
 40
0.4908544758575614
 40
0.5029467191748744
 40
0.5150406894502345
 40
0.5271363859587515
 40
0.5392338003638584
 40
0.5513329172119459
 40
0.5634337144581651
 40
0.5755361640148624
 40
0.5876402323140699
 40
0.5997458808762893
 40
0.611853066878178
 40
0.6239617437127424
 40
0.6360718615362814
 40
0.6481833677970303
 40
0.6602962077415979
 40
0.6724103248954506
 40
0.6845256615151266
 40
0.6966421590099267
 40
0.7087597583320437
 40
0.7208784003341411
 40
0.7329980260943937
 40
0.7451185772089043
 40
0.7572399960526186
 40
0.7693622260092071
 40
0.7814852116714047
 40
0.7936088990130484
 40
0.8057332355349374
 40
0.8178581703853222
 40
0.829983654457667
 40
0.8421096404670515
 40
0.854236083007072
 40
0.8663629385892679
 40
0.878490165666394
 40
0.8906177246419197
 40
0.9027455778664931
 40
0.9148736896236561
 40
0.9270020261060014
 40
0.9391305553828759
 40
0.9512592473610749
 40
0.9633880737400214
 40
0.975517007961658
 40
0.9876460251566525
 40
0.999775102087697
 40
1.0
 40
1.0
 40
1.0
 40
1.0
 10
419.7998044696324
 20
115.9894640842846
 30
0.0
 10
419.833960447421
 20
115.9939479430414
 30
0.0
 10
419.9217669029146
 20
116.0054748197366
 30
0.0
 10
420.0619413393602
 20
116.0272140537358
 30
0.0
 10
420.2204393190211
 20
116.054311661094
 30
0.0
 10
420.3776949274139
 20
116.0843128711078
 30
0.0
 10
420.5337455793755
 20
116.1170666290529
 30
0.0
 10
420.6885548077976
 20
116.15260721003
 30
0.0
 10
420.8421062285415
 20
116.1909187787298
 30
0.0
 10
420.9943783717261
 20
116.231998471787
 30
0.0
 10
421.1453514268545
 20
116.2758395083622
 30
0.0
 10
421.295005437233
 20
116.3224357246587
 30
0.0
 10
421.4433207838562
 20
116.3717803689526
 30
0.0
 10
421.5902780547366
 20
116.4238664339172
 30
0.0
 10
421.7358580776855
 20
116.4786865766542
 30
0.0
 10
421.8800419081718
 20
116.5362331485635
 30
0.0
 10
422.0228108281647
 20
116.5964981950174
 30
0.0
 10
422.1641463410874
 20
116.659473462215
 30
0.0
 10
422.3040301669944
 20
116.7251504010772
 30
0.0
 10
422.44244423702
 20
116.7935201707914
 30
0.0
 10
422.5793706875186
 20
116.8645736412242
 30
0.0
 10
422.7147918539638
 20
116.9383013943523
 30
0.0
 10
422.8486902647773
 20
117.0146937246419
 30
0.0
 10
422.9810485064597
 20
117.0937405614877
 30
0.0
 10
423.1118493105744
 20
117.1754315061794
 30
0.0
 10
423.2410755958059
 20
117.2597558537174
 30
0.0
 10
423.3687105861668
 20
117.3467026789755
 30
0.0
 10
423.4947377192479
 20
117.4362607872863
 30
0.0
 10
423.6191405985402
 20
117.5284186824217
 30
0.0
 10
423.7419029902782
 20
117.6231645612571
 30
0.0
 10
423.86300882117
 20
117.7204863079475
 30
0.0
 10
423.9824421770762
 20
117.8203714877589
 30
0.0
 10
424.1001873026762
 20
117.9228073406992
 30
0.0
 10
424.2162286021381
 20
118.0277807750984
 30
0.0
 10
424.3305506407876
 20
118.1352783612835
 30
0.0
 10
424.4431381477485
 20
118.245286325488
 30
0.0
 10
424.5539760195093
 20
118.3577905441268
 30
0.0
 10
424.6630493243528
 20
118.4727765385575
 30
0.0
 10
424.7703433075683
 20
118.5902294704299
 30
0.0
 10
424.8758433973568
 20
118.7101341377157
 30
0.0
 10
424.9795352113278
 20
118.832474971488
 30
0.0
 10
425.0814045634803
 20
118.9572360335052
 30
0.0
 10
425.1814374715567
 20
119.0844010146339
 30
0.0
 10
425.2796201646591
 20
119.2139532341296
 30
0.0
 10
425.3759390910167
 20
119.3458756397749
 30
0.0
 10
425.4703809257986
 20
119.4801508088596
 30
0.0
 10
425.5629325788743
 20
119.6167609499766
 30
0.0
 10
425.6535812024286
 20
119.7556879055881
 30
0.0
 10
425.7423141983501
 20
119.896913155315
 30
0.0
 10
425.8291192253204
 20
120.0404178198844
 30
0.0
 10
425.9139842055442
 20
120.1861826656742
 30
0.0
 10
425.9968973310696
 20
120.3341881097802
 30
0.0
 10
426.0778470696598
 20
120.4844142255361
 30
0.0
 10
426.1568221701887
 20
120.6368407484111
 30
0.0
 10
426.2338116675427
 20
120.7914470822144
 30
0.0
 10
426.3088048870182
 20
120.9482123055359
 30
0.0
 10
426.3817914482174
 20
121.1071151783576
 30
0.0
 10
426.452761268449
 20
121.2681341487736
 30
0.0
 10
426.5217045656466
 20
121.4312473597617
 30
0.0
 10
426.5886118608269
 20
121.5964326559568
 30
0.0
 10
426.6534739801091
 20
121.7636675903795
 30
0.0
 10
426.7162820563257
 20
121.9329294310824
 30
0.0
 10
426.7770275302515
 20
122.1041951676798
 30
0.0
 10
426.8357021514858
 20
122.2774415177346
 30
0.0
 10
426.8922979790176
 20
122.4526449329802
 30
0.0
 10
426.9468073815081
 20
122.6297816053614
 30
0.0
 10
426.9992230373216
 20
122.8088274728823
 30
0.0
 10
427.0495379343378
 20
122.9897582252551
 30
0.0
 10
427.0977453695743
 20
123.172549309344
 30
0.0
 10
427.1438389486437
 20
123.357175934412
 30
0.0
 10
427.1878125850991
 20
123.54361307715
 30
0.0
 10
427.2296604995781
 20
123.7318354865726
 30
0.0
 10
427.2693772192051
 20
123.9218176885057
 30
0.0
 10
427.3069575756368
 20
124.1135339907252
 30
0.0
 10
427.3423967078705
 20
124.306958484834
 30
0.0
 10
427.3756900470602
 20
124.5020650595424
 30
0.0
 10
427.4068333683454
 20
124.6988273706629
 30
0.0
 10
427.4358225924921
 20
124.8972189719957
 30
0.0
 10
427.4626545212598
 20
125.0972128451377
 30
0.0
 10
427.4873240879775
 20
125.2987831720602
 30
0.0
 10
427.5098346139102
 20
125.5018987368748
 30
0.0
 10
427.5301595254714
 20
125.7065475680996
 30
0.0
 10
427.5483852251468
 20
125.9126449874822
 30
0.0
 10
427.5641778786881
 20
126.1203767969649
 30
0.0
 10
427.5739984232202
 20
126.2606932641686
 30
0.0
 10
427.5779478054996
 20
126.3321452884754
 30
0.0
 10
427.5780197020221
 20
126.3334460367204
 30
0.0
  0
SPLINE
  5
EB
330
1F
100
AcDbEntity
  8
0
  6
Continuous
 62
     7
370
    30
100
AcDbSpline
210
0.0
220
0.0
230
1.0
 70
     8
 71
     3
 72
    91
 73
    87
 74
     0
 42
0.000000001
 43
0.00000001
 40
0.0
 40
0.0
 40
0.0
 40
0.0
 40
0.0057842459523708
 40
0.0178972932927281
 40
0.0300103209999286
 40
0.0421233081841113
 40
0.0542362324042902
 40
0.0663490696074823
 40
0.0784617940697127
 40
0.0905743783395708
 40
0.102686793185045
 40
0.1147990075447599
 40
0.1269109884844477
 40
0.1390227011595963
 40
0.1511341087858666
 40
0.1632451726182667
 40
0.1753558519404369
 40
0.1874661040657483
 40
0.1995758843517295
 40
0.211685146229382
 40
0.223793841249158
 40
0.2359019191456049
 40
0.2480093279220077
 40
0.2601160139574894
 40
0.2722219221379691
 40
0.2843269960127612
 40
0.2964311779788183
 40
0.3085344094937568
 40
0.3206366313194618
 40
0.3327377837968171
 40
0.3448378071532595
 40
0.3569366418427056
 40
0.3690342289185399
 40
0.3811305104390009
 40
0.3932254299041199
 40
0.4053189327223787
 40
0.4174109667050434
 40
0.4295014825852687
 40
0.4415904345578056
 40
0.4536777808353328
 40
0.4657634842156524
 40
0.4778475126539465
 40
0.4899298398329137
 40
0.5020104457235637
 40
0.5140893171282118
 40
0.5261664481969175
 40
0.5382418409086176
 40
0.5503155055070924
 40
0.562387460882869
 40
0.5744577348914794
 40
0.586526364599561
 40
0.5985933964500337
 40
0.6106588863395112
 40
0.6227228996013274
 40
0.6347855108890048
 40
0.6468468039569246
 40
0.6589068713361014
 40
0.6709658139048856
 40
0.6830237403570066
 40
0.6950807665697425
 40
0.7071370148792241
 40
0.7191926132693931
 40
0.7312476944848783
 40
0.7433023950784658
 40
0.7553568544060068
 40
0.7674112135819822
 40
0.7794655800705612
 40
0.7915200826182264
 40
0.8035748617976674
 40
0.8156300560151323
 40
0.8276858004815063
 40
0.8397422262283744
 40
0.8517994591827213
 40
0.8638576193115144
 40
0.875916819847129
 40
0.8879771666018279
 40
0.9000387573783093
 40
0.912101681481041
 40
0.9241660193313822
 40
0.9362318421874852
 40
0.9482992119679005
 40
0.9603681811766073
 40
0.9724387929247088
 40
0.9845110810437171
 40
0.9965850702834385
 40
0.9999999999999999
 40
0.9999999999999999
 40
0.9999999999999999
 40
0.9999999999999999
 10
410.2582591186905
 20
156.3351288298607
 30
0.0
 10
410.228328946037
 20
156.3501437279961
 30
0.0
 10
410.1357206643883
 20
156.3966019937585
 30
0.0
 10
409.9805838050482
 20
156.4717190862372
 30
0.0
 10
409.7928728887744
 20
156.5605983542749
 30
0.0
 10
409.605363527681
 20
156.6467172082901
 30
0.0
 10
409.4180715563413
 20
156.7302431434893
 30
0.0
 10
409.2310244126953
 20
156.8111166497203
 30
0.0
 10
409.0442464097432
 20
156.8893394820557
 30
0.0
 10
408.8577626790452
 20
156.9648974225126
 30
0.0
 10
408.671598111142
 20
157.0377809788888
 30
0.0
 10
408.4857776364942
 20
157.1079798417919
 30
0.0
 10
408.3003261471856
 20
157.1754843731267
 30
0.0
 10
408.1152685148144
 20
157.2402852106306
 30
0.0
 10
407.9306295825286
 20
157.3023733772924
 30
0.0
 10
407.7464341638844
 20
157.3617402555848
 30
0.0
 10
407.5627070397552
 20
157.4183775980096
 30
0.0
 10
407.3794729556176
 20
157.4722775280019
 30
0.0
 10
407.1967566185692
 20
157.5234325435016
 30
0.0
 10
407.0145826942267
 20
157.5718355198868
 30
0.0
 10
406.8329758034407
 20
157.6174797131442
 30
0.0
 10
406.6519605188193
 20
157.6603587630291
 30
0.0
 10
406.4715613610359
 20
157.700466696264
 30
0.0
 10
406.291802794904
 20
157.7377979297433
 30
0.0
 10
406.1127092251987
 20
157.7723472737274
 30
0.0
 10
405.9343049922066
 20
157.8041099350032
 30
0.0
 10
405.7566143669899
 20
157.8330815199847
 30
0.0
 10
405.5796615463464
 20
157.8592580377233
 30
0.0
 10
405.4034706474579
 20
157.8826359027952
 30
0.0
 10
405.2280657022166
 20
157.9032119380301
 30
0.0
 10
405.0534706512253
 20
157.920983377041
 30
0.0
 10
404.8797093374734
 20
157.935947866514
 30
0.0
 10
404.7068054996937
 20
157.9481034682132
 30
0.0
 10
404.5347827654121
 20
157.9574486606563
 30
0.0
 10
404.36366464371
 20
157.9639823404119
 30
0.0
 10
404.1934745177242
 20
157.9677038229746
 30
0.0
 10
404.0242356369189
 20
157.9686128431697
 30
0.0
 10
403.8559711091721
 20
157.966709555045
 30
0.0
 10
403.6887038927246
 20
157.9619945312092
 30
0.0
 10
403.5224567880513
 20
157.9544687615799
 30
0.0
 10
403.3572524297197
 20
157.9441336515129
 30
0.0
 10
403.1931132783081
 20
157.9309910192884
 30
0.0
 10
403.0300616124646
 20
157.9150430929425
 30
0.0
 10
402.8681195211889
 20
157.8962925064379
 30
0.0
 10
402.7073088964287
 20
157.8747422951838
 30
0.0
 10
402.5476514260795
 20
157.8503958909232
 30
0.0
 10
402.3891685874804
 20
157.823257116023
 30
0.0
 10
402.2318816414946
 20
157.7933301772117
 30
0.0
 10
402.0758116272619
 20
157.7606196588272
 30
0.0
 10
401.9209793577004
 20
157.7251305156499
 30
0.0
 10
401.7674054158292
 20
157.6868680654066
 30
0.0
 10
401.6151101519706
 20
157.6458379810486
 30
0.0
 10
401.4641136818765
 20
157.6020462829107
 30
0.0
 10
401.3144358858092
 20
157.5554993308733
 30
0.0
 10
401.1660964085875
 20
157.5062038166501
 30
0.0
 10
401.0191146605917
 20
157.4541667563317
 30
0.0
 10
400.8735098196997
 20
157.3993954833127
 30
0.0
 10
400.7293008341072
 20
157.3418976417288
 30
0.0
 10
400.5865064259646
 20
157.2816811805228
 30
0.0
 10
400.4451450957429
 20
157.2187543482499
 30
0.0
 10
400.3052351272251
 20
157.1531256887188
 30
0.0
 10
400.1667945930022
 20
157.0848040375498
 30
0.0
 10
400.0298413603408
 20
157.0137985197123
 30
0.0
 10
399.8943930972761
 20
156.9401185480834
 30
0.0
 10
399.7604672787866
 20
156.8637738230481
 30
0.0
 10
399.6280813185975
 20
156.7847744081509
 30
0.0
 10
399.4972524885294
 20
156.7031306966349
 30
0.0
 10
399.3679978732137
 20
156.6188533880002
 30
0.0
 10
399.2403342547896
 20
156.5319534039938
 30
0.0
 10
399.1142781986711
 20
156.4424419339283
 30
0.0
 10
398.9898461042996
 20
156.3503304685975
 30
0.0
 10
398.8670542083555
 20
156.2556308055518
 30
0.0
 10
398.7459185868964
 20
156.1583550551016
 30
0.0
 10
398.6264551572478
 20
156.0585156457841
 30
0.0
 10
398.5086796762947
 20
155.9561253333323
 30
0.0
 10
398.3926077475177
 20
155.8511971973807
 30
0.0
 10
398.2782547906449
 20
155.743744684053
 30
0.0
 10
398.1656361461447
 20
155.6337814767158
 30
0.0
 10
398.0547666718442
 20
155.5213220068983
 30
0.0
 10
397.9456622309694
 20
155.4063795738239
 30
0.0
 10
397.8383341159941
 20
155.2889733879727
 30
0.0
 10
397.7328098378414
 20
155.1691023004452
 30
0.0
 10
397.6290554955486
 20
155.0468428839952
 30
0.0
 10
397.5272655247519
 20
154.9219833291909
 30
0.0
 10
397.4508071909613
 20
154.8256588598736
 30
0.0
 10
397.4088933442274
 20
154.770190072705
 30
0.0
 10
397.3996523609702
 20
154.7579605549331
 30
0.0
  0
LINE
  5
EC
330
1F
100
AcDbEntity
  8
0
  6
Continuous
 62
     7
370
    30
100
AcDbLine
 10
431.6946811753
 20
175.2675748761
 30
0.0
 11
400.358174501
 21
157.1773946333
 31
0.0
  0
LINE
  5
ED
330
1F
100
AcDbEntity
  8
0
  6
Continuous
 62
     7
370
    30
100
AcDbLine
 10
423.3589724243
 20
117.3406866321
 30
0.0
 11
454.6928099405
 21
135.4293260027
 31
0.0
  0
LINE
  5
EE
330
1F
100
AcDbEntity
  8
0
  6
Continuous
 62
     7
370
    30
100
AcDbLine
 10
487.3716681909
 20
83.0138662075
 30
0.0
 11
487.2774936541
 21
82.9634503359
 31
0.0
  0
LINE
  5
EF
330
1F
100
AcDbEntity
  8
0
  6
Continuous
 62
     7
370
    30
100
AcDbLine
 10
402.5545667156
 20
229.7219216671
 30
0.0
 11
402.6456845457
 21
229.7784917972
 31
0.0
  0
LINE
  5
F0
330
1F
100
AcDbEntity
  8
0
  6
Continuous
 62
     7
370
    30
100
AcDbLine
 10
494.5299043958
 20
86.8466607623
 30
0.0
 11
494.3267147439
 21
86.736826992
 31
0.0
  0
LINE
  5
F1
330
1F
100
AcDbEntity
  8
0
  6
Continuous
 62
     7
370
    30
100
AcDbLine
 10
409.3481960811
 20
233.9398886262
 30
0.0
 11
409.5341804524
 21
234.0543695437
 31
0.0
  0
SPLINE
  5
F2
330
1F
100
AcDbEntity
  8
0
  6
Continuous
 62
     7
370
    30
100
AcDbSpline
210
0.0
220
0.0
230
1.0
 70
     8
 71
     3
 72
    36
 73
    32
 74
     0
 42
0.000000001
 43
0.00000001
 40
0.0
 40
0.0
 40
0.0
 40
0.0
 40
0.0345976691360456
 40
0.0692204152429995
 40
0.1038172195988526
 40
0.139391824883985
 40
0.174994923214498
 40
0.2105686044205277
 40
0.245178042520232
 40
0.2798147974512338
 40
0.3144235711460531
 40
0.3500891066619946
 40
0.3857854529016508
 40
0.4214505580173554
 40
0.4552135314881274
 40
0.4890030570983202
 40
0.5227660051353661
 40
0.5575306868314787
 40
0.5923243427206163
 40
0.6270893571969521
 40
0.6605340915554194
 40
0.6940041894323309
 40
0.7274494633028952
 40
0.7618285552867397
 40
0.7962344048311955
 40
0.8306142780656887
 40
0.8644423223458185
 40
0.8983414695574603
 40
0.932266414668981
 40
0.9661690358882232
 40
1.0
 40
1.0
 40
1.0
 40
1.0
 10
407.8052698576113
 20
123.7337034459064
 30
0.0
 10
407.8149783907012
 20
123.6817821352035
 30
0.0
 10
407.8344024937888
 20
123.5779018803606
 30
0.0
 10
407.8509261001806
 20
123.4267685907737
 30
0.0
 10
407.8581368469733
 20
123.2782452759142
 30
0.0
 10
407.8545960864779
 20
123.133291954022
 30
0.0
 10
407.8402268026704
 20
122.9924445609238
 30
0.0
 10
407.8151881790845
 20
122.858764230959
 30
0.0
 10
407.7797432212253
 20
122.7325829915109
 30
0.0
 10
407.7343729433773
 20
122.6140629705111
 30
0.0
 10
407.6782742452884
 20
122.5013086329031
 30
0.0
 10
407.6111037151935
 20
122.3950392831276
 30
0.0
 10
407.5327965109196
 20
122.2958451387115
 30
0.0
 10
407.4458291868514
 20
122.2067571979099
 30
0.0
 10
407.3510059801857
 20
122.1276585200541
 30
0.0
 10
407.2492968337352
 20
122.0581791151003
 30
0.0
 10
407.1381806329491
 20
121.9964756326321
 30
0.0
 10
407.0176422505586
 20
121.9431205737525
 30
0.0
 10
406.8879084094393
 20
121.8984973800773
 30
0.0
 10
406.7523292463993
 20
121.8636954376777
 30
0.0
 10
406.6116367390113
 20
121.8384790071373
 30
0.0
 10
406.4666461257836
 20
121.8223945509267
 30
0.0
 10
406.3145899216945
 20
121.8150612163296
 30
0.0
 10
406.1557252340436
 20
121.8168310015069
 30
0.0
 10
405.9904659481577
 20
121.8278665022416
 30
0.0
 10
405.8217130633741
 20
121.8479400386956
 30
0.0
 10
405.6499521664191
 20
121.8769341640075
 30
0.0
 10
405.4757352810349
 20
121.9144381698519
 30
0.0
 10
405.29868471359
 20
121.9605783216814
 30
0.0
 10
405.1196679240628
 20
122.014383096014
 30
0.0
 10
404.9990687705444
 20
122.0570853321682
 30
0.0
 10
404.9388329862632
 20
122.0784138623466
 30
0.0
  0
ARC
  5
F3
330
1F
100
AcDbEntity
  8
0
  6
Continuous
 62
     7
370
    30
100
AcDbCircle
 10
435.069127714
 20
127.5736775443
 30
0.0
 40
27.53295019230236
100
AcDbArc
 50
153.3039852168
 51
188.0170809543
  0
SPLINE
  5
F4
330
1F
100
AcDbEntity
  8
0
  6
Continuous
 62
     7
370
    30
100
AcDbSpline
210
0.0
220
0.0
230
1.0
 70
     8
 71
     3
 72
    57
 73
    53
 74
     0
 42
0.000000001
 43
0.00000001
 40
0.0
 40
0.0
 40
0.0
 40
0.0
 40
0.016162561165568
 40
0.0323448776331825
 40
0.0459508039577962
 40
0.0595567497870966
 40
0.073208835957717
 40
0.0868609521009634
 40
0.1007544939591864
 40
0.1146480770034862
 40
0.12858739148417
 40
0.1425267545152197
 40
0.1593974372666766
 40
0.1762868250778886
 40
0.197887536553343
 40
0.2195242568569581
 40
0.2413471076483615
 40
0.2631702778563501
 40
0.285120074746447
 40
0.3070701703908598
 40
0.3291876893149188
 40
0.3513323714021978
 40
0.3665615293176557
 40
0.3817907404901352
 40
0.3970507877872825
 40
0.4123108827527091
 40
0.4430829064602353
 40
0.4739096931469884
 40
0.5051171016422414
 40
0.5363742665118743
 40
0.5678654102746215
 40
0.5994019327856399
 40
0.6194372007255784
 40
0.6394831843154036
 40
0.6729562631664588
 40
0.7064761657890286
 40
0.724547753082918
 40
0.7426193590446906
 40
0.7607184245394679
 40
0.7788175048902327
 40
0.797039490414416
 40
0.8152614876177177
 40
0.8335102983416707
 40
0.8517591175782516
 40
0.8702000521778647
 40
0.8886409925881866
 40
0.9071089858438943
 40
0.9255769821075368
 40
0.9441689738893038
 40
0.9627609660500235
 40
0.9813804841203523
 40
1.0
 40
1.0
 40
1.0
 40
1.0
 10
409.8203947953762
 20
149.1070439724374
 30
0.0
 10
409.8581564507905
 20
149.076324703572
 30
0.0
 10
409.9337259172316
 20
149.0148486180522
 30
0.0
 10
410.0369245915975
 20
148.9220349901395
 30
0.0
 10
410.1316203544511
 20
148.831061887296
 30
0.0
 10
410.2181272835999
 20
148.7422962497022
 30
0.0
 10
410.3020584196784
 20
148.6504990768856
 30
0.0
 10
410.3838221172646
 20
148.5551792049233
 30
0.0
 10
410.4632246948212
 20
148.4564849522649
 30
0.0
 10
410.5402617736105
 20
148.3543605140628
 30
0.0
 10
410.6144285560305
 20
148.2494787528362
 30
0.0
 10
410.6906951852044
 20
148.1344125994121
 30
0.0
 10
410.76822137538
 20
148.0087076097565
 30
0.0
 10
410.8534000434661
 20
147.8591646522695
 30
0.0
 10
410.9399867754581
 20
147.6924963579406
 30
0.0
 10
411.0265214787895
 20
147.5074237023775
 30
0.0
 10
411.1062141498613
 20
147.3173572926901
 30
0.0
 10
411.1792050605995
 20
147.1223916501386
 30
0.0
 10
411.2453372362414
 20
146.9234209283944
 30
0.0
 10
411.3048726103012
 20
146.7202829196747
 30
0.0
 10
411.3577961802665
 20
146.5135945278521
 30
0.0
 10
411.3993785822672
 20
146.3255209397277
 30
0.0
 10
411.431803591801
 20
146.1576742361275
 30
0.0
 10
411.4569683603497
 20
146.0107866558238
 30
0.0
 10
411.4791845473343
 20
145.8628809642519
 30
0.0
 10
411.5050481532459
 20
145.6636141082751
 30
0.0
 10
411.5302487372907
 20
145.411813782627
 30
0.0
 10
411.5494392346276
 20
145.1053434199288
 30
0.0
 10
411.5577914104371
 20
144.7953789825527
 30
0.0
 10
411.555532575458
 20
144.4818320290262
 30
0.0
 10
411.542908440412
 20
144.1662968258549
 30
0.0
 10
411.5229508675864
 20
143.887930289245
 30
0.0
 10
411.4997255714737
 20
143.6479283023054
 30
0.0
 10
411.4711693704241
 20
143.4015591339008
 30
0.0
 10
411.4300977381736
 20
143.1103944814453
 30
0.0
 10
411.3813420336143
 20
142.8266840695299
 30
0.0
 10
411.3361483053971
 20
142.5951161858782
 30
0.0
 10
411.298129533659
 20
142.4152850601999
 30
0.0
 10
411.2573019968342
 20
142.2359050730743
 30
0.0
 10
411.2136028636969
 20
142.0566334578919
 30
0.0
 10
411.1670698325628
 20
141.87762726458
 30
0.0
 10
411.1176948140307
 20
141.6988655879331
 30
0.0
 10
411.0656134670576
 20
141.5208139607999
 30
0.0
 10
411.0106632648883
 20
141.3429122765248
 30
0.0
 10
410.9528695677584
 20
141.1653193257544
 30
0.0
 10
410.892202087659
 20
140.9880220709851
 30
0.0
 10
410.8288888095373
 20
140.8117025755759
 30
0.0
 10
410.7628026953341
 20
140.636035100887
 30
0.0
 10
410.6939981131546
 20
140.4611681614462
 30
0.0
 10
410.6223861642285
 20
140.2871248783223
 30
0.0
 10
410.5483689941867
 20
140.1142280457879
 30
0.0
 10
410.4968679058575
 20
140.0001055231555
 30
0.0
 10
410.4711173632077
 20
139.9430442651961
 30
0.0
  0
ARC
  5
F5
330
1F
100
AcDbEntity
  8
0
  6
Continuous
 62
     7
370
    30
100
AcDbCircle
 10
397.9384805792
 20
134.5731852611
 30
0.0
 40
18.77266455461703
100
AcDbArc
 50
50.7328560827
 51
69.27252045
  0
SPLINE
  5
F6
330
1F
100
AcDbEntity
  8
0
  6
Continuous
 62
     7
370
    30
100
AcDbSpline
210
0.0
220
0.0
230
1.0
 70
     8
 71
     3
 72
    56
 73
    52
 74
     0
 42
0.000000001
 43
0.00000001
 40
0.0
 40
0.0
 40
0.0
 40
0.0
 40
0.0161625638320373
 40
0.0323448829693803
 40
0.0459508115386745
 40
0.0595567596126585
 40
0.0732088480355746
 40
0.0868609664311217
 40
0.1007545105814755
 40
0.1146480959179127
 40
0.1285874126982787
 40
0.1425267780290186
 40
0.1593974635637694
 40
0.1762868541613611
 40
0.1978875692004608
 40
0.2195242930736617
 40
0.2413471474653584
 40
0.2631703212736931
 40
0.2851201217850266
 40
0.3070702210507254
 40
0.3291877436236915
 40
0.3513324293643589
 40
0.366561589792295
 40
0.3817908034772615
 40
0.397050853291983
 40
0.4123109507749916
 40
0.4430829795592292
 40
0.4739097713317281
 40
0.5051171849755212
 40
0.5363743550019027
 40
0.5678655039599998
 40
0.5994020316738559
 40
0.618401499684875
 40
0.6374010088492879
 40
0.6564363266786556
 40
0.6754716784599192
 40
0.6946630580495053
 40
0.7138544660001777
 40
0.7330796478798582
 40
0.7523048524354006
 40
0.7717712890746425
 40
0.7912377441165392
 40
0.810737358219402
 40
0.8302369860017106
 40
0.8498903060500277
 40
0.869543635738581
 40
0.8892298947355084
 40
0.9089161593536481
 40
0.9430352206931623
 40
0.9715052673554574
 40
1.0
 40
1.0
 40
1.0
 40
1.0
 10
404.5825667865884
 20
152.1307777199281
 30
0.0
 10
404.544265421598
 20
152.1439686980864
 30
0.0
 10
404.4676158763244
 20
152.1703667775754
 30
0.0
 10
404.3561371951273
 20
152.2014837490921
 30
0.0
 10
404.2493871180154
 20
152.2268028543115
 30
0.0
 10
404.1475279975307
 20
152.2467786225451
 30
0.0
 10
404.0443538873568
 20
152.2629950092569
 30
0.0
 10
403.9393344530911
 20
152.2755027441375
 30
0.0
 10
403.8326652198585
 20
152.2842254614133
 30
0.0
 10
403.7243134008012
 20
152.2891237558951
 30
0.0
 10
403.6150000953746
 20
152.2901627947947
 30
0.0
 10
403.4971069780545
 20
152.2871826772033
 30
0.0
 10
403.3706366522015
 20
152.2792423695592
 30
0.0
 10
403.2230326582338
 20
152.2640819824624
 30
0.0
 10
403.0619284471729
 20
152.2404026259528
 30
0.0
 10
402.8870023897807
 20
152.2062680547481
 30
0.0
 10
402.7111962933929
 20
152.163697943968
 30
0.0
 10
402.5345771467438
 20
152.1128291203591
 30
0.0
 10
402.3579366967858
 20
152.0540080522045
 30
0.0
 10
402.1810994852945
 20
151.9873250325974
 30
0.0
 10
402.0045899266499
 20
151.9130855666668
 30
0.0
 10
401.8469683647041
 20
151.8400099791268
 30
0.0
 10
401.7084706800698
 20
151.770834846588
 30
0.0
 10
401.5887752849456
 20
151.7075732587377
 30
0.0
 10
401.4697364684172
 20
151.6412123449864
 30
0.0
 10
401.311321397467
 20
151.5483273046511
 30
0.0
 10
401.1147979560548
 20
151.4245255352211
 30
0.0
 10
400.8813641010191
 20
151.2638921033913
 30
0.0
 10
400.6509575009168
 20
151.0917601867653
 30
0.0
 10
400.423535290511
 20
150.9081972332792
 30
0.0
 10
400.2002611253666
 20
150.7142678913822
 30
0.0
 10
400.010553768318
 20
150.5375101407822
 30
0.0
 10
399.8529717378357
 20
150.3825075231888
 30
0.0
 10
399.7257543487075
 20
150.2522821120897
 30
0.0
 10
399.6005428166512
 20
150.11898013185
 30
0.0
 10
399.4770475938255
 20
149.9823173435182
 30
0.0
 10
399.3554108643663
 20
149.8424407372931
 30
0.0
 10
399.2356240179799
 20
149.6993298752309
 30
0.0
 10
399.1180631923395
 20
149.5534452788886
 30
0.0
 10
399.0022893045827
 20
149.4042449463487
 30
0.0
 10
398.8884451153106
 20
149.2518580196048
 30
0.0
 10
398.7765402914516
 20
149.0962419599255
 30
0.0
 10
398.6670910520824
 20
148.9381033141923
 30
0.0
 10
398.5598581358136
 20
148.7770946459785
 30
0.0
 10
398.4549661027845
 20
148.6133603015999
 30
0.0
 10
398.3524170707786
 20
148.4468651906216
 30
0.0
 10
398.2525345193392
 20
148.2781038403439
 30
0.0
 10
398.1315868364524
 20
148.0653888756237
 30
0.0
 10
398.0016263598546
 20
147.8233095522598
 30
0.0
 10
397.864289806282
 20
147.550952155228
 30
0.0
 10
397.7835717965165
 20
147.377487290109
 30
0.0
 10
397.7431953018499
 20
147.2907172716004
 30
0.0
  0
ARC
  5
F7
330
1F
100
AcDbEntity
  8
0
  6
Continuous
 62
     7
370
    30
100
AcDbCircle
 10
422.2115232936
 20
134.9426785861
 30
0.0
 40
27.40753790641558
100
AcDbArc
 50
153.2220242385
 51
188.0990419328
  0
SPLINE
  5
F8
330
1F
100
AcDbEntity
  8
0
  6
Continuous
 62
     7
370
    30
100
AcDbSpline
210
0.0
220
0.0
230
1.0
 70
     8
 71
     3
 72
    36
 73
    32
 74
     0
 42
0.000000001
 43
0.00000001
 40
0.0
 40
0.0
 40
0.0
 40
0.0
 40
0.0345976691360886
 40
0.0692204152431066
 40
0.1038172195990445
 40
0.139391824884199
 40
0.1749949232147343
 40
0.2105686044207863
 40
0.2451780425205143
 40
0.27981479745154
 40
0.3144235711463833
 40
0.3500891066623515
 40
0.3857854529020345
 40
0.4214505580177657
 40
0.4552135314885338
 40
0.4890030570987225
 40
0.5227660051357644
 40
0.557530686831872
 40
0.5923243427210044
 40
0.6270893571973348
 40
0.6605340915557982
 40
0.6940041894327051
 40
0.7274494633032658
 40
0.7618285552871062
 40
0.796234404831558
 40
0.8306142780660469
 40
0.8644423223461056
 40
0.8983414695576755
 40
0.9322664146691239
 40
0.9661690358882948
 40
1.0
 40
1.0
 40
1.0
 40
1.0
 10
395.0773477962398
 20
131.0813764523111
 30
0.0
 10
395.0886320710874
 20
131.0285454852544
 30
0.0
 10
395.1112087998142
 20
130.92284525837
 30
0.0
 10
395.1531811596984
 20
130.7570207161087
 30
0.0
 10
395.2014212454513
 20
130.5848116680345
 30
0.0
 10
395.2566773226795
 20
130.4059156542141
 30
0.0
 10
395.3187913587228
 20
130.2209153803866
 30
0.0
 10
395.3865113097444
 20
130.0336866651102
 30
0.0
 10
395.459493455586
 20
129.8449117910384
 30
0.0
 10
395.5372944618986
 20
129.6552865012109
 30
0.0
 10
395.6212030395428
 20
129.4617076837195
 30
0.0
 10
395.7112041620242
 20
129.2647050702234
 30
0.0
 10
395.8071227377573
 20
129.0649325238806
 30
0.0
 10
395.9059550275143
 20
128.8685847491074
 30
0.0
 10
396.007121833432
 20
128.6763434452958
 30
0.0
 10
396.1100187575294
 20
128.4887474699965
 30
0.0
 10
396.2172400609964
 20
128.3010004292356
 30
0.0
 10
396.3285873897481
 20
128.1137805987054
 30
0.0
 10
396.4437550522668
 20
127.9277787763088
 30
0.0
 10
396.5597990788916
 20
127.7477178584401
 30
0.0
 10
396.6762547170811
 20
127.5740529632722
 30
0.0
 10
396.7926780921256
 20
127.4070574238648
 30
0.0
 10
396.9113305678693
 20
127.2434472948454
 30
0.0
 10
397.031902222861
 20
127.083901913105
 30
0.0
 10
397.1540371860257
 20
126.9290282453389
 30
0.0
 10
397.2756211948634
 20
126.7814938607403
 30
0.0
 10
397.3963447054246
 20
126.6416403316167
 30
0.0
 10
397.5159511318089
 20
126.5095237500529
 30
0.0
 10
397.6347049758005
 20
126.3848996499797
 30
0.0
 10
397.7522984941617
 20
126.2674749382905
 30
0.0
 10
397.8293034361513
 20
126.1961027582502
 30
0.0
 10
397.8677651743886
 20
126.1604544214654
 30
0.0
  0
ARC
  5
F9
330
1F
100
AcDbEntity
  8
0
  6
Continuous
 62
     7
370
    30
100
AcDbCircle
 10
408.1101482854
 20
137.4162272111
 30
0.0
 40
15.21837155824531
100
AcDbArc
 50
227.6988362709
 51
228.3908433348
  0
ARC
  5
FA
330
1F
100
AcDbEntity
  8
0
  6
Continuous
 62
     7
370
    30
100
AcDbCircle
 10
412.0536407213
 20
142.5921264823
 30
0.0
 40
21.71250548785145
100
AcDbArc
 50
229.6800667715
 51
250.8718280685
  0
LINE
  5
FB
330
1F
100
AcDbEntity
  8
0
  6
Continuous
 62
     7
370
    30
100
AcDbLine
 10
397.1932738612
 20
154.4775621766
 30
0.0
 11
397.398047092
 21
154.7562740235
 31
0.0
  0
LWPOLYLINE
  5
FC
330
1F
100
AcDbEntity
  8
0
  6
Continuous
 62
     7
370
    30
100
AcDbPolyline
 90
        3
 70
   128
 43
0.0
 10
419.7974289576
 20
115.9888604365
 10
419.7844870544
 20
115.9871638436
 10
419.4356010296
 20
115.9485467434
  0
SPLINE
  5
FD
330
1F
100
AcDbEntity
  8
0
  6
Continuous
 62
     7
370
    30
100
AcDbSpline
210
0.0
220
0.0
230
1.0
 70
     8
 71
     3
 72
    16
 73
    12
 74
     0
 42
0.000000001
 43
0.00000001
 40
0.0
 40
0.0
 40
0.0
 40
0.0
 40
0.1033663315647697
 40
0.2063812195295744
 40
0.3091090851212078
 40
0.414780349790311
 40
0.5202787897614679
 40
0.6256677687716138
 40
0.7310079584078892
 40
0.8734897100169166
 40
1.0
 40
1.0
 40
1.0
 40
1.0
 10
406.1443975448248
 20
122.7743427757013
 30
0.0
 10
406.19999400008
 20
122.7516893789795
 30
0.0
 10
406.3109978836793
 20
122.7064596066624
 30
0.0
 10
406.4762865347225
 20
122.6492066014174
 30
0.0
 10
406.6415455841431
 20
122.5994707197664
 30
0.0
 10
406.8063611356558
 20
122.558348861415
 30
0.0
 10
406.9703136839293
 20
122.5260305075501
 30
0.0
 10
407.1314378115334
 20
122.5029312132676
 30
0.0
 10
407.307766623959
 20
122.4877971028639
 30
0.0
 10
407.4904076445232
 20
122.483361951809
 30
0.0
 10
407.6153820899791
 20
122.4939556802667
 30
0.0
 10
407.6741591201154
 20
122.498938042017
 30
0.0
  0
ARC
  5
FE
330
1F
100
AcDbEntity
  8
0
  6
Continuous
 62
     7
370
    30
100
AcDbCircle
 10
417.6671077236
 20
150.8998666617
 30
0.0
 40
30.39435083858325
100
AcDbArc
 50
232.2837605204
 51
247.7216143
  0
SPLINE
  5
FF
330
1F
100
AcDbEntity
  8
0
  6
Continuous
 62
     7
370
    30
100
AcDbSpline
210
0.0
220
0.0
230
1.0
 70
     8
 71
     3
 72
    38
 73
    34
 74
     0
 42
0.000000001
 43
0.00000001
 40
0.0
 40
0.0
 40
0.0
 40
0.0
 40
0.0328494064001044
 40
0.0656181709753423
 40
0.0983176881887989
 40
0.1318689126054223
 40
0.1653708325279993
 40
0.1988353141929834
 40
0.2322741080075351
 40
0.2656988776651939
 40
0.2991212295740371
 40
0.3325527424989624
 40
0.3660049973199667
 40
0.3994896068085166
 40
0.4330182453240133
 40
0.4666026783320033
 40
0.5002547916453729
 40
0.5335293897601078
 40
0.5668537764720414
 40
0.6002406693179893
 40
0.6337031813873614
 40
0.6605378437603411
 40
0.6874366770313312
 40
0.7144069841228371
 40
0.7414562523996749
 40
0.768592157229325
 40
0.8019431767979739
 40
0.8353096373377851
 40
0.8687107223178899
 40
0.9021664655667978
 40
0.9346801625310419
 40
0.9672845583562572
 40
1.0
 40
1.0
 40
1.0
 40
1.0
 10
396.4790993480558
 20
131.8906015304912
 30
0.0
 10
396.4833560778629
 20
131.8359808988609
 30
0.0
 10
396.4918590876549
 20
131.7268737234846
 30
0.0
 10
396.5126114042448
 20
131.5573376709917
 30
0.0
 10
396.5393522439605
 20
131.3827062732084
 30
0.0
 10
396.5727710317584
 20
131.2028179232995
 30
0.0
 10
396.6128063165234
 20
131.0181521996256
 30
0.0
 10
396.6590759543561
 20
130.8307927712074
 30
0.0
 10
396.7114386287103
 20
130.6412255898994
 30
0.0
 10
396.769757135405
 20
130.4499281401047
 30
0.0
 10
396.8338800900677
 20
130.2573840379424
 30
0.0
 10
396.9036470388639
 20
130.0640784140942
 30
0.0
 10
396.9788873181457
 20
129.8704984369941
 30
0.0
 10
397.0594205903074
 20
129.6771324691562
 30
0.0
 10
397.1450569715126
 20
129.4844695515939
 30
0.0
 10
397.235597166331
 20
129.2929989384336
 30
0.0
 10
397.3304017646723
 20
129.1040685491125
 30
0.0
 10
397.4291441470419
 20
128.918203997258
 30
0.0
 10
397.5315009526773
 20
128.7359043226632
 30
0.0
 10
397.6376489912485
 20
128.5568571929159
 30
0.0
 10
397.7400143191602
 20
128.3932402726411
 30
0.0
 10
397.8376347706982
 20
128.2445638758075
 30
0.0
 10
397.9297628521591
 20
128.110164991094
 30
0.0
 10
398.0237504140014
 20
127.9788730955857
 30
0.0
 10
398.1194659051363
 20
127.850907813735
 30
0.0
 10
398.2240881049025
 20
127.7171408472506
 30
0.0
 10
398.3376943696198
 20
127.5790653353743
 30
0.0
 10
398.4602341139768
 20
127.4384659861864
 30
0.0
 10
398.5839240638734
 20
127.3048272452025
 30
0.0
 10
398.707246786986
 20
127.1796854271981
 30
0.0
 10
398.8299083644374
 20
127.0632766201482
 30
0.0
 10
398.9517148038799
 20
126.9548492089776
 30
0.0
 10
399.0327461067042
 20
126.8892422423395
 30
0.0
 10
399.0733306360232
 20
126.8563829920468
 30
0.0
  0
ARC
  5
100
330
1F
100
AcDbEntity
  8
0
  6
Continuous
 62
     7
370
    30
100
AcDbCircle
 10
435.783289872
 20
133.4516367489
 30
0.0
 40
39.33517146585265
100
AcDbArc
 50
157.9800764702
 51
182.2744184017
  0
SPLINE
  5
101
330
1F
100
AcDbEntity
  8
0
  6
Continuous
 62
     7
370
    30
100
AcDbSpline
210
0.0
220
0.0
230
1.0
 70
     8
 71
     3
 72
    22
 73
    18
 74
     0
 42
0.000000001
 43
0.00000001
 40
0.0
 40
0.0
 40
0.0
 40
0.0
 40
0.0443192066572067
 40
0.110965616622311
 40
0.1781264739932943
 40
0.2458749787985878
 40
0.3142834308228861
 40
0.3812377371443279
 40
0.4483916452496293
 40
0.5158172797827446
 40
0.5835862368848168
 40
0.6530475413556254
 40
0.7222807790016418
 40
0.7913700929931969
 40
0.8605662641263784
 40
0.9306393416827493
 40
1.0
 40
1.0
 40
1.0
 40
1.0
 10
401.9893206129752
 20
151.9047388139629
 30
0.0
 10
401.9384624239334
 20
151.8673344758163
 30
0.0
 10
401.8111246231698
 20
151.7736821801219
 30
0.0
 10
401.6122944724551
 20
151.6097847373233
 30
0.0
 10
401.3928239909097
 20
151.4129584345851
 30
0.0
 10
401.1781079063127
 20
151.2017303739869
 30
0.0
 10
400.9704951556567
 20
150.9790939574134
 30
0.0
 10
400.770652631223
 20
150.7461690273352
 30
0.0
 10
400.5791365170292
 20
150.5041513009653
 30
0.0
 10
400.3945405704081
 20
150.2514085839492
 30
0.0
 10
400.2158983287307
 20
149.98648173642
 30
0.0
 10
400.0441228957334
 20
149.7103230137437
 30
0.0
 10
399.8801404759583
 20
149.4238598231115
 30
0.0
 10
399.7254030339831
 20
149.1298391345688
 30
0.0
 10
399.5795462782402
 20
148.8271140588895
 30
0.0
 10
399.4423316235648
 20
148.5175382543268
 30
0.0
 10
399.3589901377799
 20
148.3053198934597
 30
0.0
 10
399.3175323063379
 20
148.1997528646161
 30
0.0
  0
LWPOLYLINE
  5
102
330
1F
100
AcDbEntity
  8
0
  6
Continuous
 62
   252
370
     0
100
AcDbPolyline
 90
       32
 70
   128
 43
0.0
 10
505.6704297172
 20
122.2287315961
 10
505.6498952699
 20
120.4291937648
 10
505.5883060016
 20
118.654597815
 10
505.4857041223
 20
116.9061599659
 10
505.3421599504
 20
115.1850785097
 10
505.1577718637
 20
113.4925329896
 10
504.9326662327
 20
111.8296833917
 10
504.6669973336
 20
110.1976693501
 10
504.3609472424
 20
108.5976093657
 10
504.0147257108
 20
107.0306000396
 10
503.6285700216
 20
105.4977153219
 10
503.2027448265
 20
104.000005775
 10
502.7375419651
 20
102.5384978544
 10
502.233280264
 20
101.1141932045
 10
501.6903053191
 20
99.7280679727
 10
501.1089892582
 20
98.3810721398
 10
500.4897304863
 20
97.0741288696
 10
499.8329534125
 20
95.8081338757
 10
499.139108159
 20
94.5839548078
 10
498.4086702526
 20
93.4024306572
 10
497.642140299
 20
92.2643711814
 10
496.8400436395
 20
91.1705563495
 10
496.0029299912
 20
90.1217358077
 10
495.1313730699
 20
89.1186283651
 10
494.2259701971
 20
88.1619215014
 10
493.2873418909
 20
87.2522708958
 10
492.31613144
 20
86.3902999774
 10
491.3130044638
 20
85.5765994978
 10
490.2786484553
 20
84.8117271269
 10
489.2137723103
 20
84.09620707
 10
488.119105842
 20
83.4305297087
 10
487.3716681909
 20
83.0138662075
  0
LWPOLYLINE
  5
103
330
1F
100
AcDbEntity
  8
0
  6
Continuous
 62
   252
370
     0
100
AcDbPolyline
 90
       92
 70
   128
 43
0.0
 10
402.6456845457
 20
229.7784917972
 10
403.3738175707
 20
230.2136742677
 10
404.4975241328
 20
230.8290527114
 10
405.6495006563
 20
231.3937104878
 10
406.828957634
 20
231.9072606086
 10
408.035086725
 20
232.3693511123
 10
409.2670613087
 20
232.7796653052
 10
410.5240370512
 20
233.1379219783
 10
411.8051524842
 20
233.4438756004
 10
413.1095295952
 20
233.6973164863
 10
414.4362744291
 20
233.8980709401
 10
415.7844777015
 20
234.0460013749
 10
417.153215421
 20
234.1410064064
 10
418.5415495233
 20
234.183020923
 10
419.9485285134
 20
234.17201613
 10
421.3731881184
 20
234.1079995696
 10
422.8145519476
 20
233.9910151156
 10
424.2716321622
 20
233.8211429431
 10
425.7434301524
 20
233.5984994741
 10
427.2289372212
 20
233.3232372974
 10
428.7271352763
 20
232.9955450638
 10
430.2369975276
 20
232.6156473574
 10
431.7574891909
 20
232.1838045409
 10
433.2875681973
 20
231.7003125778
 10
434.8261859069
 20
231.1655028295
 10
436.3722878281
 20
230.5797418278
 10
437.9248143398
 20
229.943431024
 10
439.4827014179
 20
229.2570065137
 10
441.0448813644
 20
228.5209387382
 10
442.6102835392
 20
227.7357321613
 10
444.1778350939
 20
226.9019249245
 10
445.7464617069
 20
226.0200884777
 10
447.31508832
 20
225.0908271874
 10
448.8826398747
 20
224.114777923
 10
450.4480420495
 20
223.0926096199
 10
452.010221996
 20
222.0250228211
 10
453.5681090741
 20
220.9127491973
 10
455.1206355858
 20
219.7565510453
 10
456.666737507
 20
218.5572207656
 10
458.2053552166
 20
217.3155803192
 10
459.7354342229
 20
216.0324806645
 10
461.2559258862
 20
214.7088011739
 10
462.7657881375
 20
213.3454490311
 10
464.2639861926
 20
211.9433586097
 10
465.7494932614
 20
210.5034908324
 10
467.2212912516
 20
209.0268325126
 10
468.6783714662
 20
207.5143956781
 10
470.1197352954
 20
205.9672168778
 10
471.5443949003
 20
204.3863564705
 10
472.9513738905
 20
202.7728978991
 10
474.3397079927
 20
201.1279469475
 10
475.7084457123
 20
199.4526309828
 10
477.0566489846
 20
197.748098183
 10
478.3833938185
 20
196.0155167498
 10
479.6877709294
 20
194.2560741078
 10
480.9688863624
 20
192.4709760912
 10
482.2258621049
 20
190.661446117
 10
483.4578366886
 20
188.8287243466
 10
484.6639657796
 20
186.974066836
 10
485.8434227573
 20
185.0987446749
 10
486.9953992807
 20
183.2040431153
 10
488.1191058428
 20
181.2912606911
 10
489.2137723112
 20
179.3617083277
 10
490.278648456
 20
177.4167084441
 10
491.3130044646
 20
175.4575940459
 10
492.3161314408
 20
173.4857078123
 10
493.2873418916
 20
171.5024011756
 10
494.2259701978
 20
169.5090333952
 10
495.1313730705
 20
167.5069706257
 10
496.0029299918
 20
165.497584981
 10
496.8400436401
 20
163.4822535935
 10
497.6421402996
 20
161.4623576709
 10
498.4086702531
 20
159.4392815488
 10
499.1391081595
 20
157.4144117425
 10
499.832953413
 20
155.3891359968
 10
500.4897304868
 20
153.3648423343
 10
501.1089892586
 20
151.3429181049
 10
501.6903053195
 20
149.3247490345
 10
502.2332802644
 20
147.3117182753
 10
502.7375419655
 20
145.305205458
 10
503.2027448269
 20
143.3065857463
 10
503.6285700219
 20
141.3172288943
 10
504.0147257111
 20
139.3384983079
 10
504.3609472427
 20
137.3717501101
 10
504.6669973338
 20
135.4183322119
 10
504.9326662329
 20
133.4795833884
 10
505.1577718639
 20
131.5568323611
 10
505.3421599505
 20
129.6513968877
 10
505.4857041224
 20
127.7645828582
 10
505.5883060017
 20
125.897683401
 10
505.64989527
 20
124.0519779955
 10
505.6704297172
 20
122.2287315961
  0
LWPOLYLINE
  5
104
330
1F
100
AcDbEntity
  8
0
  6
Continuous
 62
   252
370
     0
100
AcDbPolyline
 90
       83
 70
   128
 43
0.0
 10
502.9427786119
 20
122.214862602
 10
502.9227073973
 20
120.4559202009
 10
502.8625075095
 20
118.7213570222
 10
502.7622202065
 20
117.0123618487
 10
502.6219142201
 20
115.3301059403
 10
502.441685709
 20
113.6757422313
 10
502.221658193
 20
112.0504045399
 10
501.9619824678
 20
110.4552067914
 10
501.6628365022
 20
108.8912422546
 10
501.324425316
 20
107.3595827926
 10
500.9469808392
 20
105.8612781285
 10
500.5307617534
 20
104.3973551253
 10
500.0760533145
 20
102.9688170827
 10
499.5831671568
 20
101.5766430494
 10
499.0524410799
 20
100.2217871519
 10
498.484238817
 20
98.9051779408
 10
497.8789497855
 20
97.6277177542
 10
497.2369888203
 20
96.3902820996
 10
496.5587958893
 20
95.1937190535
 10
495.8448357922
 20
94.0388486805
 10
495.0955978414
 20
92.9264624711
 10
494.3115955273
 20
91.8573227991
 10
493.4933661659
 20
90.8321623996
 10
492.6414705307
 20
89.8516838662
 10
491.7564924684
 20
88.91655917
 10
490.8390384989
 20
88.0274291986
 10
489.8897373991
 20
87.1849033175
 10
488.9092397728
 20
86.3895589517
 10
487.8982176039
 20
85.6419411905
 10
486.8573637965
 20
84.9425624139
 10
485.7873917
 20
84.291901941
 10
484.6890346196
 20
83.6904057021
 10
483.5630453145
 20
83.1384859327
 10
482.4101954815
 20
82.6365208909
 10
481.2312752263
 20
82.1848545986
 10
480.027092522
 20
81.7837966053
 10
478.7984726551
 20
81.4336217761
 10
477.5462576605
 20
81.1345701032
 10
476.2713057437
 20
80.8868465419
 10
474.9744906931
 20
80.6906208695
 10
473.6567012809
 20
80.5460275691
 10
472.3188406541
 20
80.453165738
 10
470.9618257157
 20
80.4120990188
 10
469.5865864959
 20
80.4228555568
 10
468.1940655149
 20
80.4854279798
 10
466.785217137
 20
80.5997734039
 10
465.3610069166
 20
80.7658134625
 10
463.9224109363
 20
80.98343436
 10
462.4704151377
 20
81.2524869498
 10
461.0060146464
 20
81.5727868369
 10
459.5302130893
 20
81.9441145035
 10
458.044021907
 20
82.3662154604
 10
456.5484596607
 20
82.8388004206
 10
455.0445513342
 20
83.361545498
 10
453.533327631
 20
83.9340924291
 10
452.0158242683
 20
84.556048819
 10
450.4930812673
 20
85.2269884098
 10
448.9661422398
 20
85.946451373
 10
447.4360536737
 20
86.7139446247
 10
445.9038642151
 20
87.5289421632
 10
444.3706239503
 20
88.3908854301
 10
442.8373836855
 20
89.2991836924
 10
441.3051942269
 20
90.2532144478
 10
439.7751056608
 20
91.2523238515
 10
438.2481666333
 20
92.2958271636
 10
436.7254236323
 20
93.3830092191
 10
435.2079202697
 20
94.5131249178
 10
433.6966965665
 20
95.6853997347
 10
432.1927882399
 20
96.8990302514
 10
430.6972259937
 20
98.1531847061
 10
429.2110348114
 20
99.4470035639
 10
427.7352332542
 20
100.7796001061
 10
426.2708327629
 20
102.1500610374
 10
424.8188369644
 20
103.5574471126
 10
423.380240984
 20
105.0007937794
 10
421.9560307637
 20
106.4791118401
 10
420.5471823858
 20
107.9913881294
 10
419.1546614048
 20
109.5365862087
 10
417.779422185
 20
111.1136470763
 10
416.4224072466
 20
112.7214898936
 10
415.0845466199
 20
114.3590127253
 10
413.7667572077
 20
116.0250932952
 10
413.7100614126
 20
116.0979944321
  0
LWPOLYLINE
  5
105
330
1F
100
AcDbEntity
  8
0
  6
Continuous
 62
   252
370
     0
100
AcDbPolyline
 90
      144
 70
   128
 43
0.0
 10
394.4594572694
 20
149.4446321249
 10
394.4296523738
 20
149.5179412408
 10
393.6456500598
 20
151.4922707171
 10
392.896412109
 20
153.4697086514
 10
392.1824520119
 20
155.4488998064
 10
391.5042590809
 20
157.4284877434
 10
390.8622981157
 20
159.4071157517
 10
390.2570090843
 20
161.3834277786
 10
389.6888068214
 20
163.3560693584
 10
389.1580807446
 20
165.3236885412
 10
388.6651945869
 20
167.284936819
 10
388.210486148
 20
169.2384700503
 10
387.7942670623
 20
171.182949381
 10
387.4168225855
 20
173.1170421621
 10
387.0784113993
 20
175.0394228629
 10
386.7792654338
 20
176.9487739798
 10
386.5195897086
 20
178.8437869389
 10
386.2995621926
 20
180.7231629929
 10
386.1193336816
 20
182.5856141115
 10
385.9790276952
 20
184.4298638635
 10
385.8787403922
 20
186.2546482925
 10
385.8185405044
 20
188.0587167822
 10
385.7984692899
 20
189.8408329143
 10
385.8185405044
 20
191.5997753154
 10
385.8787403922
 20
193.3343384941
 10
385.9790276953
 20
195.0433336676
 10
386.1193336817
 20
196.725589576
 10
386.2995621927
 20
198.3799532849
 10
386.5195897088
 20
200.0052909763
 10
386.779265434
 20
201.6004887249
 10
387.0784113995
 20
203.1644532617
 10
387.4168225858
 20
204.6961127236
 10
387.7942670626
 20
206.1944173878
 10
388.2104861483
 20
207.658340391
 10
388.6651945873
 20
209.0868784336
 10
389.1580807449
 20
210.4790524669
 10
389.6888068218
 20
211.8339083644
 10
390.2570090847
 20
213.1505175755
 10
390.8622981162
 20
214.427977762
 10
391.5042590814
 20
215.6654134167
 10
392.1824520124
 20
216.8619764627
 10
392.8964121096
 20
218.0168468357
 10
393.6456500604
 20
219.1292330452
 10
394.4296523745
 20
220.1983727172
 10
395.2478817359
 20
221.2235331167
 10
396.0997773711
 20
222.2040116501
 10
396.9847554333
 20
223.1391363463
 10
397.9022094029
 20
224.0282663176
 10
398.8515105026
 20
224.8707921988
 10
399.832008129
 20
225.6661365646
 10
400.8430302979
 20
226.4137543257
 10
401.8838841052
 20
227.1131331024
 10
402.9538562018
 20
227.7637935753
 10
404.0522132822
 20
228.3652898141
 10
405.1782025873
 20
228.9172095836
 10
406.3310524202
 20
229.4191746253
 10
407.5099726754
 20
229.8708409176
 10
408.7141553798
 20
230.271898911
 10
409.9427752466
 20
230.6220737402
 10
411.1949902412
 20
230.921125413
 10
412.4699421581
 20
231.1688489743
 10
413.7667572087
 20
231.3650746468
 10
415.0845466209
 20
231.5096679471
 10
416.4224072476
 20
231.6025297783
 10
417.779422186
 20
231.6435964975
 10
419.1546614059
 20
231.6328399595
 10
420.5471823869
 20
231.5702675365
 10
421.9560307647
 20
231.4559221123
 10
423.3802409851
 20
231.2898820538
 10
424.8188369655
 20
231.0722611563
 10
426.270832764
 20
230.8032085664
 10
427.7352332553
 20
230.4829086794
 10
429.2110348125
 20
230.1115810127
 10
430.6972259948
 20
229.6894800558
 10
432.192788241
 20
229.2168950957
 10
433.6966965676
 20
228.6941500183
 10
435.2079202708
 20
228.1216030871
 10
436.7254236334
 20
227.4996466972
 10
438.2481666345
 20
226.8287071065
 10
439.7751056619
 20
226.1092441432
 10
441.3051942281
 20
225.3417508916
 10
442.8373836866
 20
224.526753353
 10
444.3706239515
 20
223.6648100862
 10
445.9038642163
 20
222.7565118239
 10
447.4360536749
 20
221.8024810684
 10
448.966142241
 20
220.8033716648
 10
450.4930812684
 20
219.7598683527
 10
452.0158242695
 20
218.6726862972
 10
453.5333276321
 20
217.5425705985
 10
455.0445513353
 20
216.3702957815
 10
456.5484596619
 20
215.1566652648
 10
458.0440219081
 20
213.9025108102
 10
459.5302130904
 20
212.6086919524
 10
461.0060146475
 20
211.2760954102
 10
462.4704151388
 20
209.9056344788
 10
463.9224109374
 20
208.4982484037
 10
465.3610069177
 20
207.0549017369
 10
466.7852171381
 20
205.5765836762
 10
468.1940655159
 20
204.0643073869
 10
469.5865864969
 20
202.5191093076
 10
470.9618257168
 20
200.94204844
 10
472.3188406552
 20
199.3342056227
 10
473.6567012819
 20
197.696682791
 10
474.9744906941
 20
196.0306022211
 10
476.2713057447
 20
194.3371057615
 10
477.5462576615
 20
192.61735405
 10
478.7984726561
 20
190.8725257187
 10
480.0270925229
 20
189.1038165855
 10
481.2312752272
 20
187.3124388356
 10
482.4101954824
 20
185.4996201896
 10
483.5630453154
 20
183.6666030629
 10
484.6890346204
 20
181.8146437139
 10
485.7873917008
 20
179.9450113831
 10
486.8573637973
 20
178.058987423
 10
487.8982176047
 20
176.1578644202
 10
488.9092397735
 20
174.2429453096
 10
489.8897373999
 20
172.3155424809
 10
490.8390384996
 20
170.3769768799
 10
491.7564924691
 20
168.4285771025
 10
492.6414705314
 20
166.4716784847
 10
493.4933661665
 20
164.507622187
 10
494.3115955279
 20
162.5377542754
 10
495.095597842
 20
160.5634247991
 10
495.8448357927
 20
158.5859868649
 10
496.5587958899
 20
156.6067957099
 10
497.2369888208
 20
154.6272077729
 10
497.878949786
 20
152.6485797645
 10
498.4842388175
 20
150.6722677377
 10
499.0524410804
 20
148.6996261579
 10
499.5831671572
 20
146.7320069751
 10
500.0760533149
 20
144.7707586972
 10
500.5307617538
 20
142.8172254659
 10
500.9469808395
 20
140.8727461352
 10
501.3244253163
 20
138.9386533542
 10
501.6628365025
 20
137.0162726534
 10
501.961982468
 20
135.1069215365
 10
502.2216581932
 20
133.2119085774
 10
502.4416857092
 20
131.3325325234
 10
502.6219142202
 20
129.4700814048
 10
502.7622202066
 20
127.6258316527
 10
502.8625075096
 20
125.8010472238
 10
502.9227073974
 20
123.996978734
 10
502.9427786119
 20
122.214862602
 10
502.9427786119
 20
122.214862602
  0
LWPOLYLINE
  5
106
330
1F
100
AcDbEntity
  8
0
  6
Continuous
 62
   252
370
     0
100
AcDbPolyline
 90
       32
 70
   128
 43
0.0
 10
512.7286000286
 20
126.0953778659
 10
512.7080038627
 20
124.2904313163
 10
512.6462294808
 20
122.5105016138
 10
512.5433192197
 20
120.7568086334
 10
512.3993436093
 20
119.0305542686
 10
512.214401323
 20
117.3329216079
 10
511.9886191111
 20
115.665074124
 10
511.7221517135
 20
114.0281548761
 10
511.4151817535
 20
112.4232857271
 10
511.0679196132
 20
110.851566574
 10
510.6806032886
 20
109.3140745946
 10
510.2534982269
 20
107.8118635092
 10
509.7868971447
 20
106.3459628581
 10
509.2811198269
 20
104.9173772965
 10
508.7365129082
 20
103.5270859056
 10
508.153449635
 20
102.1760415216
 10
507.5323296095
 20
100.8651700828
 10
506.8735785166
 20
99.5953699951
 10
506.1776478312
 20
98.367511516
 10
505.4450145095
 20
97.1824361584
 10
504.6761806619
 20
96.0409561137
 10
503.8716732085
 20
94.9438536953
 10
503.0320435187
 20
93.8918808025
 10
502.1578670326
 20
92.8857584049
 10
501.2497428672
 20
91.9261760486
 10
500.3082934055
 20
91.0137913833
 10
499.3341638697
 20
90.1492297119
 10
498.3280218798
 20
89.3330835619
 10
497.2905569951
 20
88.5659122789
 10
496.2224802423
 20
87.848241644
 10
495.1245236277
 20
87.1805635127
 10
494.5299043958
 20
86.8466607623
  0
LWPOLYLINE
  5
107
330
1F
100
AcDbEntity
  8
0
  6
Continuous
 62
   252
370
     0
100
AcDbPolyline
 90
       92
 70
   128
 43
0.0
 10
409.5341804524
 20
234.0543695437
 10
410.1245236277
 20
234.404881724
 10
411.2516076193
 20
235.0221097584
 10
412.407046541
 20
235.5884646788
 10
413.5900485125
 20
236.1035583337
 10
414.7998027634
 20
236.5670377037
 10
416.0354801887
 20
236.9785851431
 10
417.2962339166
 20
237.3379185979
 10
418.5811998897
 20
237.6447917989
 10
419.8894974563
 20
237.8989944306
 10
421.2202299747
 20
238.100352275
 10
422.5724854273
 20
238.2487273317
 10
423.9453370457
 20
238.3440179118
 10
425.3378439461
 20
238.3861587079
 10
426.7490517737
 20
238.3751208388
 10
428.1779933573
 20
238.3109118692
 10
429.6236893715
 20
238.1935758049
 10
431.0851490086
 20
238.023193062
 10
432.5613706572
 20
237.7998804125
 10
434.0513425886
 20
237.5237909035
 10
435.5540436506
 20
237.1951137532
 10
437.0684439669
 20
236.8140742204
 10
438.5935056431
 20
236.3809334506
 10
440.1281834782
 20
235.8959882967
 10
441.6714256806
 20
235.3595711161
 10
443.2221745892
 20
234.7720495422
 10
444.7793673982
 20
234.1338262329
 10
446.3419368854
 20
233.4453385948
 10
447.9088121437
 20
232.7070584827
 10
449.4789193152
 20
231.919491877
 10
451.0511823267
 20
231.0831785365
 10
452.6245236277
 20
230.1986916286
 10
454.1978649288
 20
229.2666373365
 10
455.7701279403
 20
228.2876544435
 10
457.3402351117
 20
227.2624138958
 10
458.90711037
 20
226.1916183419
 10
460.4696798572
 20
225.0760016516
 10
462.0268726662
 20
223.9163284128
 10
463.5776215748
 20
222.7133934078
 10
465.1208637773
 20
221.468021068
 10
466.6555416123
 20
220.1810649094
 10
468.1806032886
 20
218.8534069476
 10
469.6950036048
 20
217.4859570929
 10
471.1977046668
 20
216.0796525271
 10
472.6876765982
 20
214.6354570613
 10
474.1638982468
 20
213.1543604748
 10
475.6253578839
 20
211.6373778372
 10
477.0710538982
 20
210.0855488127
 10
478.4999954817
 20
208.4999369473
 10
479.9112033093
 20
206.8816289403
 10
481.3037102097
 20
205.2317338991
 10
482.6765618281
 20
203.5513825793
 10
484.0288172807
 20
201.8417266098
 10
485.3595497991
 20
200.1039377034
 10
486.6678473658
 20
198.3392068539
 10
487.9528133388
 20
196.5487435195
 10
489.2135670667
 20
194.7337747945
 10
490.449244492
 20
192.8955445677
 10
491.6589987429
 20
191.0353126703
 10
492.8420007145
 20
189.1543540123
 10
493.9974396361
 20
187.2539577089
 10
495.1245236277
 20
185.3354261967
 10
496.2224802423
 20
183.4000743414
 10
497.2905569951
 20
181.4492285365
 10
498.3280218798
 20
179.4842257943
 10
499.3341638697
 20
177.5064128294
 10
500.3082934055
 20
175.5171451362
 10
501.2497428672
 20
173.5177860592
 10
502.1578670326
 20
171.5097058594
 10
503.0320435187
 20
169.4942807746
 10
503.8716732085
 20
167.4728920765
 10
504.6761806619
 20
165.446925124
 10
505.4450145095
 20
163.4177684135
 10
506.1776478312
 20
161.3868126278
 10
506.8735785166
 20
159.3554496824
 10
507.5323296095
 20
157.3250717721
 10
508.153449635
 20
155.2970704165
 10
508.7365129082
 20
153.2728355064
 10
509.2811198269
 20
151.2537543513
 10
509.7868971447
 20
149.2412107286
 10
510.2534982269
 20
147.2365839351
 10
510.6806032886
 20
145.2412478419
 10
511.0679196132
 20
143.2565699527
 10
511.4151817535
 20
141.2839104666
 10
511.7221517135
 20
139.3246213459
 10
511.9886191111
 20
137.3800453894
 10
512.214401323
 20
135.4515153124
 10
512.3993436093
 20
133.5403528331
 10
512.5433192197
 20
131.6478677667
 10
512.6462294808
 20
129.7753571281
 10
512.7080038627
 20
127.9241042424
 10
512.7286000286
 20
126.0953778659
  0
LWPOLYLINE
  5
108
330
1F
100
AcDbEntity
  8
0
  6
Continuous
 62
   252
370
     0
100
AcDbPolyline
 90
      101
 70
   128
 43
0.0
 10
443.1937139353
 20
174.787302061
 10
443.6343641608
 20
174.5262589203
 10
444.0747123859
 20
174.2520723506
 10
444.5144568179
 20
173.9649302656
 10
444.953296078
 20
173.6650294583
 10
445.3909294075
 20
173.3525754655
 10
445.8270568746
 20
173.0277824277
 10
446.2613795792
 20
172.6908729418
 10
446.6935998583
 20
172.3420779088
 10
447.1234214896
 20
171.9816363753
 10
447.5505498949
 20
171.6097953699
 10
447.9746923416
 20
171.226809734
 10
448.3955581438
 20
170.8329419466
 10
448.8128588611
 20
170.4284619452
 10
449.2263084964
 20
170.0136469402
 10
449.6356236919
 20
169.5887812249
 10
450.0405239235
 20
169.1541559812
 10
450.4407316927
 20
168.7100690794
 10
450.8359727173
 20
168.2568248746
 10
451.2259761186
 20
167.7947339978
 10
451.6104746079
 20
167.3241131428
 10
451.9892046691
 20
166.8452848497
 10
452.3619067395
 20
166.3585772836
 10
452.7283253877
 20
165.8643240094
 10
453.0882094888
 20
165.3628637637
 10
453.4413123961
 20
164.8545402223
 10
453.7873921106
 20
164.3397017647
 10
454.1262114464
 20
163.8187012356
 10
454.4575381937
 20
163.2918957026
 10
454.7811452778
 20
162.759646212
 10
455.0968109145
 20
162.2223175409
 10
455.4043187623
 20
161.6802779476
 10
455.7034580707
 20
161.1338989189
 10
455.9940238246
 20
160.5835549158
 10
456.2758168848
 20
160.0296231166
 10
456.5486441243
 20
159.4724831583
 10
456.8123185609
 20
158.912516877
 10
457.0666594855
 20
158.3501080455
 10
457.3114925854
 20
157.7856421108
 10
457.5466500642
 20
157.2195059296
 10
457.7719707568
 20
156.6520875034
 10
457.9873002396
 20
156.0837757124
 10
458.1924909365
 20
155.5149600491
 10
458.3874022201
 20
154.9460303514
 10
458.571900508
 20
154.3773765353
 10
458.7458593542
 20
153.8093883276
 10
458.9091595359
 20
153.2424549993
 10
459.0616891356
 20
152.6769650979
 10
459.2033436168
 20
152.1133061821
 10
459.3340258968
 20
151.5518645555
 10
459.4536464125
 20
150.9930250021
 10
459.5621231819
 20
150.4371705228
 10
459.6593818604
 20
149.8846820723
 10
459.7453557919
 20
149.3359382987
 10
459.819986054
 20
148.7913152836
 10
459.883221499
 20
148.2511862842
 10
459.9350187883
 20
147.7159214782
 10
459.9753424228
 20
147.1858877092
 10
460.0041647667
 20
146.6614482359
 10
460.0214660665
 20
146.1429624829
 10
460.0272344647
 20
145.6307857946
 10
460.0214660081
 20
145.125269191
 10
460.00416465
 20
144.6267591283
 10
459.975342248
 20
144.1355972601
 10
459.9350185554
 20
143.6521202043
 10
459.8832212081
 20
143.176659312
 10
459.8199857054
 20
142.7095404403
 10
459.7453553857
 20
142.2510837291
 10
459.659381397
 20
141.8016033817
 10
459.5621226616
 20
141.3614074496
 10
459.4536458357
 20
140.9307976211
 10
459.3340252639
 20
140.5100690145
 10
459.2033429281
 20
140.0995099764
 10
459.0616883916
 20
139.6994018833
 10
458.9091587373
 20
139.3100189493
 10
458.7458585013
 20
138.931628038
 10
458.5718996015
 20
138.5644884798
 10
458.3874012607
 20
138.2088518936
 10
458.1924899247
 20
137.8649620151
 10
457.9872991762
 20
137.5330545292
 10
457.7719696425
 20
137.2133569087
 10
457.5466488997
 20
136.9060882583
 10
457.3114913716
 20
136.6114591648
 10
457.0666582232
 20
136.329671552
 10
456.812317251
 20
136.0609185433
 10
456.5486427675
 20
135.8053843284
 10
456.2758154822
 20
135.5632440378
 10
455.9940223772
 20
135.3346636223
 10
455.7034565795
 20
135.1197997395
 10
455.4043172282
 20
134.9187996465
 10
455.0968093386
 20
134.7318010985
 10
454.7811436612
 20
134.5589322551
 10
454.4575365375
 20
134.400311592
 10
454.1262097517
 20
134.2560478198
 10
453.7873903786
 20
134.1262398097
 10
453.441310628
 20
134.0109765256
 10
453.0882076858
 20
133.9103369633
 10
452.728323551
 20
133.824390096
 10
452.3619048704
 20
133.7531948275
 10
451.9892027688
 20
133.6967999515
 10
451.6213768007
 20
133.6562253926
  0
LWPOLYLINE
  5
109
330
1F
100
AcDbEntity
  8
0
  6
Continuous
 62
   252
370
     0
100
AcDbPolyline
 90
       41
 70
   128
 43
0.0
 10
428.6227942707
 20
173.4942123132
 10
428.8407767421
 20
173.7910546742
 10
429.0759342703
 20
174.0856837678
 10
429.3207674187
 20
174.3674713805
 10
429.5751083909
 20
174.6362243893
 10
429.8387828743
 20
174.8917586041
 10
430.1116101596
 20
175.1338988948
 10
430.3934032646
 20
175.3624793102
 10
430.6839690624
 20
175.577343193
 10
430.9831084137
 20
175.7783432861
 10
431.2906163033
 20
175.9653418341
 10
431.6062819807
 20
176.1382106774
 10
431.9298891043
 20
176.2968313406
 10
432.2612158902
 20
176.4410951128
 10
432.6000352633
 20
176.5709031229
 10
432.9461150138
 20
176.6861664069
 10
433.2992179561
 20
176.7868059693
 10
433.6591020908
 20
176.8727528365
 10
434.0255207715
 20
176.943948105
 10
434.398222873
 20
177.0003429811
 10
434.7769529641
 20
177.0418988145
 10
435.1614514818
 20
177.0685871249
 10
435.5514549103
 20
177.0803896216
 10
435.9466959607
 20
177.0772982156
 10
436.3469037544
 20
177.0593150257
 10
436.751804009
 20
177.0264523766
 10
437.1611192261
 20
176.9787327908
 10
437.5745688816
 20
176.9161889728
 10
437.9918696176
 20
176.8388637872
 10
438.4127354371
 20
176.7468102286
 10
438.8368778997
 20
176.6400913861
 10
439.2640063193
 20
176.5187803993
 10
439.6938279635
 20
176.3829604088
 10
440.126048254
 20
176.2327244989
 10
440.5603709684
 20
176.0681756336
 10
440.9964984439
 20
175.8894265866
 10
441.4341317803
 20
175.6965998635
 10
441.8729710457
 20
175.4898276182
 10
442.3127154816
 20
175.269251562
 10
442.753063709
 20
175.0350228667
 10
443.1937139353
 20
174.787302061
  0
LWPOLYLINE
  5
10A
330
1F
100
AcDbEntity
  8
0
  6
Continuous
 62
   252
370
     0
100
AcDbPolyline
 90
      140
 70
   128
 43
0.0
 10
397.398047092
 20
154.7562740235
 10
397.3998042699
 20
154.7585716239
 10
397.6272031334
 20
155.0434798915
 10
397.8639583862
 20
155.3159703627
 10
398.1099077681
 20
155.5758562862
 10
398.3648827175
 20
155.8229595491
 10
398.6287084874
 20
156.0571107993
 10
398.9012042649
 20
156.2781495611
 10
399.1821832948
 20
156.4859243456
 10
399.4714530083
 20
156.6802927544
 10
399.7688151543
 20
156.8611215771
 10
400.0740659356
 20
157.0282868826
 10
400.3869961486
 20
157.1816741042
 10
400.7073913266
 20
157.3211781179
 10
401.0350318867
 20
157.4467033146
 10
401.3696932805
 20
157.5581636657
 10
401.7111461477
 20
157.6554827818
 10
402.0591564735
 20
157.7385939653
 10
402.4134857492
 20
157.8074402558
 10
402.7738911352
 20
157.8619744696
 10
403.1401256275
 20
157.9021592316
 10
403.5119382273
 20
157.9279670012
 10
403.8890741129
 20
157.9393800911
 10
404.2712748142
 20
157.9363906793
 10
404.6582783898
 20
157.9190008146
 10
405.049819607
 20
157.8872224152
 10
405.4456301228
 20
157.8410772603
 10
405.8454386685
 20
157.7805969755
 10
406.2489712354
 20
157.7058230111
 10
406.6559512623
 20
157.6168066133
 10
407.0660998255
 20
157.5136087896
 10
407.4791358296
 20
157.3963002665
 10
407.8947762005
 20
157.2649614415
 10
408.3127360788
 20
157.1196823277
 10
408.7327290159
 20
156.9605624921
 10
409.1544671695
 20
156.7877109875
 10
409.5776615014
 20
156.6012462776
 10
410.0020219753
 20
156.4012961561
 10
410.4272577558
 20
156.1879976588
 10
410.8530774075
 20
155.9614969699
 10
411.2791890948
 20
155.7219493215
 10
411.7053007821
 20
155.4695188878
 10
412.1311204338
 20
155.2043786718
 10
412.5563562142
 20
154.9267103875
 10
412.9807166881
 20
154.6367043348
 10
413.40391102
 20
154.3345592694
 10
413.8256491737
 20
154.0204822664
 10
414.2456421107
 20
153.6946885785
 10
414.6636019891
 20
153.3574014885
 10
415.0792423599
 20
153.008852156
 10
415.4922783641
 20
152.6492794594
 10
415.9024269273
 20
152.2789298318
 10
416.3094069542
 20
151.8980570924
 10
416.712939521
 20
151.5069222723
 10
417.1127480668
 20
151.1057934357
 10
417.5085585826
 20
150.6949454965
 10
417.9000997997
 20
150.2746600291
 10
418.2871033754
 20
149.8452250762
 10
418.6693040767
 20
149.4069349513
 10
419.0464399623
 20
148.9600900363
 10
419.4182525621
 20
148.5049965765
 10
419.7844870544
 20
148.0419664701
 10
420.1448924403
 20
147.571317055
 10
420.499221716
 20
147.0933708907
 10
420.8472320419
 20
146.6084555377
 10
421.1886849091
 20
146.1169033326
 10
421.5233463028
 20
145.6190511609
 10
421.850986863
 20
145.1152402254
 10
422.1713820409
 20
144.6058158132
 10
422.484312254
 20
144.0911270582
 10
422.7895630353
 20
143.5715267024
 10
423.0869251813
 20
143.0473708539
 10
423.3761948947
 20
142.519018743
 10
423.6571739247
 20
141.9868324757
 10
423.9296697021
 20
141.4511767861
 10
424.1934954721
 20
140.9124187857
 10
424.4484704215
 20
140.3709277124
 10
424.6944198033
 20
139.827074677
 10
424.9311750561
 20
139.2812324094
 10
425.1585739197
 20
138.7337750024
 10
425.3764605462
 20
138.1850776562
 10
425.584685607
 20
137.6355164204
 10
425.7831063951
 20
137.0854679369
 10
425.9715869228
 20
136.5353091813
 10
426.1499980149
 20
135.9854172052
 10
426.3182173973
 20
135.4361688768
 10
426.476129781
 20
134.8879406237
 10
426.6236269406
 20
134.341108174
 10
426.7606077891
 20
133.7960462994
 10
426.8869784464
 20
133.2531285581
 10
427.0026523046
 20
132.7127270389
 10
427.1075500864
 20
132.1752121058
 10
427.2015999003
 20
131.6409521448
 10
427.2847372892
 20
131.110313311
 10
427.3569052749
 20
130.5836592777
 10
427.4180543969
 20
130.0613509873
 10
427.4681427469
 20
129.5437464038
 10
427.5071359966
 20
129.0312002675
 10
427.5350074222
 20
128.524063852
 10
427.5517379219
 20
128.0226847233
 10
427.5573160294
 20
127.5274065014
 10
427.5517379219
 20
127.0385686255
 10
427.5350074222
 20
126.5565061205
 10
427.5071359966
 20
126.081549368
 10
427.4681427469
 20
125.6140238796
 10
427.4180543969
 20
125.154250074
 10
427.3569052749
 20
124.7025430571
 10
427.2847372892
 20
124.2592124065
 10
427.2015999003
 20
123.8245619587
 10
427.1075500864
 20
123.3988896015
 10
427.0026523046
 20
122.9824870694
 10
426.8869784464
 20
122.575639744
 10
426.7606077891
 20
122.178626458
 10
426.6236269406
 20
121.7917193046
 10
426.476129781
 20
121.4151834506
 10
426.3182173973
 20
121.0492769548
 10
426.1499980149
 20
120.6942505913
 10
425.9715869228
 20
120.3503476775
 10
425.7831063951
 20
120.0178039071
 10
425.584685607
 20
119.6968471891
 10
425.3764605462
 20
119.3876974912
 10
425.1585739197
 20
119.0905666892
 10
424.9311750561
 20
118.8056584216
 10
424.6944198033
 20
118.5331679504
 10
424.4484704215
 20
118.273282027
 10
424.1934954721
 20
118.026178764
 10
423.9296697021
 20
117.7920275138
 10
423.6571739247
 20
117.570988752
 10
423.3761948947
 20
117.3632139675
 10
423.0869251813
 20
117.1688455587
 10
422.7895630353
 20
116.988016736
 10
422.484312254
 20
116.8208514305
 10
422.1713820409
 20
116.667464209
 10
421.850986863
 20
116.5279601953
 10
421.5233463028
 20
116.4024349985
 10
421.1886849091
 20
116.2909746474
 10
420.8472320419
 20
116.1936555313
 10
420.499221716
 20
116.1105443479
 10
420.1448924403
 20
116.0416980574
 10
419.7974289576
 20
115.9888604365
  0
LINE
  5
10B
330
1F
100
AcDbEntity
  8
0
  6
Continuous
 62
   252
370
     0
100
AcDbLine
 10
399.3174785023
 20
148.1995316185
 30
0.0
 11
397.7431953019
 21
147.2907172716
 31
0.0
  0
LINE
  5
10C
330
1F
100
AcDbEntity
  8
0
  6
Continuous
 62
   252
370
     0
100
AcDbLine
 10
406.1443934715
 20
122.7743691166
 30
0.0
 11
404.9388329863
 21
122.0784138624
 31
0.0
  0
LINE
  5
10D
330
1F
100
AcDbEntity
  8
0
  6
Continuous
 62
   252
370
     0
100
AcDbLine
 10
396.4791061143
 20
131.8905943046
 30
0.0
 11
395.0773477962
 21
131.0813764523
 31
0.0
  0
LINE
  5
10E
330
1F
100
AcDbEntity
  8
0
  6
Continuous
 62
   252
370
     0
100
AcDbLine
 10
399.0733144409
 20
126.8564031993
 30
0.0
 11
397.8677651744
 21
126.1604544215
 31
0.0
  0
ENDSEC
  0
SECTION
  2
OBJECTS
  0
DICTIONARY
  5
C
330
0
100
AcDbDictionary
281
     1
  3
ACAD_GROUP
350
D
  3
ACAD_LAYOUT
350
1A
  3
ACAD_MLINESTYLE
350
17
  3
ACAD_PLOTSETTINGS
350
19
  3
ACAD_PLOTSTYLENAME
350
E
  3
ACAD_SCALELIST
350
47
  0
DICTIONARY
  5
D
102
{ACAD_REACTORS
330
C
102
}
330
C
100
AcDbDictionary
281
     1
  0
DICTIONARY
  5
1A
102
{ACAD_REACTORS
330
C
102
}
330
C
100
AcDbDictionary
281
     1
  3
Layout1
350
1E
  3
Layout2
350
26
  3
Model
350
22
  0
DICTIONARY
  5
17
102
{ACAD_REACTORS
330
C
102
}
330
C
100
AcDbDictionary
281
     1
  3
Standard
350
18
  0
DICTIONARY
  5
19
102
{ACAD_REACTORS
330
C
102
}
330
C
100
AcDbDictionary
281
     1
  0
ACDBDICTIONARYWDFLT
  5
E
102
{ACAD_REACTORS
330
C
102
}
330
C
100
AcDbDictionary
281
     1
  3
Normal
350
F
100
AcDbDictionaryWithDefault
340
F
  0
DICTIONARY
  5
47
102
{ACAD_REACTORS
330
C
102
}
330
C
100
AcDbDictionary
281
     1
  3
A0
350
48
  3
A1
350
49
  3
A2
350
4A
  3
A3
350
4B
  3
A4
350
4C
  3
A5
350
4D
  3
A6
350
4E
  3
A7
350
4F
  3
A8
350
50
  3
A9
350
51
  3
B0
350
52
  3
B1
350
53
  3
B2
350
54
  3
B3
350
55
  3
B4
350
56
  3
B5
350
57
  3
B6
350
58
  3
B7
350
59
  3
B8
350
5A
  3
B9
350
5B
  3
C0
350
5C
  3
C1
350
5D
  3
C2
350
5E
  3
C3
350
5F
  3
C4
350
60
  3
C5
350
61
  3
C6
350
62
  3
C7
350
63
  3
C8
350
64
  3
C9
350
65
  3
D0
350
66
  3
D1
350
67
  3
D2
350
68
  0
LAYOUT
  5
1E
102
{ACAD_REACTORS
330
1A
102
}
330
1A
100
AcDbPlotSettings
  1

  2
none_device
  4

  6

 40
0.0
 41
0.0
 42
0.0
 43
0.0
 44
0.0
 45
0.0
 46
0.0
 47
0.0
 48
0.0
 49
0.0
140
0.0
141
0.0
142
1.0
143
1.0
 70
   688
 72
     1
 73
     0
 74
     5
  7

 75
    16
147
1.0
148
0.0
149
0.0
100
AcDbLayout
  1
Layout1
 70
     1
 71
     1
 10
0.0
 20
0.0
 11
420.0
 21
297.0
 12
0.0
 22
0.0
 32
0.0
 14
1.0000000000E+20
 24
1.0000000000E+20
 34
1.0000000000E+20
 15
-1.0000000000E+20
 25
-1.0000000000E+20
 35
-1.0000000000E+20
146
0.0
 13
0.0
 23
0.0
 33
0.0
 16
1.0
 26
0.0
 36
0.0
 17
0.0
 27
1.0
 37
0.0
 76
     0
330
1B
  0
LAYOUT
  5
26
102
{ACAD_REACTORS
330
1A
102
}
330
1A
100
AcDbPlotSettings
  1

  2
none_device
  4

  6

 40
0.0
 41
0.0
 42
0.0
 43
0.0
 44
0.0
 45
0.0
 46
0.0
 47
0.0
 48
0.0
 49
0.0
140
0.0
141
0.0
142
1.0
143
1.0
 70
   688
 72
     1
 73
     0
 74
     5
  7

 75
    16
147
1.0
148
0.0
149
0.0
100
AcDbLayout
  1
Layout2
 70
     1
 71
     2
 10
0.0
 20
0.0
 11
0.0
 21
0.0
 12
0.0
 22
0.0
 32
0.0
 14
0.0
 24
0.0
 34
0.0
 15
0.0
 25
0.0
 35
0.0
146
0.0
 13
0.0
 23
0.0
 33
0.0
 16
1.0
 26
0.0
 36
0.0
 17
0.0
 27
1.0
 37
0.0
 76
     0
330
23
  0
LAYOUT
  5
22
102
{ACAD_REACTORS
330
1A
102
}
330
1A
100
AcDbPlotSettings
  1

  2
none_device
  4
Letter_(8.50_x_11.00_Inches)
  6

 40
6.35
 41
6.35
 42
6.35000508
 43
6.35000508
 44
215.9
 45
279.4
 46
0.0
 47
0.0
 48
0.0
 49
0.0
140
0.0
141
0.0
142
1.0
143
1.0
 70
  1712
 72
     1
 73
     0
 74
     0
  7

 75
     0
147
1.0
148
0.0
149
0.0
100
AcDbLayout
  1
Model
 70
     1
 71
     0
 10
0.0
 20
0.0
 11
540.0
 21
501.0
 12
0.0
 22
0.0
 32
0.0
 14
0.0
 24
0.0
 34
0.0
 15
540.0
 25
501.0
 35
0.0
146
0.0
 13
0.0
 23
0.0
 33
0.0
 16
1.0
 26
0.0
 36
0.0
 17
0.0
 27
1.0
 37
0.0
 76
     0
330
1F
331
29
  0
MLINESTYLE
  5
18
102
{ACAD_REACTORS
330
17
102
}
330
17
100
AcDbMlineStyle
  2
Standard
 70
     0
  3

 62
   256
 51
90.0
 52
90.0
 71
     2
 49
0.5
 62
   256
  6
BYLAYER
 49
-0.5
 62
   256
  6
BYLAYER
  0
ACDBPLACEHOLDER
  5
F
102
{ACAD_REACTORS
330
E
102
}
330
E
  0
SCALE
  5
48
102
{ACAD_REACTORS
330
47
102
}
330
47
100
AcDbScale
 70
     0
300
1:1
140
1.0
141
1.0
290
     1
  0
SCALE
  5
49
102
{ACAD_REACTORS
330
47
102
}
330
47
100
AcDbScale
 70
     0
300
1:2
140
1.0
141
2.0
290
     0
  0
SCALE
  5
4A
102
{ACAD_REACTORS
330
47
102
}
330
47
100
AcDbScale
 70
     0
300
1:4
140
1.0
141
4.0
290
     0
  0
SCALE
  5
4B
102
{ACAD_REACTORS
330
47
102
}
330
47
100
AcDbScale
 70
     0
300
1:5
140
1.0
141
5.0
290
     0
  0
SCALE
  5
4C
102
{ACAD_REACTORS
330
47
102
}
330
47
100
AcDbScale
 70
     0
300
1:8
140
1.0
141
8.0
290
     0
  0
SCALE
  5
4D
102
{ACAD_REACTORS
330
47
102
}
330
47
100
AcDbScale
 70
     0
300
1:10
140
1.0
141
10.0
290
     0
  0
SCALE
  5
4E
102
{ACAD_REACTORS
330
47
102
}
330
47
100
AcDbScale
 70
     0
300
1:16
140
1.0
141
16.0
290
     0
  0
SCALE
  5
4F
102
{ACAD_REACTORS
330
47
102
}
330
47
100
AcDbScale
 70
     0
300
1:20
140
1.0
141
20.0
290
     0
  0
SCALE
  5
50
102
{ACAD_REACTORS
330
47
102
}
330
47
100
AcDbScale
 70
     0
300
1:30
140
1.0
141
30.0
290
     0
  0
SCALE
  5
51
102
{ACAD_REACTORS
330
47
102
}
330
47
100
AcDbScale
 70
     0
300
1:40
140
1.0
141
40.0
290
     0
  0
SCALE
  5
52
102
{ACAD_REACTORS
330
47
102
}
330
47
100
AcDbScale
 70
     0
300
1:50
140
1.0
141
50.0
290
     0
  0
SCALE
  5
53
102
{ACAD_REACTORS
330
47
102
}
330
47
100
AcDbScale
 70
     0
300
1:100
140
1.0
141
100.0
290
     0
  0
SCALE
  5
54
102
{ACAD_REACTORS
330
47
102
}
330
47
100
AcDbScale
 70
     0
300
2:1
140
2.0
141
1.0
290
     0
  0
SCALE
  5
55
102
{ACAD_REACTORS
330
47
102
}
330
47
100
AcDbScale
 70
     0
300
4:1
140
4.0
141
1.0
290
     0
  0
SCALE
  5
56
102
{ACAD_REACTORS
330
47
102
}
330
47
100
AcDbScale
 70
     0
300
8:1
140
8.0
141
1.0
290
     0
  0
SCALE
  5
57
102
{ACAD_REACTORS
330
47
102
}
330
47
100
AcDbScale
 70
     0
300
10:1
140
10.0
141
1.0
290
     0
  0
SCALE
  5
58
102
{ACAD_REACTORS
330
47
102
}
330
47
100
AcDbScale
 70
     0
300
100:1
140
100.0
141
1.0
290
     0
  0
SCALE
  5
59
102
{ACAD_REACTORS
330
47
102
}
330
47
100
AcDbScale
 70
     0
300
1/128" = 1'-0"
140
0.0078125
141
12.0
290
     0
  0
SCALE
  5
5A
102
{ACAD_REACTORS
330
47
102
}
330
47
100
AcDbScale
 70
     0
300
1/64" = 1'-0"
140
0.015625
141
12.0
290
     0
  0
SCALE
  5
5B
102
{ACAD_REACTORS
330
47
102
}
330
47
100
AcDbScale
 70
     0
300
1/32" = 1'-0"
140
0.03125
141
12.0
290
     0
  0
SCALE
  5
5C
102
{ACAD_REACTORS
330
47
102
}
330
47
100
AcDbScale
 70
     0
300
1/16" = 1'-0"
140
0.0625
141
12.0
290
     0
  0
SCALE
  5
5D
102
{ACAD_REACTORS
330
47
102
}
330
47
100
AcDbScale
 70
     0
300
3/32" = 1'-0"
140
0.09375
141
12.0
290
     0
  0
SCALE
  5
5E
102
{ACAD_REACTORS
330
47
102
}
330
47
100
AcDbScale
 70
     0
300
1/8" = 1'-0"
140
0.125
141
12.0
290
     0
  0
SCALE
  5
5F
102
{ACAD_REACTORS
330
47
102
}
330
47
100
AcDbScale
 70
     0
300
3/16" = 1'-0"
140
0.1875
141
12.0
290
     0
  0
SCALE
  5
60
102
{ACAD_REACTORS
330
47
102
}
330
47
100
AcDbScale
 70
     0
300
1/4" = 1'-0"
140
0.25
141
12.0
290
     0
  0
SCALE
  5
61
102
{ACAD_REACTORS
330
47
102
}
330
47
100
AcDbScale
 70
     0
300
3/8" = 1'-0"
140
0.375
141
12.0
290
     0
  0
SCALE
  5
62
102
{ACAD_REACTORS
330
47
102
}
330
47
100
AcDbScale
 70
     0
300
1/2" = 1'-0"
140
0.5
141
12.0
290
     0
  0
SCALE
  5
63
102
{ACAD_REACTORS
330
47
102
}
330
47
100
AcDbScale
 70
     0
300
3/4" = 1'-0"
140
0.75
141
12.0
290
     0
  0
SCALE
  5
64
102
{ACAD_REACTORS
330
47
102
}
330
47
100
AcDbScale
 70
     0
300
1" = 1'-0"
140
1.0
141
12.0
290
     0
  0
SCALE
  5
65
102
{ACAD_REACTORS
330
47
102
}
330
47
100
AcDbScale
 70
     0
300
1-1/2" = 1'-0"
140
1.5
141
12.0
290
     0
  0
SCALE
  5
66
102
{ACAD_REACTORS
330
47
102
}
330
47
100
AcDbScale
 70
     0
300
3" = 1'-0"
140
3.0
141
12.0
290
     0
  0
SCALE
  5
67
102
{ACAD_REACTORS
330
47
102
}
330
47
100
AcDbScale
 70
     0
300
6" = 1'-0"
140
6.0
141
12.0
290
     0
  0
SCALE
  5
68
102
{ACAD_REACTORS
330
47
102
}
330
47
100
AcDbScale
 70
     0
300
1'-0" = 1'-0"
140
12.0
141
12.0
290
     0
  0
ENDSEC
  0
EOF
