  0
SECTION
  2
HEADER
  9
$ACADVER
  1
AC1015
  9
$ACADMAINTVER
 70
     6
  9
$DWGCODEPAGE
  3
ANSI_1252
  9
$INSBASE
 10
0.0
 20
0.0
 30
0.0
  9
$EXTMIN
 10
0.0
 20
0.0
 30
0.0
  9
$EXTMAX
 10
633.0
 20
601.0
 30
0.0
  9
$LIMMIN
 10
0.0
 20
0.0
  9
$LIMMAX
 10
633.0
 20
601.0
  9
$ORTHOMODE
 70
     0
  9
$REGENMODE
 70
     1
  9
$FILLMODE
 70
     1
  9
$QTEXTMODE
 70
     0
  9
$MIRRTEXT
 70
     1
  9
$LTSCALE
 40
1.0
  9
$ATTMODE
 70
     1
  9
$TEXTSIZE
 40
3.5
  9
$TRACEWID
 40
1.0
  9
$TEXTSTYLE
  7
Standard
  9
$CLAYER
  8
0
  9
$CELTYPE
  6
ByLayer
  9
$CECOLOR
 62
   256
  9
$CELTSCALE
 40
1.0
  9
$DISPSILH
 70
     0
  9
$DIMSCALE
 40
1.0
  9
$DIMASZ
 40
3.302
  9
$DIMEXO
 40
1.0
  9
$DIMDLI
 40
3.75
  9
$DIMRND
 40
0.0
  9
$DIMDLE
 40
0.0
  9
$DIMEXE
 40
1.0
  9
$DIMTP
 40
0.0
  9
$DIMTM
 40
0.0
  9
$DIMTXT
 40
2.8
  9
$DIMCEN
 40
2.5
  9
$DIMTSZ
 40
0.0
  9
$DIMTOL
 70
     0
  9
$DIMLIM
 70
     0
  9
$DIMTIH
 70
     1
  9
$DIMTOH
 70
     1
  9
$DIMSE1
 70
     0
  9
$DIMSE2
 70
     0
  9
$DIMTAD
 70
     1
  9
$DIMZIN
 70
     0
  9
$DIMBLK
  1

  9
$DIMASO
 70
     1
  9
$DIMSHO
 70
     1
  9
$DIMPOST
  1

  9
$DIMAPOST
  1

  9
$DIMALT
 70
     0
  9
$DIMALTD
 70
     3
  9
$DIMALTF
 40
0.0393700787
  9
$DIMLFAC
 40
1.0
  9
$DIMTOFL
 70
     1
  9
$DIMTVP
 40
0.0
  9
$DIMTIX
 70
     0
  9
$DIMSOXD
 70
     0
  9
$DIMSAH
 70
     0
  9
$DIMBLK1
  1

  9
$DIMBLK2
  1

  9
$DIMSTYLE
  2
ISO-25
  9
$DIMCLRD
 70
     0
  9
$DIMCLRE
 70
     0
  9
$DIMCLRT
 70
     0
  9
$DIMTFAC
 40
1.0
  9
$DIMGAP
 40
1.524
  9
$DIMJUST
 70
     0
  9
$DIMSD1
 70
     0
  9
$DIMSD2
 70
     0
  9
$DIMTOLJ
 70
     0
  9
$DIMTZIN
 70
     0
  9
$DIMALTZ
 70
     0
  9
$DIMALTTZ
 70
     0
  9
$DIMUPT
 70
     0
  9
$DIMDEC
 70
     2
  9
$DIMTDEC
 70
     2
  9
$DIMALTU
 70
     2
  9
$DIMALTTD
 70
     3
  9
$DIMTXSTY
  7
Standard
  9
$DIMAUNIT
 70
     0
  9
$DIMADEC
 70
     2
  9
$DIMALTRND
 40
0.0
  9
$DIMAZIN
 70
     0
  9
$DIMDSEP
 70
    44
  9
$DIMATFIT
 70
     3
  9
$DIMFRAC
 70
     0
  9
$DIMLDRBLK
  1

  9
$DIMLUNIT
 70
     2
  9
$DIMLWD
 70
    -2
  9
$DIMLWE
 70
    -2
  9
$DIMTMOVE
 70
     0
  9
$LUNITS
 70
     2
  9
$LUPREC
 70
     2
  9
$SKETCHINC
 40
1.0
  9
$FILLETRAD
 40
10.0
  9
$AUNITS
 70
     0
  9
$AUPREC
 70
     2
  9
$MENU
  1
.
  9
$ELEVATION
 40
0.0
  9
$PELEVATION
 40
0.0
  9
$THICKNESS
 40
0.0
  9
$LIMCHECK
 70
     0
  9
$CHAMFERA
 40
0.0
  9
$CHAMFERB
 40
0.0
  9
$CHAMFERC
 40
0.0
  9
$CHAMFERD
 40
0.0
  9
$SKPOLY
 70
     0
  9
$TDCREATE
 40
2457619.695885208
  9
$TDUCREATE
 40
2457619.570885208
  9
$TDUPDATE
 40
2457619.695886146
  9
$TDUUPDATE
 40
2457619.570886146
  9
$TDINDWG
 40
0.0000000116
  9
$TDUSRTIMER
 40
0.0000000116
  9
$USRTIMER
 70
     1
  9
$ANGBASE
 50
0.0
  9
$ANGDIR
 70
     0
  9
$PDMODE
 70
     0
  9
$PDSIZE
 40
-1.0
  9
$PLINEWID
 40
0.0
  9
$SPLFRAME
 70
     0
  9
$SPLINETYPE
 70
     6
  9
$SPLINESEGS
 70
     8
  9
$HANDSEED
  5
1B6
  9
$SURFTAB1
 70
     6
  9
$SURFTAB2
 70
     6
  9
$SURFTYPE
 70
     6
  9
$SURFU
 70
     6
  9
$SURFV
 70
     6
  9
$UCSBASE
  2

  9
$UCSNAME
  2

  9
$UCSORG
 10
0.0
 20
0.0
 30
0.0
  9
$UCSXDIR
 10
1.0
 20
0.0
 30
0.0
  9
$UCSYDIR
 10
0.0
 20
1.0
 30
0.0
  9
$UCSORTHOREF
  2

  9
$UCSORTHOVIEW
 70
     0
  9
$UCSORGTOP
 10
0.0
 20
0.0
 30
0.0
  9
$UCSORGBOTTOM
 10
0.0
 20
0.0
 30
0.0
  9
$UCSORGLEFT
 10
0.0
 20
0.0
 30
0.0
  9
$UCSORGRIGHT
 10
0.0
 20
0.0
 30
0.0
  9
$UCSORGFRONT
 10
0.0
 20
0.0
 30
0.0
  9
$UCSORGBACK
 10
0.0
 20
0.0
 30
0.0
  9
$PUCSBASE
  2

  9
$PUCSNAME
  2

  9
$PUCSORG
 10
0.0
 20
0.0
 30
0.0
  9
$PUCSXDIR
 10
1.0
 20
0.0
 30
0.0
  9
$PUCSYDIR
 10
0.0
 20
1.0
 30
0.0
  9
$PUCSORTHOREF
  2

  9
$PUCSORTHOVIEW
 70
     0
  9
$PUCSORGTOP
 10
0.0
 20
0.0
 30
0.0
  9
$PUCSORGBOTTOM
 10
0.0
 20
0.0
 30
0.0
  9
$PUCSORGLEFT
 10
0.0
 20
0.0
 30
0.0
  9
$PUCSORGRIGHT
 10
0.0
 20
0.0
 30
0.0
  9
$PUCSORGFRONT
 10
0.0
 20
0.0
 30
0.0
  9
$PUCSORGBACK
 10
0.0
 20
0.0
 30
0.0
  9
$USERI1
 70
     0
  9
$USERI2
 70
     0
  9
$USERI3
 70
     0
  9
$USERI4
 70
     0
  9
$USERI5
 70
     0
  9
$USERR1
 40
0.0
  9
$USERR2
 40
0.0
  9
$USERR3
 40
0.0
  9
$USERR4
 40
0.0
  9
$USERR5
 40
0.0
  9
$WORLDVIEW
 70
     1
  9
$SHADEDGE
 70
     3
  9
$SHADEDIF
 70
    70
  9
$TILEMODE
 70
     1
  9
$MAXACTVP
 70
    64
  9
$PINSBASE
 10
0.0
 20
0.0
 30
0.0
  9
$PLIMCHECK
 70
     0
  9
$PEXTMIN
 10
1.0000000000E+20
 20
1.0000000000E+20
 30
1.0000000000E+20
  9
$PEXTMAX
 10
-1.0000000000E+20
 20
-1.0000000000E+20
 30
-1.0000000000E+20
  9
$PLIMMIN
 10
0.0
 20
0.0
  9
$PLIMMAX
 10
420.0
 20
297.0
  9
$UNITMODE
 70
     0
  9
$VISRETAIN
 70
     1
  9
$PLINEGEN
 70
     0
  9
$PSLTSCALE
 70
     1
  9
$TREEDEPTH
 70
  3020
  9
$CMLSTYLE
  2
Standard
  9
$CMLJUST
 70
     0
  9
$CMLSCALE
 40
20.0
  9
$PROXYGRAPHICS
 70
     1
  9
$MEASUREMENT
 70
     1
  9
$CELWEIGHT
370
    -1
  9
$ENDCAPS
280
     0
  9
$JOINSTYLE
280
     0
  9
$LWDISPLAY
290
     1
  9
$INSUNITS
 70
     4
  9
$HYPERLINKBASE
  1

  9
$STYLESHEET
  1

  9
$XEDIT
290
     1
  9
$CEPSNTYPE
380
     0
  9
$PSTYLEMODE
290
     1
  9
$FINGERPRINTGUID
  2
{732A4E6F-966B-4090-A879-61D09D7856C9}
  9
$VERSIONGUID
  2
{FAEB1C32-E019-11D5-929B-00C0DF256EC4}
  9
$EXTNAMES
290
     1
  9
$PSVPSCALE
 40
0.0
  9
$OLESTARTUP
290
     0
  0
ENDSEC
  0
SECTION
  2
CLASSES
  0
CLASS
  1
ACDBDICTIONARYWDFLT
  2
AcDbDictionaryWithDefault
  3
ObjectDBX Classes
 90
        0
280
     0
281
     0
  0
CLASS
  1
VISUALSTYLE
  2
AcDbVisualStyle
  3
ObjectDBX Classes
 90
     4095
280
     0
281
     0
  0
CLASS
  1
MATERIAL
  2
AcDbMaterial
  3
ObjectDBX Classes
 90
     1153
280
     0
281
     0
  0
CLASS
  1
SCALE
  2
AcDbScale
  3
ObjectDBX Classes
 90
     1153
280
     0
281
     0
  0
CLASS
  1
TABLESTYLE
  2
AcDbTableStyle
  3
ObjectDBX Classes
 90
     4095
280
     0
281
     0
  0
CLASS
  1
MLEADERSTYLE
  2
AcDbMLeaderStyle
  3
ACDB_MLEADERSTYLE_CLASS
 90
     4095
280
     0
281
     0
  0
CLASS
  1
SUN
  2
AcDbSun
  3
SCENEOE
 90
     1153
280
     0
281
     0
  0
CLASS
  1
ACDBPLACEHOLDER
  2
AcDbPlaceHolder
  3
ObjectDBX Classes
 90
        0
280
     0
281
     0
  0
CLASS
  1
LAYOUT
  2
AcDbLayout
  3
ObjectDBX Classes
 90
        0
280
     0
281
     0
  0
ENDSEC
  0
SECTION
  2
TABLES
  0
TABLE
  2
VPORT
  5
8
330
0
100
AcDbSymbolTable
 70
     1
  0
VPORT
  5
29
330
8
100
AcDbSymbolTableRecord
100
AcDbViewportTableRecord
  2
*Active
 70
     0
 10
0.0
 20
0.0
 11
1.0
 21
1.0
 12
316.5
 22
300.5
 13
0.0
 23
0.0
 14
10.0
 24
10.0
 15
10.0
 25
10.0
 16
0.0
 26
0.0
 36
1.0
 17
0.0
 27
0.0
 37
0.0
 40
601.0
 41
1.0532445923
 42
50.0
 43
0.0
 44
0.0
 50
0.0
 51
0.0
 71
     0
 72
  2000
 73
     1
 74
     3
 75
     0
 76
     0
 77
     0
 78
     0
281
     0
 65
     1
110
0.0
120
0.0
130
0.0
111
1.0
121
0.0
131
0.0
112
0.0
122
1.0
132
0.0
 79
     0
146
0.0
  0
ENDTAB
  0
TABLE
  2
LTYPE
  5
5
330
0
100
AcDbSymbolTable
 70
     6
  0
LTYPE
  5
14
330
5
100
AcDbSymbolTableRecord
100
AcDbLinetypeTableRecord
  2
ByBlock
 70
     0
  3

 72
    65
 73
     0
 40
0.0
  0
LTYPE
  5
15
330
5
100
AcDbSymbolTableRecord
100
AcDbLinetypeTableRecord
  2
ByLayer
 70
     0
  3

 72
    65
 73
     0
 40
0.0
  0
LTYPE
  5
16
330
5
100
AcDbSymbolTableRecord
100
AcDbLinetypeTableRecord
  2
Continuous
 70
     0
  3
Solid line
 72
    65
 73
     0
 40
0.0
  0
LTYPE
  5
6E
330
5
100
AcDbSymbolTableRecord
100
AcDbLinetypeTableRecord
  2
HIDDEN
 70
     0
  3
Hidden __ __ __ __ __ __ __ __ __ __ __ __ __ __
 72
    65
 73
     2
 40
1.905
 49
1.27
 74
     0
 49
-0.635
 74
     0
  0
LTYPE
  5
6F
330
5
100
AcDbSymbolTableRecord
100
AcDbLinetypeTableRecord
  2
PHANTOM
 70
     0
  3
Phantom ______  __  __  ______  __  __  ______
 72
    65
 73
     6
 40
12.7
 49
6.35
 74
     0
 49
-1.27
 74
     0
 49
1.27
 74
     0
 49
-1.27
 74
     0
 49
1.27
 74
     0
 49
-1.27
 74
     0
  0
LTYPE
  5
70
330
5
100
AcDbSymbolTableRecord
100
AcDbLinetypeTableRecord
  2
CENTER
 70
     0
  3
Center ____ _ ____ _ ____ _ ____ _ ____ _ ____
 72
    65
 73
     4
 40
10.16
 49
6.35
 74
     0
 49
-1.27
 74
     0
 49
1.27
 74
     0
 49
-1.27
 74
     0
  0
LTYPE
  5
71
330
5
100
AcDbSymbolTableRecord
100
AcDbLinetypeTableRecord
  2
CENTERX2
 70
     0
  3
Center (2x) ________  __  ________  __  _____
 72
    65
 73
     4
 40
20.32
 49
12.7
 74
     0
 49
-2.54
 74
     0
 49
2.54
 74
     0
 49
-2.54
 74
     0
  0
LTYPE
  5
72
330
5
100
AcDbSymbolTableRecord
100
AcDbLinetypeTableRecord
  2
DOT2
 70
     0
  3
Dot (.5x) ........................................
 72
    65
 73
     2
 40
0.635
 49
0.0
 74
     0
 49
-0.635
 74
     0
  0
ENDTAB
  0
TABLE
  2
LAYER
  5
2
330
0
100
AcDbSymbolTable
 70
     2
  0
LAYER
  5
10
330
2
100
AcDbSymbolTableRecord
100
AcDbLayerTableRecord
  2
0
 70
     0
 62
     7
  6
Continuous
370
    -3
390
F
  0
LAYER
  5
73
330
2
100
AcDbSymbolTableRecord
100
AcDbLayerTableRecord
  2
FORMAT
 70
     0
 62
     7
  6
Continuous
370
    -3
390
F
  0
ENDTAB
  0
TABLE
  2
STYLE
  5
3
330
0
100
AcDbSymbolTable
 70
     2
  0
STYLE
  5
11
330
3
100
AcDbSymbolTableRecord
100
AcDbTextStyleTableRecord
  2
Standard
 70
     0
 40
0.0
 41
1.0
 50
0.0
 71
     0
 42
3.5
  3
txt
  4

  0
STYLE
  5
74
330
3
100
AcDbSymbolTableRecord
100
AcDbTextStyleTableRecord
  2
SLDTEXTSTYLE0
 70
     0
 40
0.0
 41
0.605
 50
0.0
 71
     0
 42
3.5
  3
TXT
  4

  0
ENDTAB
  0
TABLE
  2
VIEW
  5
6
330
0
100
AcDbSymbolTable
 70
     0
  0
ENDTAB
  0
TABLE
  2
UCS
  5
7
330
0
100
AcDbSymbolTable
 70
     0
  0
ENDTAB
  0
TABLE
  2
APPID
  5
9
330
0
100
AcDbSymbolTable
 70
     1
  0
APPID
  5
12
330
9
100
AcDbSymbolTableRecord
100
AcDbRegAppTableRecord
  2
ACAD
 70
     0
  0
ENDTAB
  0
TABLE
  2
DIMSTYLE
  5
A
330
0
100
AcDbSymbolTable
 70
     1
100
AcDbDimStyleTable
  0
DIMSTYLE
105
27
330
A
100
AcDbSymbolTableRecord
100
AcDbDimStyleTableRecord
  2
ISO-25
 70
     0
 41
2.5
 42
0.625
 43
3.75
 44
1.25
 73
     0
 74
     0
 77
     1
 78
     8
140
2.5
141
2.5
143
0.0393700787
147
0.625
171
     3
172
     1
178
     0
271
     2
272
     2
274
     3
278
    44
283
     0
284
     8
340
11
  0
ENDTAB
  0
TABLE
  2
BLOCK_RECORD
  5
1
330
0
100
AcDbSymbolTable
 70
     1
  0
BLOCK_RECORD
  5
1F
330
1
100
AcDbSymbolTableRecord
100
AcDbBlockTableRecord
  2
*Model_Space
340
22
  0
BLOCK_RECORD
  5
1B
330
1
100
AcDbSymbolTableRecord
100
AcDbBlockTableRecord
  2
*Paper_Space
340
1E
  0
BLOCK_RECORD
  5
23
330
1
100
AcDbSymbolTableRecord
100
AcDbBlockTableRecord
  2
*Paper_Space0
340
26
  0
ENDTAB
  0
ENDSEC
  0
SECTION
  2
BLOCKS
  0
BLOCK
  5
20
330
1F
100
AcDbEntity
  8
0
100
AcDbBlockBegin
  2
*Model_Space
 70
     0
 10
0.0
 20
0.0
 30
0.0
  3
*Model_Space
  1

  0
ENDBLK
  5
21
330
1F
100
AcDbEntity
  8
0
100
AcDbBlockEnd
  0
BLOCK
  5
1C
330
1B
100
AcDbEntity
 67
     1
  8
0
100
AcDbBlockBegin
  2
*Paper_Space
 70
     0
 10
0.0
 20
0.0
 30
0.0
  3
*Paper_Space
  1

  0
ENDBLK
  5
1D
330
1B
100
AcDbEntity
 67
     1
  8
0
100
AcDbBlockEnd
  0
BLOCK
  5
24
330
23
100
AcDbEntity
  8
0
100
AcDbBlockBegin
  2
*Paper_Space0
 70
     0
 10
0.0
 20
0.0
 30
0.0
  3
*Paper_Space0
  1

  0
ENDBLK
  5
25
330
23
100
AcDbEntity
  8
0
100
AcDbBlockEnd
  0
ENDSEC
  0
SECTION
  2
ENTITIES
  0
MTEXT
  5
75
330
1F
100
AcDbEntity
  8
0
  6
Continuous
 62
     7
370
     0
100
AcDbMText
 10
7.2782978723
 20
22.1884790273
 30
0.0
 40
10.0
 41
0.0
 71
     1
 72
     1
  1
1:1
  7
SLDTEXTSTYLE0
 73
     1
 44
1.0
  0
CIRCLE
  5
76
330
1F
100
AcDbEntity
  8
0
  6
Continuous
 62
     7
370
    30
100
AcDbCircle
 10
316.4999987063
 20
435.91584292
 30
0.0
 40
23.0267856447
  0
LINE
  5
77
330
1F
100
AcDbEntity
  8
0
  6
Continuous
 62
     7
370
    30
100
AcDbLine
 10
243.5085739455
 20
360.9246464743
 30
0.0
 11
389.4914237636
 21
360.9246464743
 31
0.0
  0
LINE
  5
78
330
1F
100
AcDbEntity
  8
0
  6
Continuous
 62
     7
370
    30
100
AcDbLine
 10
391.4911950098
 20
362.924418017
 30
0.0
 11
391.4911950098
 21
508.9072678351
 31
0.0
  0
LINE
  5
79
330
1F
100
AcDbEntity
  8
0
  6
Continuous
 62
     7
370
    30
100
AcDbLine
 10
389.4914234671
 20
510.9070390813
 30
0.0
 11
243.508573649
 21
510.9070390813
 31
0.0
  0
LINE
  5
7A
330
1F
100
AcDbEntity
  8
0
  6
Continuous
 62
     7
370
    30
100
AcDbLine
 10
241.5088024028
 20
508.9072675386
 30
0.0
 11
241.5088024028
 21
362.9244179791
 31
0.0
  0
SPLINE
  5
7B
330
1F
100
AcDbEntity
  8
0
  6
Continuous
 62
     7
370
    30
100
AcDbSpline
210
0.0
220
0.0
230
1.0
 70
     8
 71
     3
 72
    31
 73
    27
 74
     0
 42
0.000000001
 43
0.00000001
 40
0.0
 40
0.0
 40
0.0
 40
0.0
 40
0.0416703838729769
 40
0.0833389771048194
 40
0.1250049618572205
 40
0.1666686467564283
 40
0.2083309626328323
 40
0.2499930461838274
 40
0.2916559303475321
 40
0.3333203655874833
 40
0.3749867329477823
 40
0.4166550157105043
 40
0.4583248286605355
 40
0.4999955108223756
 40
0.541666254024884
 40
0.583336249419869
 40
0.6250048341092013
 40
0.6666716187175669
 40
0.7083365768227066
 40
0.7500000910268783
 40
0.7916629306254926
 40
0.8333261479159297
 40
0.8749908871764275
 40
0.9166580835078638
 40
0.9583280555441218
 40
0.9999999999999999
 40
0.9999999999999999
 40
0.9999999999999999
 40
0.9999999999999999
 10
241.508802415685
 20
362.9244179756687
 30
0.0
 10
241.5096267900333
 20
362.8807914669636
 30
0.0
 10
241.5112755033054
 20
362.7935403242523
 30
0.0
 10
241.5246038928578
 20
362.6632282944381
 30
0.0
 10
241.5458275815766
 20
362.5340447865447
 30
0.0
 10
241.5756360399018
 20
362.4065451089052
 30
0.0
 10
241.6136907558946
 20
362.2812747257576
 30
0.0
 10
241.6598805923507
 20
362.1587675671385
 30
0.0
 10
241.7139875402289
 20
362.0395443459318
 30
0.0
 10
241.7757783641376
 20
361.9241109535108
 30
0.0
 10
241.8449821801923
 20
361.8129568814192
 30
0.0
 10
241.9212986166079
 20
361.7065536280836
 30
0.0
 10
242.0043977082398
 20
361.6053530811333
 30
0.0
 10
242.0939219827839
 20
361.5097859488261
 30
0.0
 10
242.1894879508352
 20
361.4202601612031
 30
0.0
 10
242.2906877450881
 20
361.3371592792671
 30
0.0
 10
242.3970907084727
 20
361.260840853035
 30
0.0
 10
242.5082449846115
 20
361.1916349296811
 30
0.0
 10
242.6236791174665
 20
361.1298419580583
 30
0.0
 10
242.7429036303697
 20
361.0757328654488
 30
0.0
 10
242.8654126291515
 20
361.0295409378501
 30
0.0
 10
242.9906854184743
 20
360.9914842721167
 30
0.0
 10
243.1181881125865
 20
360.9616741071429
 30
0.0
 10
243.2473752713657
 20
360.940449073236
 30
0.0
 10
243.377691587358
 20
360.9271197549846
 30
0.0
 10
243.4649458044516
 20
360.9254709213884
 30
0.0
 10
243.5085739455037
 20
360.9246464850792
 30
0.0
  0
SPLINE
  5
7C
330
1F
100
AcDbEntity
  8
0
  6
Continuous
 62
     7
370
    30
100
AcDbSpline
210
0.0
220
0.0
230
1.0
 70
     8
 71
     3
 72
    31
 73
    27
 74
     0
 42
0.000000001
 43
0.00000001
 40
0.0
 40
0.0
 40
0.0
 40
0.0
 40
0.0416703878765308
 40
0.083338987168191
 40
0.1250049799386753
 40
0.1666686692759642
 40
0.2083309717324437
 40
0.2499930199214842
 40
0.2916558649183217
 40
0.3333202783997364
 40
0.374986647125903
 40
0.4166549474609793
 40
0.4583247869904717
 40
0.4999954980665801
 40
0.54166626663208
 40
0.5833362789473769
 40
0.6250048683304489
 40
0.6666716440713609
 40
0.7083365850677923
 40
0.7500000816359292
 40
0.7916629103034912
 40
0.8333261281654494
 40
0.8749908758256956
 40
0.9166580806764967
 40
0.9583280563732134
 40
1.0
 40
1.0
 40
1.0
 40
1.0
 10
389.491423504699
 20
360.9246464871522
 30
0.0
 10
389.5350500125755
 20
360.9254708613832
 30
0.0
 10
389.6223011557827
 20
360.9271195744615
 30
0.0
 10
389.7526131894784
 20
360.9404479638354
 30
0.0
 10
389.8817967023562
 20
360.9616716525893
 30
0.0
 10
390.0092963697489
 20
360.9914801051842
 30
0.0
 10
390.1345667366982
 20
361.0295347932289
 30
0.0
 10
390.2570739112755
 20
361.0757245572781
 30
0.0
 10
390.3762971845424
 20
361.129831383914
 30
0.0
 10
390.4917306486369
 20
361.1916220753592
 30
0.0
 10
390.6028847998712
 20
361.2608257978346
 30
0.0
 10
390.7092881361831
 20
361.3371421963464
 30
0.0
 10
390.8104887500862
 20
361.4202413049107
 30
0.0
 10
390.906055920356
 20
361.5097656404846
 30
0.0
 10
390.995581709496
 20
361.6053316973984
 30
0.0
 10
391.0786825554579
 20
361.7065315894329
 30
0.0
 10
391.1550009136908
 20
361.8129346416007
 30
0.0
 10
391.2242067515033
 20
361.9240889876039
 30
0.0
 10
391.2859996419755
 20
362.0395231615806
 30
0.0
 10
391.340108674094
 20
362.1587476911288
 30
0.0
 10
391.386300567656
 20
362.2812566944088
 30
0.0
 10
391.424357220575
 20
362.406529483732
 30
0.0
 10
391.4541673833091
 20
362.5340321841662
 30
0.0
 10
391.4753924160944
 20
362.6632193508719
 30
0.0
 10
391.4887217306489
 20
362.7935356650582
 30
0.0
 10
391.4903705632353
 20
362.8807898795632
 30
0.0
 10
391.4911949989952
 20
362.9244180169708
 30
0.0
  0
SPLINE
  5
7D
330
1F
100
AcDbEntity
  8
0
  6
Continuous
 62
     7
370
    30
100
AcDbSpline
210
0.0
220
0.0
230
1.0
 70
     8
 71
     3
 72
    31
 73
    27
 74
     0
 42
0.000000001
 43
0.00000001
 40
0.0
 40
0.0
 40
0.0
 40
0.0
 40
0.0416703878765356
 40
0.0833389871681486
 40
0.1250049799385429
 40
0.1666686692757178
 40
0.2083309717320904
 40
0.2499930199210408
 40
0.2916558649177959
 40
0.3333202783991746
 40
0.374986647125313
 40
0.416654947460389
 40
0.4583247869899239
 40
0.4999954980660722
 40
0.5416662666316227
 40
0.5833362789469873
 40
0.6250048683301331
 40
0.6666716440711228
 40
0.7083365850676105
 40
0.7500000816358053
 40
0.7916629103033946
 40
0.8333261281653712
 40
0.8749908758256613
 40
0.9166580806764646
 40
0.9583280563732132
 40
1.0
 40
1.0
 40
1.0
 40
1.0
 10
391.4911949969223
 20
508.9072675761661
 30
0.0
 10
391.4903706226912
 20
508.9508940840426
 30
0.0
 10
391.4887219096129
 20
509.0381452272497
 30
0.0
 10
391.4753935202392
 20
509.1684572609453
 30
0.0
 10
391.4541698314852
 20
509.2976407738226
 30
0.0
 10
391.4243613788902
 20
509.4251404412151
 30
0.0
 10
391.3863066908456
 20
509.5504108081639
 30
0.0
 10
391.3401169267964
 20
509.672917982741
 30
0.0
 10
391.2860101001604
 20
509.7921412560075
 30
0.0
 10
391.2242194087153
 20
509.9075747201017
 30
0.0
 10
391.1550156862398
 20
510.018728871336
 30
0.0
 10
391.0786992877281
 20
510.1251322076478
 30
0.0
 10
390.9956001791638
 20
510.226332821551
 30
0.0
 10
390.9060758435899
 20
510.3218999918209
 30
0.0
 10
390.8105097866761
 20
510.4114257809611
 30
0.0
 10
390.7093098946416
 20
510.4945266269234
 30
0.0
 10
390.6029068424738
 20
510.5708449851565
 30
0.0
 10
390.4917524964706
 20
510.6400508229693
 30
0.0
 10
390.3763183224939
 20
510.7018437134419
 30
0.0
 10
390.2570937929457
 20
510.7559527455605
 30
0.0
 10
390.1345847896657
 20
510.8021446391229
 30
0.0
 10
390.0093120003424
 20
510.8402012920419
 30
0.0
 10
389.8818092999084
 20
510.8700114547761
 30
0.0
 10
389.7526221332026
 20
510.8912364875617
 30
0.0
 10
389.6223058190163
 20
510.9045658021161
 30
0.0
 10
389.5350516045112
 20
510.9062146347026
 30
0.0
 10
389.4914234671036
 20
510.9070390704624
 30
0.0
  0
SPLINE
  5
7E
330
1F
100
AcDbEntity
  8
0
  6
Continuous
 62
     7
370
    30
100
AcDbSpline
210
0.0
220
0.0
230
1.0
 70
     8
 71
     3
 72
    31
 73
    27
 74
     0
 42
0.000000001
 43
0.00000001
 40
0.0
 40
0.0
 40
0.0
 40
0.0
 40
0.0416703878765266
 40
0.0833389871681299
 40
0.1250049799385089
 40
0.1666686692757161
 40
0.2083309717320912
 40
0.2499930199210311
 40
0.2916558649177876
 40
0.3333202783991793
 40
0.3749866471253265
 40
0.4166549474603952
 40
0.4583247869899247
 40
0.4999954980660764
 40
0.5416662666316489
 40
0.5833362789469964
 40
0.6250048683301446
 40
0.6666716440711249
 40
0.7083365850676241
 40
0.7500000816358099
 40
0.7916629103034036
 40
0.8333261281653672
 40
0.8749908758256669
 40
0.9166580806764738
 40
0.9583280563732038
 40
0.9999999999999999
 40
0.9999999999999999
 40
0.9999999999999999
 40
0.9999999999999999
 10
243.5085739079083
 20
510.9070390683895
 30
0.0
 10
243.4649474000318
 20
510.9062146941585
 30
0.0
 10
243.3776962568248
 20
510.9045659810801
 30
0.0
 10
243.2473842231292
 20
510.8912375917064
 30
0.0
 10
243.1182007102518
 20
510.8700139029523
 30
0.0
 10
242.9907010428594
 20
510.8402054503575
 30
0.0
 10
242.8654306759105
 20
510.8021507623127
 30
0.0
 10
242.7429235013335
 20
510.7559609982636
 30
0.0
 10
242.6237002280671
 20
510.7018541716275
 30
0.0
 10
242.5082667639726
 20
510.6400634801824
 30
0.0
 10
242.3971126127385
 20
510.570859757707
 30
0.0
 10
242.2907092764266
 20
510.4945433591953
 30
0.0
 10
242.1895086625235
 20
510.4114442506309
 30
0.0
 10
242.0939414922534
 20
510.3219199150572
 30
0.0
 10
242.0044157031134
 20
510.2263538581432
 30
0.0
 10
241.921314857151
 20
510.1251539661088
 30
0.0
 10
241.8449964989179
 20
510.018750913941
 30
0.0
 10
241.7757906611051
 20
509.9075965679378
 30
0.0
 10
241.7139977706326
 20
509.792162393961
 30
0.0
 10
241.6598887385139
 20
509.6729378644129
 30
0.0
 10
241.6136968449516
 20
509.5504288611329
 30
0.0
 10
241.5756401920325
 20
509.4251560718096
 30
0.0
 10
241.5458300292984
 20
509.2976533713755
 30
0.0
 10
241.5246049965128
 20
509.1684662046697
 30
0.0
 10
241.5112756819585
 20
509.0381498904835
 30
0.0
 10
241.509626849372
 20
508.9508956759784
 30
0.0
 10
241.508802413612
 20
508.9072675385709
 30
0.0
  0
SPLINE
  5
7F
330
1F
100
AcDbEntity
  8
0
  6
Continuous
 62
     7
370
    30
100
AcDbSpline
210
0.0
220
0.0
230
1.0
 70
     8
 71
     3
 72
    45
 73
    41
 74
     0
 42
0.000000001
 43
0.00000001
 40
0.0
 40
0.0
 40
0.0
 40
0.0
 40
0.0259438367548075
 40
0.0519090951647117
 40
0.0778739239273122
 40
0.1038171743138983
 40
0.1304932696955958
 40
0.1571936829269457
 40
0.1838936370836065
 40
0.2105691058817224
 40
0.2365215267233525
 40
0.2624971888581051
 40
0.2884725209173287
 40
0.3144244912518332
 40
0.3411685571016172
 40
0.367938728860943
 40
0.3947086868126355
 40
0.4214524608215298
 40
0.4467702169820061
 40
0.4721103591208548
 40
0.497450488624112
 40
0.5227682275389992
 40
0.5488369755730826
 40
0.5749300309281515
 40
0.6010232516032721
 40
0.627092225283732
 40
0.6521715068548793
 40
0.6772719867860024
 40
0.7023727347586605
 40
0.7274523821492267
 40
0.7532322541758153
 40
0.7790344189394901
 40
0.8048369718395139
 40
0.8306173735991669
 40
0.8588008370237427
 40
0.8870387020754937
 40
0.9153052796495744
 40
0.943573261382486
 40
0.9718143699898851
 40
1.0
 40
1.0
 40
1.0
 40
1.0
 10
325.4999987063036
 20
431.2158429200451
 30
0.0
 10
325.499372014756
 20
431.162187484861
 30
0.0
 10
325.4981181142057
 20
431.0548323115535
 30
0.0
 10
325.4879921818679
 20
430.8936801871
 30
0.0
 10
325.4718301676165
 20
430.7327905435913
 30
0.0
 10
325.4488106809902
 20
430.5709400334593
 30
0.0
 10
325.4188240830289
 20
430.4083881085915
 30
0.0
 10
325.3816663099439
 20
430.2454117770203
 30
0.0
 10
325.3376852969162
 20
430.0838596259941
 30
0.0
 10
325.2873823700163
 20
429.9255278313698
 30
0.0
 10
325.2309679443421
 20
429.770627346828
 30
0.0
 10
325.1687566296952
 20
429.6193118613471
 30
0.0
 10
325.100347344924
 20
429.4704741440502
 30
0.0
 10
325.0250911325854
 20
429.322953443662
 30
0.0
 10
324.9428110860289
 20
429.1771086260895
 30
0.0
 10
324.8534596006797
 20
429.0332799081111
 30
0.0
 10
324.7580594897153
 20
428.8932448891405
 30
0.0
 10
324.6585992512273
 20
428.7597523893712
 30
0.0
 10
324.5555494782052
 20
428.6328069946541
 30
0.0
 10
324.4494353708925
 20
428.5122919105955
 30
0.0
 10
324.3385839264291
 20
428.3961086829534
 30
0.0
 10
324.2220727308681
 20
428.2834009503611
 30
0.0
 10
324.0998825024304
 20
428.1745328076461
 30
0.0
 10
323.9720972646004
 20
428.0698031383665
 30
0.0
 10
323.8401935276654
 20
427.9704723388524
 30
0.0
 10
323.7061703973678
 20
427.8779418435642
 30
0.0
 10
323.5703859740422
 20
427.792138085412
 30
0.0
 10
323.433216249906
 20
427.7128702003863
 30
0.0
 10
323.2931823015465
 20
427.6391524249944
 30
0.0
 10
323.1492340729669
 20
427.570486821499
 30
0.0
 10
323.0014800296553
 20
427.5071779178052
 30
0.0
 10
322.8500897762277
 20
427.4494419341906
 30
0.0
 10
322.6967277018755
 20
427.3979353703225
 30
0.0
 10
322.5368917852757
 20
427.3513292537039
 30
0.0
 10
322.3705566296893
 20
427.3104423028151
 30
0.0
 10
322.1978236175941
 20
427.2760078945377
 30
0.0
 10
322.0239040531118
 20
427.249141469019
 30
0.0
 10
321.8493134623989
 20
427.2300587270969
 30
0.0
 10
321.6745293261531
 20
427.21807604704
 30
0.0
 10
321.5581374342067
 20
427.2165868076348
 30
0.0
 10
321.4999987063101
 20
427.21584292004
 30
0.0
  0
LINE
  5
80
330
1F
100
AcDbEntity
  8
0
  6
Continuous
 62
     7
370
    30
100
AcDbLine
 10
325.4999987063
 20
431.21584292
 30
0.0
 11
325.4999987063
 21
449.1823420814
 31
0.0
  0
SPLINE
  5
81
330
1F
100
AcDbEntity
  8
0
  6
Continuous
 62
     7
370
    30
100
AcDbSpline
210
0.0
220
0.0
230
1.0
 70
     8
 71
     3
 72
    51
 73
    47
 74
     0
 42
0.000000001
 43
0.00000001
 40
0.0
 40
0.0
 40
0.0
 40
0.0
 40
0.0215605005214166
 40
0.0431210600906488
 40
0.0648691154283594
 40
0.086617344396166
 40
0.1089394437523278
 40
0.1312618317952633
 40
0.1537704018624757
 40
0.1762793285779945
 40
0.1978329054511347
 40
0.2193867968091547
 40
0.2412638091807229
 40
0.2631567590268044
 40
0.2850514089268987
 40
0.3069307412098664
 40
0.3291280788004479
 40
0.351325690769005
 40
0.3716302050156329
 40
0.3919395158701197
 40
0.4122445856773032
 40
0.4327049856164086
 40
0.4531695799410749
 40
0.4736304247714903
 40
0.4945268220112989
 40
0.5154270938879293
 40
0.5363238574835354
 40
0.5573488222084716
 40
0.5783772682167381
 40
0.5994025113316919
 40
0.6261221409708906
 40
0.6528419253728982
 40
0.6796599290630091
 40
0.706478050563098
 40
0.7305720890157987
 40
0.7546702667734687
 40
0.7787644897466512
 40
0.8030030629711425
 40
0.8272456210458217
 40
0.8514843045252011
 40
0.8761623017948346
 40
0.9008443652602862
 40
0.9255224119024245
 40
0.9503469167393913
 40
0.975175505232322
 40
1.0
 40
1.0
 40
1.0
 40
1.0
 10
320.2037024100063
 20
455.5699157517543
 30
0.0
 10
320.2754189674707
 20
455.5556743298083
 30
0.0
 10
320.41885227881
 20
455.5271914469132
 30
0.0
 10
320.632419729752
 20
455.475210658144
 30
0.0
 10
320.8443910373965
 20
455.4164923665808
 30
0.0
 10
321.0560348173031
 20
455.3499312582311
 30
0.0
 10
321.2662567468909
 20
455.2758462830083
 30
0.0
 10
321.4751361629831
 20
455.1940347426437
 30
0.0
 10
321.6804426399361
 20
455.1053327292379
 30
0.0
 10
321.8789771208736
 20
455.0113430880781
 30
0.0
 10
322.070108802753
 20
454.912894421876
 30
0.0
 10
322.2547973308577
 20
454.8100581649277
 30
0.0
 10
322.4355907540925
 20
454.7015289625027
 30
0.0
 10
322.6122750343401
 20
454.5875070008753
 30
0.0
 10
322.7838121667824
 20
454.4688342175296
 30
0.0
 10
322.950867738811
 20
454.3451917581318
 30
0.0
 10
323.1132719599103
 20
454.2167498879979
 30
0.0
 10
323.266468424529
 20
454.0874570105526
 30
0.0
 10
323.4101870178933
 20
453.9585139767217
 30
0.0
 10
323.544934516961
 20
453.8304567486157
 30
0.0
 10
323.6753728435572
 20
453.6992264799562
 30
0.0
 10
323.8014608050323
 20
453.5649479096866
 30
0.0
 10
323.923174048017
 20
453.4277474419494
 30
0.0
 10
324.0410387063848
 20
453.2871138755522
 30
0.0
 10
324.1549538996094
 20
453.14311828437
 30
0.0
 10
324.2648275335031
 20
452.9958381899075
 30
0.0
 10
324.3701012456529
 20
452.8461009618883
 30
0.0
 10
324.4707622763925
 20
452.6940097006403
 30
0.0
 10
324.5668036815035
 20
452.5396671954816
 30
0.0
 10
324.6662806883038
 20
452.3693961940974
 30
0.0
 10
324.7675873051048
 20
452.1827151851365
 30
0.0
 10
324.8690952257358
 20
451.9789324517077
 30
0.0
 10
324.9630645825471
 20
451.7725052032981
 30
0.0
 10
325.0465757601545
 20
451.5706901791951
 30
0.0
 10
325.1204223366371
 20
451.37414569718
 30
0.0
 10
325.1854603882863
 20
451.1832342042094
 30
0.0
 10
325.2445062468861
 20
450.9905617550255
 30
0.0
 10
325.2975269813935
 20
450.7962413824016
 30
0.0
 10
325.3444937188039
 20
450.6003921085104
 30
0.0
 10
325.3855540733292
 20
450.4023348593437
 30
0.0
 10
325.4205801025661
 20
450.2021706140038
 30
0.0
 10
325.4494339753708
 20
450.0000129264378
 30
0.0
 10
325.4719915041794
 20
449.7967859105435
 30
0.0
 10
325.4880406328426
 20
449.5926106443515
 30
0.0
 10
325.4981252039877
 20
449.3876326124179
 30
0.0
 10
325.4993742398578
 20
449.2507684971284
 30
0.0
 10
325.4999987063036
 20
449.1823420814704
 30
0.0
  0
ARC
  5
82
330
1F
100
AcDbEntity
  8
0
  6
Continuous
 62
     7
370
    30
100
AcDbCircle
 10
316.4999987063
 20
435.91584292
 30
0.0
 40
19.99999999998207
100
AcDbArc
 50
79.3280707142
 51
100.6719292858
  0
SPLINE
  5
83
330
1F
100
AcDbEntity
  8
0
  6
Continuous
 62
     7
370
    30
100
AcDbSpline
210
0.0
220
0.0
230
1.0
 70
     8
 71
     3
 72
    51
 73
    47
 74
     0
 42
0.000000001
 43
0.00000001
 40
0.0
 40
0.0
 40
0.0
 40
0.0
 40
0.0215605006705535
 40
0.0431210603889229
 40
0.0648691158770677
 40
0.0866173449953097
 40
0.1089394445058764
 40
0.1312618327032188
 40
0.1537704029261259
 40
0.176279329797342
 40
0.1978329068195711
 40
0.2193867983266822
 40
0.2412638108495766
 40
0.2631567608470945
 40
0.2850514108986369
 40
0.3069307433329468
 40
0.3291280810770703
 40
0.3513256931991712
 40
0.3716302075862481
 40
0.3919395185812171
 40
0.4122445885288535
 40
0.4327049886094861
 40
0.4531695830757087
 40
0.4736304280476544
 40
0.494526825432006
 40
0.5154270974532065
 40
0.5363238611933583
 40
0.5573488260637269
 40
0.57837727221745
 40
0.5994025154778381
 40
0.624733501870711
 40
0.6500699585747997
 40
0.6754013579824081
 40
0.7009180339052281
 40
0.7264397813429019
 40
0.7519567352114834
 40
0.7780255498824891
 40
0.8040994095628834
 40
0.8301684041144719
 40
0.8564152445606464
 40
0.8826670135194054
 40
0.9089139384725978
 40
0.93166021315766
 40
0.9544064906998635
 40
0.9772032474925484
 40
1.0
 40
1.0
 40
1.0
 40
1.0
 10
312.7962950026009
 20
455.5699157517543
 30
0.0
 10
312.7245784451365
 20
455.5556743298083
 30
0.0
 10
312.5811451337972
 20
455.5271914469132
 30
0.0
 10
312.3675776828553
 20
455.475210658144
 30
0.0
 10
312.1556063752108
 20
455.4164923665808
 30
0.0
 10
311.9439625953042
 20
455.3499312582311
 30
0.0
 10
311.7337406657164
 20
455.2758462830083
 30
0.0
 10
311.5248612496242
 20
455.1940347426437
 30
0.0
 10
311.3195547726712
 20
455.1053327292378
 30
0.0
 10
311.1210202917336
 20
455.0113430880781
 30
0.0
 10
310.9298886098543
 20
454.912894421876
 30
0.0
 10
310.7452000817495
 20
454.8100581649277
 30
0.0
 10
310.5644066585148
 20
454.7015289625027
 30
0.0
 10
310.3877223782672
 20
454.5875070008753
 30
0.0
 10
310.2161852458248
 20
454.4688342175296
 30
0.0
 10
310.0491296737963
 20
454.3451917581318
 30
0.0
 10
309.886725452697
 20
454.2167498879979
 30
0.0
 10
309.7335289880782
 20
454.0874570105526
 30
0.0
 10
309.589810394714
 20
453.9585139767217
 30
0.0
 10
309.455062895646
 20
453.8304567486156
 30
0.0
 10
309.3246245690513
 20
453.6992264799564
 30
0.0
 10
309.1985366075707
 20
453.5649479096858
 30
0.0
 10
309.0768233646064
 20
453.4277474419523
 30
0.0
 10
308.9589587061617
 20
453.2871138755413
 30
0.0
 10
308.8450435132299
 20
453.1431182844115
 30
0.0
 10
308.7351698782385
 20
452.9958381897528
 30
0.0
 10
308.6298961701927
 20
452.8461009624671
 30
0.0
 10
308.5292351240456
 20
452.694009698465
 30
0.0
 10
308.4331937765157
 20
452.5396672035992
 30
0.0
 10
308.3357251402333
 20
452.3728342053317
 30
0.0
 10
308.2380114393752
 20
452.1931675851229
 30
0.0
 10
308.1413254430054
 20
452.0003837616883
 30
0.0
 10
308.0512800670525
 20
451.8049652121512
 30
0.0
 10
307.967905995221
 20
451.6070537809905
 30
0.0
 10
307.8912294491386
 20
451.4067956260212
 30
0.0
 10
307.8209247281525
 20
451.2033699861025
 30
0.0
 10
307.7571496126156
 20
450.9968840790689
 30
0.0
 10
307.7000586946028
 20
450.7874604945619
 30
0.0
 10
307.6499781518244
 20
450.576242672732
 30
0.0
 10
307.6069625820616
 20
450.3633718829459
 30
0.0
 10
307.5710559516298
 20
450.1489990489717
 30
0.0
 10
307.5436425547251
 20
449.9433287270146
 30
0.0
 10
307.523612924451
 20
449.746639349789
 30
0.0
 10
307.5100750663792
 20
449.5589767242217
 30
0.0
 10
307.5015778302142
 20
449.3708559048025
 30
0.0
 10
307.5005250809075
 20
449.2451800186438
 30
0.0
 10
307.4999987063036
 20
449.1823420814704
 30
0.0
  0
LINE
  5
84
330
1F
100
AcDbEntity
  8
0
  6
Continuous
 62
     7
370
    30
100
AcDbLine
 10
307.4999987063
 20
449.1823420815
 30
0.0
 11
307.4999987063
 21
431.21584292
 31
0.0
  0
SPLINE
  5
85
330
1F
100
AcDbEntity
  8
0
  6
Continuous
 62
     7
370
    30
100
AcDbSpline
210
0.0
220
0.0
230
1.0
 70
     8
 71
     3
 72
    45
 73
    41
 74
     0
 42
0.000000001
 43
0.00000001
 40
0.0
 40
0.0
 40
0.0
 40
0.0
 40
0.0259438367548414
 40
0.051909095164783
 40
0.0778739239274417
 40
0.1038171743140903
 40
0.1304932696958046
 40
0.157193682927171
 40
0.1838936370838483
 40
0.2105691058819812
 40
0.2365215267236293
 40
0.2624971888584001
 40
0.2884725209176411
 40
0.3144244912521639
 40
0.3411685571019681
 40
0.367938728861314
 40
0.3947086868130266
 40
0.4214524608219409
 40
0.4467702169824137
 40
0.4721103591212587
 40
0.4974504886245121
 40
0.5227682275393961
 40
0.5488369755734757
 40
0.5749300309285404
 40
0.6010232516036573
 40
0.6270922252841133
 40
0.6521715068552582
 40
0.6772719867863781
 40
0.7023727347590332
 40
0.7274523821495963
 40
0.7532322541761817
 40
0.7790344189398537
 40
0.8048369718398746
 40
0.8306173735995245
 40
0.8588008370240408
 40
0.8870387020757325
 40
0.9153052796497527
 40
0.9435732613826048
 40
0.9718143699899449
 40
1.0
 40
1.0
 40
1.0
 40
1.0
 10
307.499998706292
 20
431.2158429200435
 30
0.0
 10
307.5006253978401
 20
431.1621874848594
 30
0.0
 10
307.5018792983913
 20
431.0548323115517
 30
0.0
 10
307.5120052307336
 20
430.8936801870988
 30
0.0
 10
307.5281672449894
 20
430.7327905435908
 30
0.0
 10
307.5511867316175
 20
430.570940033459
 30
0.0
 10
307.5811733295783
 20
430.4083881085908
 30
0.0
 10
307.6183311026636
 20
430.2454117770195
 30
0.0
 10
307.6623121156913
 20
430.0838596259933
 30
0.0
 10
307.7126150425913
 20
429.9255278313689
 30
0.0
 10
307.7690294682655
 20
429.770627346827
 30
0.0
 10
307.8312407829125
 20
429.6193118613459
 30
0.0
 10
307.8996500676839
 20
429.4704741440489
 30
0.0
 10
307.9749062800226
 20
429.3229534436605
 30
0.0
 10
308.0571863265792
 20
429.1771086260881
 30
0.0
 10
308.1465378119286
 20
429.0332799081095
 30
0.0
 10
308.2419379228931
 20
428.8932448891389
 30
0.0
 10
308.3413981613813
 20
428.7597523893696
 30
0.0
 10
308.4444479344035
 20
428.6328069946524
 30
0.0
 10
308.5505620417162
 20
428.5122919105939
 30
0.0
 10
308.6614134861797
 20
428.3961086829519
 30
0.0
 10
308.7779246817407
 20
428.2834009503596
 30
0.0
 10
308.9001149101785
 20
428.1745328076447
 30
0.0
 10
309.0279001480085
 20
428.0698031383652
 30
0.0
 10
309.1598038849436
 20
427.9704723388511
 30
0.0
 10
309.2938270152412
 20
427.877941843563
 30
0.0
 10
309.4296114385669
 20
427.792138085411
 30
0.0
 10
309.5667811627031
 20
427.7128702003853
 30
0.0
 10
309.7068151110627
 20
427.6391524249935
 30
0.0
 10
309.8507633396424
 20
427.5704868214981
 30
0.0
 10
309.9985173829539
 20
427.5071779178044
 30
0.0
 10
310.1499076363816
 20
427.44944193419
 30
0.0
 10
310.3032697107338
 20
427.3979353703219
 30
0.0
 10
310.4631056273336
 20
427.3513292537033
 30
0.0
 10
310.6294407829197
 20
427.3104423028147
 30
0.0
 10
310.8021737950145
 20
427.2760078945374
 30
0.0
 10
310.9760933594965
 20
427.2491414690189
 30
0.0
 10
311.150683950209
 20
427.2300587270968
 30
0.0
 10
311.3254680864545
 20
427.21807604704
 30
0.0
 10
311.4418599784007
 20
427.2165868076348
 30
0.0
 10
311.4999987062972
 20
427.21584292004
 30
0.0
  0
LINE
  5
86
330
1F
100
AcDbEntity
  8
0
  6
Continuous
 62
     7
370
    30
100
AcDbLine
 10
311.7471670447
 20
427.21584292
 30
0.0
 11
321.4999987063
 21
427.21584292
 31
0.0
  0
LINE
  5
87
330
1F
100
AcDbEntity
  8
0
  6
Continuous
 62
     7
370
    30
100
AcDbLine
 10
311.7471670447
 20
427.21584292
 30
0.0
 11
311.4999987063
 21
427.21584292
 31
0.0
  0
SPLINE
  5
88
330
1F
100
AcDbEntity
  8
0
  6
Continuous
 62
     7
370
    30
100
AcDbSpline
210
0.0
220
0.0
230
1.0
 70
     8
 71
     3
 72
    14
 73
    10
 74
     0
 42
0.000000001
 43
0.00000001
 40
0.0
 40
0.0
 40
0.0
 40
0.0
 40
0.25
 40
0.25
 40
0.5
 40
0.5
 40
0.75
 40
0.75
 40
1.0
 40
1.0
 40
1.0
 40
1.0
 10
241.5088785552036
 20
508.9072675385709
 30
0.0
 10
241.5088984828703
 20
509.1690285820292
 30
0.0
 10
241.5610234065817
 20
509.43063066979
 30
0.0
 10
241.7616310508398
 20
509.914051229551
 30
0.0
 10
241.9099734267624
 20
510.1357293558947
 30
0.0
 10
242.2801347266009
 20
510.5058854831968
 30
0.0
 10
242.5018133058927
 20
510.6542231384987
 30
0.0
 10
242.9852277380101
 20
510.8548220698431
 30
0.0
 10
243.2468232461869
 20
510.9069430001745
 30
0.0
 10
243.5085739105033
 20
510.9069629267709
 30
0.0
  0
CIRCLE
  5
89
330
1F
100
AcDbEntity
  8
0
  6
Continuous
 62
   252
370
     0
100
AcDbCircle
 10
316.4999987063
 20
435.91584292
 30
0.0
 40
23.02074788100003
  0
CIRCLE
  5
8A
330
1F
100
AcDbEntity
  8
0
  6
Continuous
 62
   252
370
     0
100
AcDbCircle
 10
316.4999987063
 20
435.9158427778
 30
0.0
 40
23.80196710470005
  0
SPLINE
  5
8B
330
1F
100
AcDbEntity
  8
0
  6
Continuous
 62
   252
370
     0
100
AcDbSpline
210
0.0
220
0.0
230
1.0
 70
     8
 71
     3
 72
    14
 73
    10
 74
     0
 42
0.000000001
 43
0.00000001
 40
0.0
 40
0.0
 40
0.0
 40
0.0
 40
0.25
 40
0.25
 40
0.5
 40
0.5
 40
0.75
 40
0.75
 40
1.0
 40
1.0
 40
1.0
 40
1.0
 10
389.3151085825037
 20
362.6006850752708
 30
0.0
 10
389.3981842328619
 20
362.6006676163178
 30
0.0
 10
389.462712981235
 20
362.6187654632087
 30
0.0
 10
389.577974744386
 20
362.6706060038071
 30
0.0
 10
389.6268558844661
 20
362.7052190691799
 30
0.0
 10
389.7104783880768
 20
362.7888035377617
 30
0.0
 10
389.7451542761947
 20
362.8377690520349
 30
0.0
 10
389.7969340943375
 20
362.9527318241283
 30
0.0
 10
389.8151728736623
 20
363.0178429907693
 30
0.0
 10
389.8151562351036
 20
363.1007311778708
 30
0.0
  0
LWPOLYLINE
  5
8C
330
1F
100
AcDbEntity
  8
0
  6
Continuous
 62
   252
370
     0
100
AcDbPolyline
 90
       36
 70
   128
 43
0.0
 10
243.6848871088
 20
362.6006850747
 10
247.8455656438
 20
362.6015344834
 10
252.0062766819
 20
362.602333929
 10
256.1670182534
 20
362.6030834111
 10
260.3277883884
 20
362.6037829293
 10
264.4885851171
 20
362.6044324833
 10
268.6494064696
 20
362.6050320728
 10
272.8102504761
 20
362.6055816976
 10
276.9711151666
 20
362.6060813573
 10
281.1319985714
 20
362.6065310517
 10
285.2928987204
 20
362.6069307806
 10
289.4538136439
 20
362.6072805439
 10
293.6147413719
 20
362.6075803413
 10
297.7756799344
 20
362.6078301727
 10
301.9366273617
 20
362.608030038
 10
306.0975816837
 20
362.6081799371
 10
310.2585409305
 20
362.6082798699
 10
314.4195031322
 20
362.6083298364
 10
318.5804663189
 20
362.6083298366
 10
322.7414285207
 20
362.6082798704
 10
326.9023877675
 20
362.6081799379
 10
331.0633420896
 20
362.6080300392
 10
335.2242895169
 20
362.6078301742
 10
339.3852280795
 20
362.6075803431
 10
343.5461558076
 20
362.6072805461
 10
347.7070707311
 20
362.6069307831
 10
351.8679708803
 20
362.6065310545
 10
356.0288542852
 20
362.6060813605
 10
360.1897189758
 20
362.6055817011
 10
364.3505629825
 20
362.6050320767
 10
368.5113843351
 20
362.6044324875
 10
372.672181064
 20
362.6037829338
 10
376.8329511991
 20
362.6030834159
 10
380.9936927708
 20
362.6023339342
 10
385.1544038092
 20
362.601534489
 10
389.3150823444
 20
362.6006850806
  0
SPLINE
  5
8D
330
1F
100
AcDbEntity
  8
0
  6
Continuous
 62
   252
370
     0
100
AcDbSpline
210
0.0
220
0.0
230
1.0
 70
     8
 71
     3
 72
    14
 73
    10
 74
     0
 42
0.000000001
 43
0.00000001
 40
0.0
 40
0.0
 40
0.0
 40
0.0
 40
0.25
 40
0.25
 40
0.5
 40
0.5
 40
0.75
 40
0.75
 40
1.0
 40
1.0
 40
1.0
 40
1.0
 10
243.1848410038037
 20
363.1007329015708
 30
0.0
 10
243.1848235448506
 20
363.0176572513021
 30
0.0
 10
243.2029213918059
 20
362.9531285027717
 30
0.0
 10
243.2547619323444
 20
362.8378667396469
 30
0.0
 10
243.2893749976898
 20
362.78898559956
 30
0.0
 10
243.3729594663258
 20
362.7053630959541
 30
0.0
 10
243.421924980627
 20
362.6706872078847
 30
0.0
 10
243.5368877526279
 20
362.6189073897278
 30
0.0
 10
243.601998919071
 20
362.6006686104121
 30
0.0
 10
243.6848871064037
 20
362.6006852489708
 30
0.0
  0
SPLINE
  5
8E
330
1F
100
AcDbEntity
  8
0
  6
Continuous
 62
   252
370
     0
100
AcDbSpline
210
0.0
220
0.0
230
1.0
 70
     8
 71
     3
 72
    12
 73
     8
 74
     0
 42
0.000000001
 43
0.00000001
 40
0.0
 40
0.0
 40
0.0
 40
0.0
 40
0.2203610343919604
 40
0.4471957420769151
 40
0.706739862228267
 40
0.8515617915122241
 40
1.0
 40
1.0
 40
1.0
 40
1.0
 10
243.1901774537305
 20
395.8665049106317
 30
0.0
 10
243.1898672243616
 20
393.4596893123232
 30
0.0
 10
243.1892376518365
 20
388.5753517047343
 30
0.0
 10
243.1881557452555
 20
380.8563241298542
 30
0.0
 10
243.1869982909824
 20
373.962415531859
 30
0.0
 10
243.1857811587107
 20
367.9248119311109
 30
0.0
 10
243.1851569235569
 20
364.7219273143681
 30
0.0
 10
243.184840957164
 20
363.1007371379097
 30
0.0
  0
LWPOLYLINE
  5
8F
330
1F
100
AcDbEntity
  8
0
  6
Continuous
 62
   252
370
     0
100
AcDbPolyline
 90
       28
 70
   128
 43
0.0
 10
243.1848410031
 20
508.7309543753
 10
243.1856942308
 20
504.5509995744
 10
243.1864970313
 20
500.3710119778
 10
243.1872494043
 20
496.1909935827
 10
243.1879513494
 20
492.0109463864
 10
243.1886028663
 20
487.8308723863
 10
243.1892039546
 20
483.6507735797
 10
243.1897546141
 20
479.4706519641
 10
243.1902548445
 20
475.2905095367
 10
243.1907046456
 20
471.110348295
 10
243.1911040171
 20
466.9301702364
 10
243.1914529589
 20
462.7499773583
 10
243.1917514708
 20
458.5697716581
 10
243.1919995526
 20
454.3895551332
 10
243.1921972043
 20
450.209329781
 10
243.1923444257
 20
446.029097599
 10
243.1924412168
 20
441.8488605846
 10
243.1924875775
 20
437.6686207353
 10
243.1924835078
 20
433.4883800484
 10
243.1924290077
 20
429.3081405214
 10
243.1923240773
 20
425.1279041518
 10
243.1921687165
 20
420.947672937
 10
243.1919629254
 20
416.7674488743
 10
243.1917067043
 20
412.5872339613
 10
243.191400053
 20
408.4070301954
 10
243.191042972
 20
404.226839574
 10
243.1906354612
 20
400.0466640944
 10
243.1901775208
 20
395.8665057542
  0
SPLINE
  5
90
330
1F
100
AcDbEntity
  8
0
  6
Continuous
 62
   252
370
     0
100
AcDbSpline
210
0.0
220
0.0
230
1.0
 70
     8
 71
     3
 72
    14
 73
    10
 74
     0
 42
0.000000001
 43
0.00000001
 40
0.0
 40
0.0
 40
0.0
 40
0.0
 40
0.25
 40
0.25
 40
0.5
 40
0.5
 40
0.75
 40
0.75
 40
1.0
 40
1.0
 40
1.0
 40
1.0
 10
243.6848888301036
 20
509.2310004802708
 30
0.0
 10
243.6018131798092
 20
509.2310179392239
 30
0.0
 10
243.5372844313356
 20
509.2129200923039
 30
0.0
 10
243.4220226681377
 20
509.1610795517618
 30
0.0
 10
243.3731415281325
 20
509.1264664863685
 30
0.0
 10
243.2895190245767
 20
509.0428820177963
 30
0.0
 10
243.2548431364655
 20
508.9939165035099
 30
0.0
 10
243.2030633182727
 20
508.8789537314759
 30
0.0
 10
243.184824538945
 20
508.8138425649308
 30
0.0
 10
243.1848411775037
 20
508.7309543776708
 30
0.0
  0
SPLINE
  5
91
330
1F
100
AcDbEntity
  8
0
  6
Continuous
 62
   252
370
     0
100
AcDbSpline
210
0.0
220
0.0
230
1.0
 70
     8
 71
     3
 72
    23
 73
    19
 74
     0
 42
0.000000001
 43
0.00000001
 40
0.0
 40
0.0
 40
0.0
 40
0.0
 40
0.0454178038784158
 40
0.0893641544926446
 40
0.1654766715424839
 40
0.2924909682286607
 40
0.3480064426897714
 40
0.4003365567951266
 40
0.4506486193484483
 40
0.4999948591957189
 40
0.5493618564748859
 40
0.5996998232468514
 40
0.6520094699618997
 40
0.7075111533011934
 40
0.8345179144263114
 40
0.9106286987474804
 40
0.9545782065280793
 40
1.0
 40
1.0
 40
1.0
 40
1.0
 10
389.3151085824587
 20
509.2310004802258
 30
0.0
 10
387.1104724373222
 20
509.2306126421061
 30
0.0
 10
382.7726263010037
 20
509.2298495311083
 30
0.0
 10
374.7400626647268
 20
509.2281188969052
 30
0.0
 10
362.7464834602486
 20
509.2263790484357
 30
0.0
 10
350.1910496330776
 20
509.2248915650277
 30
0.0
 10
338.7899836329917
 20
509.2240377956156
 30
0.0
 10
331.1123225457857
 20
509.2236304460386
 30
0.0
 10
323.73412136095
 20
509.2233999838651
 30
0.0
 10
316.4997528324812
 20
509.223324735147
 30
0.0
 10
309.2641267933852
 20
509.223399708752
 30
0.0
 10
301.8846540266648
 20
509.2236305805513
 30
0.0
 10
294.2073985098351
 20
509.2240382069651
 30
0.0
 10
282.8083613779664
 20
509.2248914818004
 30
0.0
 10
270.2540469368319
 20
509.2263784112586
 30
0.0
 10
258.2607643668437
 20
509.2281206464113
 30
0.0
 10
250.2279379083176
 20
509.2298445843656
 30
0.0
 10
245.8897448589351
 20
509.2306113009221
 30
0.0
 10
243.6849150537428
 20
509.2310009745711
 30
0.0
  0
SPLINE
  5
92
330
1F
100
AcDbEntity
  8
0
  6
Continuous
 62
   252
370
     0
100
AcDbSpline
210
0.0
220
0.0
230
1.0
 70
     8
 71
     3
 72
    14
 73
    10
 74
     0
 42
0.000000001
 43
0.00000001
 40
0.0
 40
0.0
 40
0.0
 40
0.0
 40
0.25
 40
0.25
 40
0.5
 40
0.5
 40
0.75
 40
0.75
 40
1.0
 40
1.0
 40
1.0
 40
1.0
 10
389.8151564088037
 20
508.7309526539709
 30
0.0
 10
389.8151738677576
 20
508.8140283042929
 30
0.0
 10
389.7970760208355
 20
508.8785570528131
 30
0.0
 10
389.7452354802151
 20
508.9938188159196
 30
0.0
 10
389.7106224148779
 20
509.0426999559924
 30
0.0
 10
389.6270379463096
 20
509.1263224595423
 30
0.0
 10
389.5780724320437
 20
509.1609983476214
 30
0.0
 10
389.4631096599803
 20
509.2127781658351
 30
0.0
 10
389.3979984933993
 20
509.2310169451277
 30
0.0
 10
389.3151103062037
 20
509.2310003065709
 30
0.0
  0
SPLINE
  5
93
330
1F
100
AcDbEntity
  8
0
  6
Continuous
 62
   252
370
     0
100
AcDbSpline
210
0.0
220
0.0
230
1.0
 70
     8
 71
     3
 72
    12
 73
     8
 74
     0
 42
0.000000001
 43
0.00000001
 40
0.0
 40
0.0
 40
0.0
 40
0.0
 40
0.2202822495592941
 40
0.4470332726086834
 40
0.7065844475155301
 40
0.8514821770727459
 40
1.0
 40
1.0
 40
1.0
 40
1.0
 10
389.809819891472
 20
475.9651806212315
 30
0.0
 10
389.8101300981461
 20
478.3711360345541
 30
0.0
 10
389.810759620974
 20
483.2536997650406
 30
0.0
 10
389.8118416081518
 20
490.9710309425312
 30
0.0
 10
389.8129979577567
 20
497.8649314331848
 30
0.0
 10
389.8142156073433
 20
503.9043103177943
 30
0.0
 10
389.8148402446193
 20
507.108892740961
 30
0.0
 10
389.8151564165725
 20
508.730952651725
 30
0.0
  0
LWPOLYLINE
  5
94
330
1F
100
AcDbEntity
  8
0
  6
Continuous
 62
   252
370
     0
100
AcDbPolyline
 90
       28
 70
   128
 43
0.0
 10
389.8151564095
 20
363.1007311802
 10
389.8143031818
 20
367.2806860115
 10
389.8135003813
 20
371.4606736385
 10
389.8127480083
 20
375.640692064
 10
389.8120460632
 20
379.8207392906
 10
389.8113945463
 20
384.0008133211
 10
389.810793458
 20
388.180912158
 10
389.8102427985
 20
392.3610338041
 10
389.809742568
 20
396.5411762618
 10
389.809292767
 20
400.7213375338
 10
389.8088933954
 20
404.9015156228
 10
389.8085444537
 20
409.0817085313
 10
389.8082459418
 20
413.2619142619
 10
389.8079978599
 20
417.4421308172
 10
389.8078002083
 20
421.6223561997
 10
389.8076529869
 20
425.802588412
 10
389.8075561958
 20
429.9828254568
 10
389.8075098351
 20
434.1630653365
 10
389.8075139048
 20
438.3433060538
 10
389.8075684049
 20
442.5235456111
 10
389.8076733354
 20
446.7037820111
 10
389.8078286962
 20
450.8840132563
 10
389.8080344872
 20
455.0642373493
 10
389.8082907084
 20
459.2444522926
 10
389.8085973596
 20
463.4246560889
 10
389.8089544407
 20
467.6048467407
 10
389.8093619515
 20
471.7850222507
 10
389.8098198919
 20
475.9651806213
  0
SPLINE
  5
95
330
1F
100
AcDbEntity
  8
0
  6
Continuous
 62
   252
370
     0
100
AcDbSpline
210
0.0
220
0.0
230
1.0
 70
     8
 71
     3
 72
    11
 73
     7
 74
     0
 42
0.000000001
 43
0.00000001
 40
0.0
 40
0.0
 40
0.0
 40
0.0
 40
0.25
 40
0.5
 40
0.75
 40
1.0
 40
1.0
 40
1.0
 40
1.0
 10
243.6848888272417
 20
509.2310004802715
 30
0.0
 10
243.6849516724429
 20
509.4230728804843
 30
0.0
 10
243.6860027278902
 20
509.8083197069491
 30
0.0
 10
243.6900463998582
 20
510.2971157708611
 30
0.0
 10
243.6959792357242
 20
510.6270684348294
 30
0.0
 10
243.7006293399263
 20
510.7097024812365
 30
0.0
 10
243.702942151763
 20
510.7125947112688
 30
0.0
  0
SPLINE
  5
96
330
1F
100
AcDbEntity
  8
0
  6
Continuous
 62
   252
370
     0
100
AcDbSpline
210
0.0
220
0.0
230
1.0
 70
     8
 71
     3
 72
     8
 73
     4
 74
     0
 42
0.000000001
 43
0.00000001
 40
0.0
 40
0.0
 40
0.0
 40
0.0
 40
1.0
 40
1.0
 40
1.0
 40
1.0
 10
389.2970552494037
 20
510.7125947112709
 30
0.0
 10
340.7680297376037
 20
510.7023960206708
 30
0.0
 10
292.2319676750037
 20
510.7023960206708
 30
0.0
 10
243.7029421632037
 20
510.7125947112709
 30
0.0
  0
SPLINE
  5
97
330
1F
100
AcDbEntity
  8
0
  6
Continuous
 62
   252
370
     0
100
AcDbSpline
210
0.0
220
0.0
230
1.0
 70
     8
 71
     3
 72
    11
 73
     7
 74
     0
 42
0.000000001
 43
0.00000001
 40
0.0
 40
0.0
 40
0.0
 40
0.0
 40
0.25
 40
0.5
 40
0.75
 40
1.0
 40
1.0
 40
1.0
 40
1.0
 10
389.3151085825037
 20
509.2310004802708
 30
0.0
 10
389.3150457362037
 20
509.4230728805042
 30
0.0
 10
389.3139946785472
 20
509.8083197070109
 30
0.0
 10
389.3099510037601
 20
510.297115770957
 30
0.0
 10
389.3040181659721
 20
510.6270684349109
 30
0.0
 10
389.2993680612703
 20
510.7097024812708
 30
0.0
 10
389.2970552494037
 20
510.7125947112709
 30
0.0
  0
SPLINE
  5
98
330
1F
100
AcDbEntity
  8
0
  6
Continuous
 62
   252
370
     0
100
AcDbSpline
210
0.0
220
0.0
230
1.0
 70
     8
 71
     3
 72
    11
 73
     7
 74
     0
 42
0.000000001
 43
0.00000001
 40
0.0
 40
0.0
 40
0.0
 40
0.0
 40
0.25
 40
0.5
 40
0.75
 40
1.0
 40
1.0
 40
1.0
 40
1.0
 10
389.8098198915037
 20
475.9651806212784
 30
0.0
 10
390.001892296337
 20
475.9651460549117
 30
0.0
 10
390.3871391998667
 20
475.9645679583703
 30
0.0
 10
390.8759355601659
 20
475.9623438801917
 30
0.0
 10
391.2058886589167
 20
475.9590807356952
 30
0.0
 10
391.288523046037
 20
475.9565231125116
 30
0.0
 10
391.2914154455037
 20
475.9552510333783
 30
0.0
  0
LWPOLYLINE
  5
99
330
1F
100
AcDbEntity
  8
0
  6
Continuous
 62
   252
370
     0
100
AcDbPolyline
 90
       28
 70
   128
 43
0.0
 10
391.2967506391
 20
363.1187862332
 10
391.295897623
 20
367.2977046483
 10
391.2950950215
 20
371.4766558511
 10
391.2943428351
 20
375.6556378447
 10
391.293641064
 20
379.8346486324
 10
391.2929897087
 20
384.0136862172
 10
391.2923887694
 20
388.1927486023
 10
391.2918382465
 20
392.3718337908
 10
391.2913381401
 20
396.5509397859
 10
391.2908884506
 20
400.7300645907
 10
391.2904891781
 20
404.9092062082
 10
391.2901403229
 20
409.0883626415
 10
391.289841885
 20
413.2675318938
 10
391.2895938647
 20
417.446711968
 10
391.289396262
 20
421.6259008673
 10
391.2892490771
 20
425.8050965948
 10
391.2891523101
 20
429.9842971535
 10
391.2891059609
 20
434.1635005464
 10
391.2891100296
 20
438.3427047766
 10
391.2891645162
 20
442.5219078472
 10
391.2892694206
 20
446.7011077613
 10
391.2894247429
 20
450.8803025218
 10
391.2896304829
 20
455.0594901319
 10
391.2898866406
 20
459.2386685947
 10
391.2901932158
 20
463.4178359131
 10
391.2905502084
 20
467.5969900903
 10
391.2909576181
 20
471.7761291294
 10
391.2914154449
 20
475.9552510334
  0
SPLINE
  5
9A
330
1F
100
AcDbEntity
  8
0
  6
Continuous
 62
   252
370
     0
100
AcDbSpline
210
0.0
220
0.0
230
1.0
 70
     8
 71
     3
 72
    14
 73
    10
 74
     0
 42
0.000000001
 43
0.00000001
 40
0.0
 40
0.0
 40
0.0
 40
0.0
 40
0.25
 40
0.25
 40
0.5
 40
0.5
 40
0.75
 40
0.75
 40
1.0
 40
1.0
 40
1.0
 40
1.0
 10
389.8151562351924
 20
363.1007311777828
 30
0.0
 10
390.0077953114004
 20
363.1007993308789
 30
0.0
 10
390.1999088730345
 20
363.1013196066184
 30
0.0
 10
390.5551848231362
 20
363.103188782498
 30
0.0
 10
390.7182176226297
 20
363.104537000531
 30
0.0
 10
390.9913960485922
 20
363.107864836025
 30
0.0
 10
391.1014420316376
 20
363.1098432393241
 30
0.0
 10
391.252465851044
 20
363.1141416361213
 30
0.0
 10
391.2933886005862
 20
363.1164600614397
 30
0.0
 10
391.2967506386774
 20
363.1187793329709
 30
0.0
  0
SPLINE
  5
9B
330
1F
100
AcDbEntity
  8
0
  6
Continuous
 62
   252
370
     0
100
AcDbSpline
210
0.0
220
0.0
230
1.0
 70
     8
 71
     3
 72
    11
 73
     7
 74
     0
 42
0.000000001
 43
0.00000001
 40
0.0
 40
0.0
 40
0.0
 40
0.0
 40
0.25
 40
0.5
 40
0.75
 40
1.0
 40
1.0
 40
1.0
 40
1.0
 10
243.1901774851037
 20
395.8665049279261
 30
0.0
 10
242.9981050795037
 20
395.8665394943594
 30
0.0
 10
242.6128581739248
 20
395.8671175922677
 30
0.0
 10
242.12406181034
 20
395.8693416757427
 30
0.0
 10
241.7941087090998
 20
395.8726048280176
 30
0.0
 10
241.7114743213037
 20
395.875162457326
 30
0.0
 10
241.7085819218037
 20
395.876434539526
 30
0.0
  0
SPLINE
  5
9C
330
1F
100
AcDbEntity
  8
0
  6
Continuous
 62
   252
370
     0
100
AcDbSpline
210
0.0
220
0.0
230
1.0
 70
     8
 71
     3
 72
     8
 73
     4
 74
     0
 42
0.000000001
 43
0.00000001
 40
0.0
 40
0.0
 40
0.0
 40
0.0
 40
1.0
 40
1.0
 40
1.0
 40
1.0
 10
241.7032467728037
 20
508.7128993208708
 30
0.0
 10
241.7111507834037
 20
471.1027838309708
 30
0.0
 10
241.7129292843037
 20
433.4884419798408
 30
0.0
 10
241.7085819659037
 20
395.8764246533708
 30
0.0
  0
SPLINE
  5
9D
330
1F
100
AcDbEntity
  8
0
  6
Continuous
 62
   252
370
     0
100
AcDbSpline
210
0.0
220
0.0
230
1.0
 70
     8
 71
     3
 72
    14
 73
    10
 74
     0
 42
0.000000001
 43
0.00000001
 40
0.0
 40
0.0
 40
0.0
 40
0.0
 40
0.25
 40
0.25
 40
0.5
 40
0.5
 40
0.75
 40
0.75
 40
1.0
 40
1.0
 40
1.0
 40
1.0
 10
243.1848411775361
 20
508.7309543776385
 30
0.0
 10
242.992202102151
 20
508.7308862245429
 30
0.0
 10
242.8000885413313
 20
508.7303659488078
 30
0.0
 10
242.4448125924901
 20
508.7284967729435
 30
0.0
 10
242.28177979344
 20
508.7271485549214
 30
0.0
 10
242.008601367728
 20
508.7238207194525
 30
0.0
 10
241.898555384488
 20
508.7218423161677
 30
0.0
 10
241.7475315639476
 20
508.7175439193975
 30
0.0
 10
241.7066088134653
 20
508.7152254940921
 30
0.0
 10
241.7032467741044
 20
508.7129062225708
 30
0.0
  0
SPLINE
  5
9E
330
1F
100
AcDbEntity
  8
0
  6
Continuous
 62
   252
370
     0
100
AcDbSpline
210
0.0
220
0.0
230
1.0
 70
     8
 71
     3
 72
    11
 73
     7
 74
     0
 42
0.000000001
 43
0.00000001
 40
0.0
 40
0.0
 40
0.0
 40
0.0
 40
0.25
 40
0.5
 40
0.75
 40
1.0
 40
1.0
 40
1.0
 40
1.0
 10
389.3151085851116
 20
362.6006850752703
 30
0.0
 10
389.3150457398128
 20
362.4086126750556
 30
0.0
 10
389.3139946841694
 20
362.0233658485871
 30
0.0
 10
389.3099510119512
 20
361.534569784672
 30
0.0
 10
389.3040181759145
 20
361.2046171207049
 30
0.0
 10
389.299368071668
 20
361.1219830743021
 30
0.0
 10
389.2970552598287
 20
361.1190908442726
 30
0.0
  0
SPLINE
  5
9F
330
1F
100
AcDbEntity
  8
0
  6
Continuous
 62
   252
370
     0
100
AcDbSpline
210
0.0
220
0.0
230
1.0
 70
     8
 71
     3
 72
     8
 73
     4
 74
     0
 42
0.000000001
 43
0.00000001
 40
0.0
 40
0.0
 40
0.0
 40
0.0
 40
1.0
 40
1.0
 40
1.0
 40
1.0
 10
243.7029421632037
 20
361.1190908442708
 30
0.0
 10
292.2319676750037
 20
361.1292895348708
 30
0.0
 10
340.7680297376037
 20
361.1292895348708
 30
0.0
 10
389.2970552494037
 20
361.1190908442708
 30
0.0
  0
SPLINE
  5
A0
330
1F
100
AcDbEntity
  8
0
  6
Continuous
 62
   252
370
     0
100
AcDbSpline
210
0.0
220
0.0
230
1.0
 70
     8
 71
     3
 72
    14
 73
    10
 74
     0
 42
0.000000001
 43
0.00000001
 40
0.0
 40
0.0
 40
0.0
 40
0.0
 40
0.25
 40
0.25
 40
0.5
 40
0.5
 40
0.75
 40
0.75
 40
1.0
 40
1.0
 40
1.0
 40
1.0
 10
243.684887106436
 20
362.6006852490032
 30
0.0
 10
243.6849552595316
 20
362.4080461736182
 30
0.0
 10
243.6854755352667
 20
362.2159326127985
 30
0.0
 10
243.687344711131
 20
361.8606566639573
 30
0.0
 10
243.6886929291531
 20
361.6976238649071
 30
0.0
 10
243.6920207646219
 20
361.4244454391952
 30
0.0
 10
243.6939991679068
 20
361.3143994559553
 30
0.0
 10
243.698297564677
 20
361.1633756354148
 30
0.0
 10
243.7006159899825
 20
361.1224528849324
 30
0.0
 10
243.7029352615037
 20
361.1190908455716
 30
0.0
  0
SPLINE
  5
A1
330
1F
100
AcDbEntity
  8
0
  6
Continuous
 62
   252
370
     0
100
AcDbSpline
210
0.0
220
0.0
230
1.0
 70
     8
 71
     3
 72
    11
 73
     7
 74
     0
 42
0.000000001
 43
0.00000001
 40
0.0
 40
0.0
 40
0.0
 40
0.0
 40
0.25
 40
0.5
 40
0.75
 40
1.0
 40
1.0
 40
1.0
 40
1.0
 10
389.8151564088043
 20
508.7309526568179
 30
0.0
 10
390.0072288090172
 20
508.730889811611
 30
0.0
 10
390.3924756354822
 20
508.7298387561522
 30
0.0
 10
390.8812716993945
 20
508.7257950841695
 30
0.0
 10
391.2112243633627
 20
508.7198622482933
 30
0.0
 10
391.2938584097695
 20
508.7152121440888
 30
0.0
 10
391.2967506398016
 20
508.7128993322521
 30
0.0
  0
SPLINE
  5
A2
330
1F
100
AcDbEntity
  8
0
  6
Continuous
 62
   252
370
     0
100
AcDbSpline
210
0.0
220
0.0
230
1.0
 70
     8
 71
     3
 72
     8
 73
     4
 74
     0
 42
0.000000001
 43
0.00000001
 40
0.0
 40
0.0
 40
0.0
 40
0.0
 40
1.0
 40
1.0
 40
1.0
 40
1.0
 10
391.2914154455037
 20
475.9552510333708
 30
0.0
 10
391.2926775523037
 20
486.8747164832708
 30
0.0
 10
391.2944559591037
 20
497.7939860095708
 30
0.0
 10
391.2967506398036
 20
508.7128993208708
 30
0.0
  0
SPLINE
  5
A3
330
1F
100
AcDbEntity
  8
0
  6
Continuous
 62
   252
370
     0
100
AcDbSpline
210
0.0
220
0.0
230
1.0
 70
     8
 71
     3
 72
    11
 73
     7
 74
     0
 42
0.000000001
 43
0.00000001
 40
0.0
 40
0.0
 40
0.0
 40
0.0
 40
0.25
 40
0.5
 40
0.75
 40
1.0
 40
1.0
 40
1.0
 40
1.0
 10
243.1848410038031
 20
363.1007328987254
 30
0.0
 10
242.9927686035902
 20
363.1007957439331
 30
0.0
 10
242.6075217771251
 20
363.1018467993932
 30
0.0
 10
242.1187257132129
 20
363.1058904713775
 30
0.0
 10
241.7887730492446
 20
363.1118233072547
 30
0.0
 10
241.7061390028378
 20
363.1164734114596
 30
0.0
 10
241.7032467728057
 20
363.1187862232965
 30
0.0
  0
SPLINE
  5
A4
330
1F
100
AcDbEntity
  8
0
  6
Continuous
 62
   252
370
     0
100
AcDbSpline
210
0.0
220
0.0
230
1.0
 70
     8
 71
     3
 72
     8
 73
     4
 74
     0
 42
0.000000001
 43
0.00000001
 40
0.0
 40
0.0
 40
0.0
 40
0.0
 40
1.0
 40
1.0
 40
1.0
 40
1.0
 10
241.7085819671036
 20
395.8764345221708
 30
0.0
 10
241.7073198603037
 20
384.9569690722709
 30
0.0
 10
241.7055414535037
 20
374.0376995459708
 30
0.0
 10
241.7032467728037
 20
363.1187862346709
 30
0.0
  0
SPLINE
  5
A5
330
1F
100
AcDbEntity
  8
0
  6
Continuous
 62
   252
370
     0
100
AcDbSpline
210
0.0
220
0.0
230
1.0
 70
     8
 71
     3
 72
    18
 73
    14
 74
     0
 42
0.000000001
 43
0.00000001
 40
0.0
 40
0.0
 40
0.0
 40
0.0
 40
0.125
 40
0.125
 40
0.25
 40
0.25
 40
0.5
 40
0.5
 40
0.75
 40
0.75
 40
0.875
 40
0.875
 40
1.0
 40
1.0
 40
1.0
 40
1.0
 10
243.7029421632037
 20
510.7125947112709
 30
0.0
 10
243.5368961653881
 20
510.7125655118272
 30
0.0
 10
243.3907845178517
 20
510.6928543223891
 30
0.0
 10
243.1213192711341
 20
510.6310378033785
 30
0.0
 10
242.9976622898285
 20
510.5882376990787
 30
0.0
 10
242.6520355012067
 20
510.4326856627661
 30
0.0
 10
242.45652881772
 20
510.2946129958373
 30
0.0
 10
242.1221798516444
 20
509.9599526360896
 30
0.0
 10
241.9834876545781
 20
509.7641459788358
 30
0.0
 10
241.828203662598
 20
509.4187960455936
 30
0.0
 10
241.7851640871231
 20
509.2951392008879
 30
0.0
 10
241.7227868398494
 20
509.0249218478615
 30
0.0
 10
241.7032782107048
 20
508.8785775456041
 30
0.0
 10
241.7032474901036
 20
508.7129062225708
 30
0.0
  0
SPLINE
  5
A6
330
1F
100
AcDbEntity
  8
0
  6
Continuous
 62
   252
370
     0
100
AcDbSpline
210
0.0
220
0.0
230
1.0
 70
     8
 71
     3
 72
    18
 73
    14
 74
     0
 42
0.000000001
 43
0.00000001
 40
0.0
 40
0.0
 40
0.0
 40
0.0
 40
0.1250000000000012
 40
0.1250000000000012
 40
0.2500000000000024
 40
0.2500000000000024
 40
0.4999999999999993
 40
0.4999999999999993
 40
0.7499999999999962
 40
0.7499999999999962
 40
0.8749999999999981
 40
0.8749999999999981
 40
1.0
 40
1.0
 40
1.0
 40
1.0
 10
391.2967506398036
 20
508.7128993208708
 30
0.0
 10
391.2967214403586
 20
508.8789453186505
 30
0.0
 10
391.2770102509057
 20
509.0250569661787
 30
0.0
 10
391.2151937318429
 20
509.2945222130625
 30
0.0
 10
391.1723936274773
 20
509.4181791945409
 30
0.0
 10
391.0168415912291
 20
509.7638059830646
 30
0.0
 10
390.8787689243533
 20
509.9593126664963
 30
0.0
 10
390.5441085644808
 20
510.2936616325147
 30
0.0
 10
390.3483019072964
 20
510.432353829469
 30
0.0
 10
390.0029519740528
 20
510.5876378214287
 30
0.0
 10
389.8792951293992
 20
510.6306773969248
 30
0.0
 10
389.6090777764788
 20
510.6930546442268
 30
0.0
 10
389.4627334742735
 20
510.7125632733708
 30
0.0
 10
389.2970621511037
 20
510.7125939939709
 30
0.0
  0
SPLINE
  5
A7
330
1F
100
AcDbEntity
  8
0
  6
Continuous
 62
   252
370
     0
100
AcDbSpline
210
0.0
220
0.0
230
1.0
 70
     8
 71
     3
 72
    18
 73
    14
 74
     0
 42
0.000000001
 43
0.00000001
 40
0.0
 40
0.0
 40
0.0
 40
0.0
 40
0.1250000000000016
 40
0.1250000000000016
 40
0.2500000000000031
 40
0.2500000000000031
 40
0.5000000000000062
 40
0.5000000000000062
 40
0.7500000000000093
 40
0.7500000000000093
 40
0.8750000000000047
 40
0.8750000000000047
 40
1.0
 40
1.0
 40
1.0
 40
1.0
 10
241.7032467728037
 20
363.1187862346709
 30
0.0
 10
241.7032759722473
 20
362.9527402369067
 30
0.0
 10
241.722987161694
 20
362.8066285893266
 30
0.0
 10
241.7848036807428
 20
362.5371633425549
 30
0.0
 10
241.8276037850436
 20
362.4135063612426
 30
0.0
 10
241.9831558213213
 20
362.0678795726652
 30
0.0
 10
242.1212284882657
 20
361.8723728891179
 30
0.0
 10
242.4558888482281
 20
361.5380239229321
 30
0.0
 10
242.6516955054053
 20
361.3993317259685
 30
0.0
 10
242.9970454385305
 20
361.2440477340568
 30
0.0
 10
243.1207022832166
 20
361.2010081585911
 30
0.0
 10
243.3909196362359
 20
361.1386309113208
 30
0.0
 10
243.5372639385065
 20
361.119122282172
 30
0.0
 10
243.7029352615037
 20
361.1190915615708
 30
0.0
  0
SPLINE
  5
A8
330
1F
100
AcDbEntity
  8
0
  6
Continuous
 62
   252
370
     0
100
AcDbSpline
210
0.0
220
0.0
230
1.0
 70
     8
 71
     3
 72
    18
 73
    14
 74
     0
 42
0.000000001
 43
0.00000001
 40
0.0
 40
0.0
 40
0.0
 40
0.0
 40
0.1249999999999992
 40
0.1249999999999992
 40
0.2499999999999986
 40
0.2499999999999986
 40
0.4999999999999971
 40
0.4999999999999971
 40
0.7499999999999958
 40
0.7499999999999958
 40
0.8749999999999979
 40
0.8749999999999979
 40
1.0
 40
1.0
 40
1.0
 40
1.0
 10
389.2970552494037
 20
361.1190908442708
 30
0.0
 10
389.4631012471743
 20
361.1191200437145
 30
0.0
 10
389.6092128947562
 20
361.1388312331862
 30
0.0
 10
389.8786781414491
 20
361.2006477522227
 30
0.0
 10
390.0023351227392
 20
361.2434478565032
 30
0.0
 10
390.3479619113892
 20
361.3989998927448
 30
0.0
 10
390.5434685949634
 20
361.5370725597117
 30
0.0
 10
390.8778175610249
 20
361.871732919494
 30
0.0
 10
391.0165097580334
 20
362.0675395766957
 30
0.0
 10
391.1717937499988
 20
362.4128895099631
 30
0.0
 10
391.2148333254748
 20
362.5365463546893
 30
0.0
 10
391.2772105727537
 20
362.8067637077355
 30
0.0
 10
391.2967192019025
 20
362.9531080099916
 30
0.0
 10
391.2967499225036
 20
363.1187793329708
 30
0.0
  0
LINE
  5
A9
330
1F
100
AcDbEntity
  8
0
  6
Continuous
 62
   252
370
     0
100
AcDbLine
 10
243.5085739455
 20
360.9247226267
 30
0.0
 11
243.7029421632
 21
361.1190908443
 31
0.0
  0
LINE
  5
AA
330
1F
100
AcDbEntity
  8
0
  6
Continuous
 62
   252
370
     0
100
AcDbLine
 10
389.4914234671
 20
360.9247226267
 30
0.0
 11
389.2970552494
 21
361.1190908443
 31
0.0
  0
LINE
  5
AB
330
1F
100
AcDbEntity
  8
0
  6
Continuous
 62
   252
370
     0
100
AcDbLine
 10
389.4914234672
 20
360.9247226267
 30
0.0
 11
243.5085739455
 21
360.9247226267
 31
0.0
  0
LINE
  5
AC
330
1F
100
AcDbEntity
  8
0
  6
Continuous
 62
   252
370
     0
100
AcDbLine
 10
389.4914234671
 20
510.9069629288
 30
0.0
 11
389.2970552502
 21
510.712594712
 31
0.0
  0
LINE
  5
AD
330
1F
100
AcDbEntity
  8
0
  6
Continuous
 62
   252
370
     0
100
AcDbLine
 10
243.5085739455
 20
510.9069629289
 30
0.0
 11
243.7029421632
 21
510.7125947113
 31
0.0
  0
LINE
  5
AE
330
1F
100
AcDbEntity
  8
0
  6
Continuous
 62
   252
370
     0
100
AcDbLine
 10
243.5085739454
 20
510.9069629289
 30
0.0
 11
389.4914234671
 21
510.9069629289
 31
0.0
  0
LINE
  5
AF
330
1F
100
AcDbEntity
  8
0
  6
Continuous
 62
   252
370
     0
100
AcDbLine
 10
241.5088785552
 20
508.9072675385
 30
0.0
 11
241.7032467721
 21
508.7128993217
 31
0.0
  0
LINE
  5
B0
330
1F
100
AcDbEntity
  8
0
  6
Continuous
 62
   252
370
     0
100
AcDbLine
 10
241.5088785551
 20
362.9244180169
 30
0.0
 11
241.7032467729
 21
363.1187862346
 31
0.0
  0
LINE
  5
B1
330
1F
100
AcDbEntity
  8
0
  6
Continuous
 62
   252
370
     0
100
AcDbLine
 10
241.5088785552
 20
362.9244180169
 30
0.0
 11
241.5088785552
 21
508.9072675386
 31
0.0
  0
LINE
  5
B2
330
1F
100
AcDbEntity
  8
0
  6
Continuous
 62
   252
370
     0
100
AcDbLine
 10
391.4911188574
 20
362.924418017
 30
0.0
 11
391.2967506405
 21
363.1187862338
 31
0.0
  0
LINE
  5
B3
330
1F
100
AcDbEntity
  8
0
  6
Continuous
 62
   252
370
     0
100
AcDbLine
 10
391.4911188574
 20
508.9072675386
 30
0.0
 11
391.2967506398
 21
508.7128993209
 31
0.0
  0
LINE
  5
B4
330
1F
100
AcDbEntity
  8
0
  6
Continuous
 62
   252
370
     0
100
AcDbLine
 10
391.4911188574
 20
508.9072675387
 30
0.0
 11
391.4911188574
 21
362.924418017
 31
0.0
  0
SPLINE
  5
B5
330
1F
100
AcDbEntity
  8
0
  6
Continuous
 62
   252
370
     0
100
AcDbSpline
210
0.0
220
0.0
230
1.0
 70
     8
 71
     3
 72
    14
 73
    10
 74
     0
 42
0.000000001
 43
0.00000001
 40
0.0
 40
0.0
 40
0.0
 40
0.0
 40
0.25
 40
0.25
 40
0.5
 40
0.5
 40
0.75
 40
0.75
 40
1.0
 40
1.0
 40
1.0
 40
1.0
 10
389.4914234671036
 20
510.9069629288708
 30
0.0
 10
389.7531845105619
 20
510.9069430012041
 30
0.0
 10
390.0147865983229
 20
510.8548180774928
 30
0.0
 10
390.4982071580839
 20
510.6542104332347
 30
0.0
 10
390.7198852844275
 20
510.505868057312
 30
0.0
 10
391.0900414117296
 20
510.1357067574735
 30
0.0
 10
391.2383790670315
 20
509.9140281781818
 30
0.0
 10
391.4389779983759
 20
509.4306137460644
 30
0.0
 10
391.4910989287073
 20
509.1690182378872
 30
0.0
 10
391.4911188553036
 20
508.9072675735712
 30
0.0
  0
SPLINE
  5
B6
330
1F
100
AcDbEntity
  8
0
  6
Continuous
 62
   252
370
     0
100
AcDbSpline
210
0.0
220
0.0
230
1.0
 70
     8
 71
     3
 72
    14
 73
    10
 74
     0
 42
0.000000001
 43
0.00000001
 40
0.0
 40
0.0
 40
0.0
 40
0.0
 40
0.25
 40
0.25
 40
0.5
 40
0.5
 40
0.75
 40
0.75
 40
1.0
 40
1.0
 40
1.0
 40
1.0
 10
243.5085739455037
 20
360.9247226266709
 30
0.0
 10
243.2468129020453
 20
360.9247425543375
 30
0.0
 10
242.9852108142843
 20
360.9768674780489
 30
0.0
 10
242.5017902545233
 20
361.177475122307
 30
0.0
 10
242.2801121281797
 20
361.3258174982297
 30
0.0
 10
241.9099560008776
 20
361.6959787980683
 30
0.0
 10
241.7616183455756
 20
361.9176573773601
 30
0.0
 10
241.5610194142313
 20
362.4010718094775
 30
0.0
 10
241.5088984838453
 20
362.6626673176792
 30
0.0
 10
241.5088785573037
 20
362.9244179819709
 30
0.0
  0
SPLINE
  5
B7
330
1F
100
AcDbEntity
  8
0
  6
Continuous
 62
   252
370
     0
100
AcDbSpline
210
0.0
220
0.0
230
1.0
 70
     8
 71
     3
 72
    14
 73
    10
 74
     0
 42
0.000000001
 43
0.00000001
 40
0.0
 40
0.0
 40
0.0
 40
0.0
 40
0.25
 40
0.25
 40
0.5
 40
0.5
 40
0.75
 40
0.75
 40
1.0
 40
1.0
 40
1.0
 40
1.0
 10
391.4911188574036
 20
362.9244180169708
 30
0.0
 10
391.491098929737
 20
362.6626569735125
 30
0.0
 10
391.4389740060256
 20
362.4010548857516
 30
0.0
 10
391.2383663617675
 20
361.9176343259906
 30
0.0
 10
391.0900239858449
 20
361.695956199647
 30
0.0
 10
390.7198626860064
 20
361.3258000723449
 30
0.0
 10
390.4981841067147
 20
361.177462417043
 30
0.0
 10
390.0147696745972
 20
360.9768634856985
 30
0.0
 10
389.7531741664211
 20
360.9247425553672
 30
0.0
 10
389.4914235021041
 20
360.9247226287708
 30
0.0
  0
ARC
  5
B8
330
1F
100
AcDbEntity
  8
0
  6
Continuous
 62
     7
370
    30
100
AcDbCircle
 10
591.5483626822
 20
412.9890572753
 30
0.0
 40
0.1000000000000132
100
AcDbArc
 50
227.0663979575
 51
290.0117664589
  0
ARC
  5
B9
330
1F
100
AcDbEntity
  8
0
  6
Continuous
 62
     7
370
    30
100
AcDbCircle
 10
591.5483626822
 20
458.8426285647
 30
0.0
 40
0.1000000000000906
100
AcDbArc
 50
69.9882335411
 51
132.9336020425
  0
ARC
  5
BA
330
1F
100
AcDbEntity
  8
0
  6
Continuous
 62
     7
370
    30
100
AcDbCircle
 10
583.1983626822
 20
435.91584292
 30
0.0
 40
24.5000000000045
100
AcDbArc
 50
54.7187381727
 51
69.9882335335
  0
ARC
  5
BB
330
1F
100
AcDbEntity
  8
0
  6
Continuous
 62
     7
370
    30
100
AcDbCircle
 10
583.1983626822
 20
435.91584292
 30
0.0
 40
24.50000000000456
100
AcDbArc
 50
290.0117664665
 51
339.2003015463
  0
LINE
  5
BC
330
1F
100
AcDbEntity
  8
0
  6
Continuous
 62
     7
370
    30
100
AcDbLine
 10
546.5516917271
 20
412.91584292
 30
0.0
 11
591.4802476458
 21
412.91584292
 31
0.0
  0
LINE
  5
BD
330
1F
100
AcDbEntity
  8
0
  6
Continuous
 62
     7
370
    30
100
AcDbLine
 10
591.4802476458
 20
458.91584292
 30
0.0
 11
546.5516917288
 21
458.91584292
 31
0.0
  0
ARC
  5
BE
330
1F
100
AcDbEntity
  8
0
  6
Continuous
 62
     7
370
    30
100
AcDbCircle
 10
-5503.4014871278
 20
435.9158427778
 30
0.0
 40
6050.000000001149
100
AcDbArc
 50
359.3057333014
 51
359.7745858194
  0
ARC
  5
BF
330
1F
100
AcDbEntity
  8
0
  6
Continuous
 62
     7
370
    30
100
AcDbCircle
 10
-5503.4014871278
 20
435.9158427778
 30
0.0
 40
6050.000000000001
100
AcDbArc
 50
0.2254141786
 51
0.6942665545
  0
LINE
  5
C0
330
1F
100
AcDbEntity
  8
0
  6
Continuous
 62
     7
370
    30
100
AcDbLine
 10
533.1073002847
 20
510.9063569814
 30
0.0
 11
533.0945514541
 21
510.9070245218
 31
0.0
  0
LINE
  5
C1
330
1F
100
AcDbEntity
  8
0
  6
Continuous
 62
     7
370
    30
100
AcDbLine
 10
533.107056039
 20
360.9270521397
 30
0.0
 11
533.1075063237
 21
360.9271391788
 31
0.0
  0
LINE
  5
C2
330
1F
100
AcDbEntity
  8
0
  6
Continuous
 62
     7
370
    30
100
AcDbLine
 10
533.0946809365
 20
360.9246600605
 30
0.0
 11
533.1042626591
 21
360.9265121857
 31
0.0
  0
ARC
  5
C3
330
1F
100
AcDbEntity
  8
0
  6
Continuous
 62
     7
370
    30
100
AcDbCircle
 10
544.6544752394
 20
362.6265114973
 30
0.0
 40
1.500000000000018
100
AcDbArc
 50
271.0
 51
359.3057333001
  0
SPLINE
  5
C4
330
1F
100
AcDbEntity
  8
0
  6
Continuous
 62
     7
370
    30
100
AcDbSpline
210
0.0
220
0.0
230
1.0
 70
     8
 71
     3
 72
    37
 73
    33
 74
     0
 42
0.000000001
 43
0.00000001
 40
0.0
 40
0.0
 40
0.0
 40
0.0
 40
0.0435660847305218
 40
0.0854247974592237
 40
0.1255467512615412
 40
0.1639109391899286
 40
0.200503281357921
 40
0.2437364690105795
 40
0.2841801327240644
 40
0.3218322552232162
 40
0.3566944459880402
 40
0.3887699852522309
 40
0.4180625494313374
 40
0.4445754721222014
 40
0.469030778949291
 40
0.4936104628464862
 40
0.5184652478846777
 40
0.5435965278576974
 40
0.5690057540662007
 40
0.6206536593634453
 40
0.6734284441832546
 40
0.726630697158791
 40
0.7775568748337478
 40
0.7995483954954503
 40
0.8210256117945485
 40
0.8419870116436002
 40
0.8624310507931336
 40
0.8837706824833185
 40
0.9079715839742258
 40
0.935419449826744
 40
0.966101923548743
 40
1.0
 40
1.0
 40
1.0
 40
1.0
 10
546.154360526623
 20
509.2233495538269
 30
0.0
 10
546.1533770827035
 20
509.2566551189562
 30
0.0
 10
546.1514487364185
 20
509.3219609910133
 30
0.0
 10
546.1404757652513
 20
509.4174202070594
 30
0.0
 10
546.1246398785181
 20
509.5080969524599
 30
0.0
 10
546.1041976955055
 20
509.5937266597054
 30
0.0
 10
546.078234941892
 20
509.6803198906475
 30
0.0
 10
546.0464868271864
 20
509.766687483058
 30
0.0
 10
546.0089784005031
 20
509.8515872594537
 30
0.0
 10
545.969419282232
 20
509.9284059842548
 30
0.0
 10
545.9289171439013
 20
509.9973941318913
 30
0.0
 10
545.8884605795564
 20
510.0588769603909
 30
0.0
 10
545.848924764718
 20
510.1132276724794
 30
0.0
 10
545.8107342626905
 20
510.1612767685836
 30
0.0
 10
545.773051720916
 20
510.2050664439858
 30
0.0
 10
545.7346147258772
 20
510.2464820618268
 30
0.0
 10
545.6942724373772
 20
510.2867789889064
 30
0.0
 10
545.6519513129449
 20
510.3259344392481
 30
0.0
 10
545.592584453803
 20
510.3767440100149
 30
0.0
 10
545.5134114996687
 20
510.4367966151264
 30
0.0
 10
545.4117882665677
 20
510.5018021456569
 30
0.0
 10
545.3057309668272
 20
510.5581268366874
 30
0.0
 10
545.2171581465396
 20
510.5964974569235
 30
0.0
 10
545.1494373008492
 20
510.621465816486
 30
0.0
 10
545.1026724304459
 20
510.6369681022166
 30
0.0
 10
545.0565658429832
 20
510.6506116796626
 30
0.0
 10
545.0101528722595
 20
510.662764110738
 30
0.0
 10
544.9609594336001
 20
510.6739740779703
 30
0.0
 10
544.9061425621883
 20
510.6844791343804
 30
0.0
 10
544.8438820503721
 20
510.6938046002098
 30
0.0
 10
544.7738901592126
 20
510.7013463140413
 30
0.0
 10
544.7245530963437
 20
510.7034557125168
 30
0.0
 10
544.6986562663459
 20
510.7045629274691
 30
0.0
  0
SPLINE
  5
C5
330
1F
100
AcDbEntity
  8
0
  6
Continuous
 62
     7
370
    30
100
AcDbSpline
210
0.0
220
0.0
230
1.0
 70
     8
 71
     3
 72
   145
 73
   141
 74
     0
 42
0.000000001
 43
0.00000001
 40
0.0
 40
0.0
 40
0.0
 40
0.0
 40
0.0112300865125983
 40
0.0223099954924009
 40
0.0332422545412719
 40
0.0440291619235213
 40
0.0546727964998654
 40
0.0651750272841421
 40
0.0755375226439083
 40
0.0849149874361119
 40
0.0941772802827621
 40
0.1033252789950401
 40
0.1123597425378473
 40
0.1212813160481688
 40
0.130090535702268
 40
0.1387878281042639
 40
0.1473735106716826
 40
0.1558478272448882
 40
0.1642109555172768
 40
0.1724630072799271
 40
0.1806040288512317
 40
0.1900562344723954
 40
0.1993540426144087
 40
0.2084971873276751
 40
0.2174852838009985
 40
0.2249895881497988
 40
0.232381541068496
 40
0.2396607163310459
 40
0.2468266327503965
 40
0.2538787560385081
 40
0.2608165007756348
 40
0.2672524720860938
 40
0.2735856295017409
 40
0.2798153675972662
 40
0.2859410473011327
 40
0.2919619976841917
 40
0.297877517796539
 40
0.3036868785481086
 40
0.3093893246285345
 40
0.3149840764618525
 40
0.3204703321916759
 40
0.3257522164213645
 40
0.3309278558331376
 40
0.3359964393289122
 40
0.3409571426028299
 40
0.3461920395845912
 40
0.3512990915868302
 40
0.3562772240540355
 40
0.3611253674850847
 40
0.3658995285934351
 40
0.3706531237403587
 40
0.3817761404120577
 40
0.3927831122851016
 40
0.4025115150288907
 40
0.4121450769865361
 40
0.4216825211026077
 40
0.4311224614955133
 40
0.4406529966457258
 40
0.4500787608850667
 40
0.4593979543451573
 40
0.4686086753584914
 40
0.4777089250130608
 40
0.4866966118714948
 40
0.4955695568427285
 40
0.5038461673299321
 40
0.5120180447077719
 40
0.520125471060651
 40
0.528185749092165
 40
0.5361980378781891
 40
0.5441614667739547
 40
0.5565745330365433
 40
0.5688610669083883
 40
0.581017237873146
 40
0.5930390295248675
 40
0.6049222396407374
 40
0.6166624811386012
 40
0.6197739573155446
 40
0.6229930486684709
 40
0.6263236488691962
 40
0.6297667460720905
 40
0.6333233730879976
 40
0.6369280396348228
 40
0.6406443252316465
 40
0.6444733428555349
 40
0.6484162530396894
 40
0.6526877972892833
 40
0.6570881564607104
 40
0.6616188641513194
 40
0.6662815212810111
 40
0.6710777987292151
 40
0.6760094401063703
 40
0.681078264666059
 40
0.6858468183373957
 40
0.6907337601562888
 40
0.6957406724103233
 40
0.7008691996798929
 40
0.7061210512205708
 40
0.7114980034534634
 40
0.7170019025680331
 40
0.7226346672420834
 40
0.7283982914837416
 40
0.7342948476004925
 40
0.7403264893004909
 40
0.7464954549315748
 40
0.7524397747654378
 40
0.7585102644932973
 40
0.7647090235891614
 40
0.7710382294785566
 40
0.7775001405128061
 40
0.7834785364731021
 40
0.7895698647521491
 40
0.7957759968255189
 40
0.8020988674245925
 40
0.8085404767461905
 40
0.8149846350909914
 40
0.8215473488713406
 40
0.8282307105483584
 40
0.8350368824098586
 40
0.8421108704480644
 40
0.849317513788912
 40
0.8566593506922571
 40
0.8641390062569585
 40
0.8717591954865788
 40
0.8795227264640563
 40
0.8874325036388637
 40
0.8944758854488746
 40
0.9016356128879013
 40
0.9089138256907877
 40
0.9163127279271185
 40
0.9238345899828392
 40
0.9314817506019526
 40
0.9392566189899243
 40
0.947161676980457
 40
0.954373139771792
 40
0.9616935430860557
 40
0.969124842581403
 40
0.9766690468774264
 40
0.9843282190095398
 40
0.9921044779219382
 40
1.0
 40
1.0
 40
1.0
 40
1.0
 10
544.6986711766609
 20
510.7045625181227
 30
0.0
 10
544.6985457529387
 20
510.704565850291
 30
0.0
 10
544.6982965827584
 20
510.7045724700671
 30
0.0
 10
544.6977920307345
 20
510.7045845174626
 30
0.0
 10
544.6971996927728
 20
510.7045979529096
 30
0.0
 10
544.6965142018702
 20
510.7046128653415
 30
0.0
 10
544.695742059151
 20
510.7046291492417
 30
0.0
 10
544.6948864992355
 20
510.7046467526056
 30
0.0
 10
544.6939769477167
 20
510.704665097887
 30
0.0
 10
544.6930246427585
 20
510.704684004201
 30
0.0
 10
544.6920399601648
 20
510.7047033046158
 30
0.0
 10
544.6909970995447
 20
510.7047235214721
 30
0.0
 10
544.68989874677
 20
510.7047446113739
 30
0.0
 10
544.6887475451696
 20
510.7047665315738
 30
0.0
 10
544.6875461015645
 20
510.7047892398675
 30
0.0
 10
544.6862969902525
 20
510.704812694526
 30
0.0
 10
544.6850027278447
 20
510.7048368547368
 30
0.0
 10
544.6836658021228
 20
510.7048616800946
 30
0.0
 10
544.6822886718919
 20
510.704887130606
 30
0.0
 10
544.6808737687346
 20
510.7049131666597
 30
0.0
 10
544.6793390452389
 20
510.7049412969644
 30
0.0
 10
544.6776781366472
 20
510.7049716220579
 30
0.0
 10
544.675884766201
 20
510.70500424112
 30
0.0
 10
544.6740532728345
 20
510.705037438757
 30
0.0
 10
544.6722793612927
 20
510.7050694918034
 30
0.0
 10
544.6705741866865
 20
510.7051002209134
 30
0.0
 10
544.6689472289781
 20
510.7051294742365
 30
0.0
 10
544.6673028227665
 20
510.7051589790743
 30
0.0
 10
544.6656432291023
 20
510.7051886978865
 30
0.0
 10
544.6639706987428
 20
510.7052185932199
 30
0.0
 10
544.662318752277
 20
510.7052480695643
 30
0.0
 10
544.6606909164476
 20
510.7052770696632
 30
0.0
 10
544.6590904231408
 20
510.7053055411121
 30
0.0
 10
544.6574861279184
 20
510.7053340406533
 30
0.0
 10
544.6558798820552
 20
510.7053625371298
 30
0.0
 10
544.6542735303193
 20
510.705390999425
 30
0.0
 10
544.6526689108031
 20
510.7054193964645
 30
0.0
 10
544.6510678546152
 20
510.705447697223
 30
0.0
 10
544.6494721854611
 20
510.7054758707303
 30
0.0
 10
544.647883719092
 20
510.7055038860814
 30
0.0
 10
544.6463133848773
 20
510.7055315517352
 30
0.0
 10
544.6447630222503
 20
510.7055588368121
 30
0.0
 10
544.6432343980214
 20
510.7055857116205
 30
0.0
 10
544.6417195743314
 20
510.7056123165816
 30
0.0
 10
544.6401816500937
 20
510.7056392996504
 30
0.0
 10
544.6386226478297
 20
510.7056666234817
 30
0.0
 10
544.6370449217219
 20
510.7056942441102
 30
0.0
 10
544.6354910268578
 20
510.7057214177086
 30
0.0
 10
544.6339582366314
 20
510.7057481861357
 30
0.0
 10
544.6324320275745
 20
510.7057748239977
 30
0.0
 10
544.6302096775285
 20
510.7058136178323
 30
0.0
 10
544.6272545959761
 20
510.7058652002527
 30
0.0
 10
544.6236493826607
 20
510.7059281319214
 30
0.0
 10
544.6201206829313
 20
510.7059897276911
 30
0.0
 10
544.6166808996292
 20
510.7060497713717
 30
0.0
 10
544.6131952552856
 20
510.7061106155231
 30
0.0
 10
544.6096430719738
 20
510.706172621112
 30
0.0
 10
544.6060260711122
 20
510.7062357580854
 30
0.0
 10
544.6023461337984
 20
510.7062999936098
 30
0.0
 10
544.5986312797731
 20
510.7063648385846
 30
0.0
 10
544.5948849343798
 20
510.7064302332205
 30
0.0
 10
544.5911105980747
 20
510.7064961164166
 30
0.0
 10
544.5873118454941
 20
510.7065624257772
 30
0.0
 10
544.5835611108947
 20
510.7066278969249
 30
0.0
 10
544.579864205809
 20
510.706692428416
 30
0.0
 10
544.5762201072621
 20
510.7067560381252
 30
0.0
 10
544.5725501942603
 20
510.7068200983618
 30
0.0
 10
544.5688471355576
 20
510.7068847370844
 30
0.0
 10
544.5651095516399
 20
510.7069499783774
 30
0.0
 10
544.5606286609375
 20
510.7070281943419
 30
0.0
 10
544.5553755862442
 20
510.7071198889801
 30
0.0
 10
544.5493148185245
 20
510.7072256820426
 30
0.0
 10
544.5431878603632
 20
510.7073326302898
 30
0.0
 10
544.5370010737237
 20
510.7074406226754
 30
0.0
 10
544.530761054338
 20
510.7075495440642
 30
0.0
 10
544.5259886006359
 20
510.7076328485329
 30
0.0
 10
544.5227236127481
 20
510.707689839697
 30
0.0
 10
544.5209691479212
 20
510.7077204642256
 30
0.0
 10
544.5191449232913
 20
510.7077523063606
 30
0.0
 10
544.5172488852376
 20
510.7077854019428
 30
0.0
 10
544.5152917310393
 20
510.7078195642519
 30
0.0
 10
544.5132728100755
 20
510.7078548046454
 30
0.0
 10
544.5111914434622
 20
510.7078911349746
 30
0.0
 10
544.5090343135781
 20
510.7079287876992
 30
0.0
 10
544.5067592943102
 20
510.7079684981302
 30
0.0
 10
544.5043612618397
 20
510.7080103557007
 30
0.0
 10
544.5018348246872
 20
510.7080544545157
 30
0.0
 10
544.4992158739245
 20
510.7081001680987
 30
0.0
 10
544.4965019288251
 20
510.7081475397504
 30
0.0
 10
544.4936903962066
 20
510.7081966147352
 30
0.0
 10
544.4907785653326
 20
510.7082474403691
 30
0.0
 10
544.4878507012327
 20
510.7082985458185
 30
0.0
 10
544.484910625041
 20
510.7083498643912
 30
0.0
 10
544.4819623147681
 20
510.7084013266551
 30
0.0
 10
544.4789199981991
 20
510.7084544297518
 30
0.0
 10
544.4757810909642
 20
510.7085092187914
 30
0.0
 10
544.4725429001234
 20
510.7085657407795
 30
0.0
 10
544.4692026191909
 20
510.7086240447034
 30
0.0
 10
544.4657573228781
 20
510.7086841816243
 30
0.0
 10
544.4622039615331
 20
510.7087462047738
 30
0.0
 10
544.4585393552658
 20
510.7088101696575
 30
0.0
 10
544.4547601877365
 20
510.7088761341619
 30
0.0
 10
544.4508629995938
 20
510.7089441586704
 30
0.0
 10
544.4469232793906
 20
510.7090129255495
 30
0.0
 10
544.4429430311504
 20
510.7090823998212
 30
0.0
 10
544.4389243675826
 20
510.709152544611
 30
0.0
 10
544.4347875141503
 20
510.7092247523649
 30
0.0
 10
544.4305289004202
 20
510.7092990854054
 30
0.0
 10
544.426284677737
 20
510.7093731672459
 30
0.0
 10
544.4220605972844
 20
510.7094468975027
 30
0.0
 10
544.4178626126566
 20
510.7095201722593
 30
0.0
 10
544.4135520570717
 20
510.7095954119102
 30
0.0
 10
544.4091256837403
 20
510.7096726731282
 30
0.0
 10
544.404607933159
 20
510.7097515293117
 30
0.0
 10
544.3999971274465
 20
510.7098320097491
 30
0.0
 10
544.3952915436985
 20
510.709914144514
 30
0.0
 10
544.3904605769495
 20
510.7099984678094
 30
0.0
 10
544.3854658273581
 20
510.7100856498963
 30
0.0
 10
544.3803011146794
 20
510.7101757986505
 30
0.0
 10
544.3749599701935
 20
510.7102690269832
 30
0.0
 10
544.3694716574694
 20
510.7103648241077
 30
0.0
 10
544.3638315556468
 20
510.7104632706814
 30
0.0
 10
544.3580348571447
 20
510.7105644506208
 30
0.0
 10
544.352076559431
 20
510.7106684512458
 30
0.0
 10
544.3462135854737
 20
510.7107707880296
 30
0.0
 10
544.340457947572
 20
510.7108712513005
 30
0.0
 10
544.3348219428805
 20
510.7109696264141
 30
0.0
 10
544.329046416191
 20
510.7110704368627
 30
0.0
 10
544.3231273234754
 20
510.7111737532357
 30
0.0
 10
544.3170604750497
 20
510.7112796486641
 30
0.0
 10
544.3108415301945
 20
510.711388198915
 30
0.0
 10
544.3044659906129
 20
510.7114994825074
 30
0.0
 10
544.2981569435292
 20
510.7116096055043
 30
0.0
 10
544.2919234752706
 20
510.7117184093059
 30
0.0
 10
544.2857749275639
 20
510.7118257308535
 30
0.0
 10
544.2794850455175
 20
510.7119355193764
 30
0.0
 10
544.273050301438
 20
510.7120478364515
 30
0.0
 10
544.2664654515966
 20
510.7121627736081
 30
0.0
 10
544.2597311914833
 20
510.7122803187061
 30
0.0
 10
544.2551622058135
 20
510.7123600694087
 30
0.0
 10
544.2528603278552
 20
510.7124002482136
 30
0.0
  0
LINE
  5
C6
330
1F
100
AcDbEntity
  8
0
  6
Continuous
 62
     7
370
    30
100
AcDbLine
 10
597.3493343803
 20
455.91584292
 30
0.0
 11
597.3493343803
 21
455.5699157518
 31
0.0
  0
SPLINE
  5
C7
330
1F
100
AcDbEntity
  8
0
  6
Continuous
 62
     7
370
    30
100
AcDbSpline
210
0.0
220
0.0
230
1.0
 70
     8
 71
     3
 72
    51
 73
    47
 74
     0
 42
0.000000001
 43
0.00000001
 40
0.0
 40
0.0
 40
0.0
 40
0.0
 40
0.0215605006705535
 40
0.0431210603889229
 40
0.0648691158770677
 40
0.0866173449953097
 40
0.1089394445058764
 40
0.1312618327032188
 40
0.1537704029261259
 40
0.176279329797342
 40
0.1978329068195711
 40
0.2193867983266822
 40
0.2412638108495766
 40
0.2631567608470945
 40
0.2850514108986369
 40
0.3069307433329468
 40
0.3291280810770703
 40
0.3513256931991712
 40
0.3716302075862481
 40
0.3919395185812171
 40
0.4122445885288535
 40
0.4327049886094861
 40
0.4531695830757087
 40
0.4736304280476544
 40
0.494526825432006
 40
0.5154270974532065
 40
0.5363238611933583
 40
0.5573488260637269
 40
0.57837727221745
 40
0.5994025154778381
 40
0.624733501870711
 40
0.6500699585747997
 40
0.6754013579824081
 40
0.7009180339052281
 40
0.7264397813429019
 40
0.7519567352114834
 40
0.7780255498824891
 40
0.8040994095628834
 40
0.8301684041144719
 40
0.8564152445606464
 40
0.8826670135194054
 40
0.9089139384725978
 40
0.93166021315766
 40
0.9544064906998635
 40
0.9772032474925484
 40
1.0
 40
1.0
 40
1.0
 40
1.0
 10
597.349334380297
 20
455.5699157517543
 30
0.0
 10
597.3500161075158
 20
455.5556743298083
 30
0.0
 10
597.3513795638204
 20
455.5271914469132
 30
0.0
 10
597.3623762095418
 20
455.475210658144
 30
0.0
 10
597.3799531045835
 20
455.4164923665808
 30
0.0
 10
597.4048909271911
 20
455.3499312582311
 30
0.0
 10
597.4370500662947
 20
455.2758462830083
 30
0.0
 10
597.4765519082665
 20
455.1940347426437
 30
0.0
 10
597.52295394881
 20
455.1053327292378
 30
0.0
 10
597.5752622481447
 20
455.0113430880781
 30
0.0
 10
597.6327622060928
 20
454.912894421876
 30
0.0
 10
597.6951639512712
 20
454.8100581649277
 30
0.0
 10
597.7631528117352
 20
454.7015289625027
 30
0.0
 10
597.8365059090381
 20
454.5875070008753
 30
0.0
 10
597.9145632696458
 20
454.4688342175296
 30
0.0
 10
597.9974235430602
 20
454.3451917581318
 30
0.0
 10
598.0848793418811
 20
454.2167498879979
 30
0.0
 10
598.1741078567696
 20
454.0874570105526
 30
0.0
 10
598.2640686534852
 20
453.9585139767217
 30
0.0
 10
598.3542086407185
 20
453.8304567486156
 30
0.0
 10
598.447285009261
 20
453.6992264799564
 30
0.0
 10
598.5431384935229
 20
453.5649479096858
 30
0.0
 10
598.6416158453368
 20
453.4277474419523
 30
0.0
 10
598.74302206332
 20
453.2871138755413
 30
0.0
 10
598.8472498285669
 20
453.1431182844115
 30
0.0
 10
598.9541939585699
 20
452.9958381897528
 30
0.0
 10
599.0631988275809
 20
452.8461009624671
 30
0.0
 10
599.1741337524046
 20
452.694009698465
 30
0.0
 10
599.2868783591506
 20
452.5396672035992
 30
0.0
 10
599.4088743494541
 20
452.3728342053317
 30
0.0
 10
599.5403435330338
 20
452.1931675851229
 30
0.0
 10
599.681450827975
 20
452.0003837616883
 30
0.0
 10
599.8244651026782
 20
451.8049652121512
 30
0.0
 10
599.9692211282065
 20
451.6070537809905
 30
0.0
 10
600.1155691097619
 20
451.4067956260212
 30
0.0
 10
600.2640644893389
 20
451.2033699861025
 30
0.0
 10
600.4145807838288
 20
450.9968840790689
 30
0.0
 10
600.5669960145569
 20
450.7874604945619
 30
0.0
 10
600.7204475613048
 20
450.576242672732
 30
0.0
 10
600.8748019748422
 20
450.3633718829459
 30
0.0
 10
601.0299352761834
 20
450.1489990489717
 30
0.0
 10
601.1784621145474
 20
449.9433287270146
 30
0.0
 10
601.3202207677678
 20
449.746639349789
 30
0.0
 10
601.4552185591206
 20
449.5589767242217
 30
0.0
 10
601.5903110535326
 20
449.3708559048025
 30
0.0
 10
601.6803503512148
 20
449.2451800186438
 30
0.0
 10
601.7253699958247
 20
449.1823420814704
 30
0.0
  0
ARC
  5
C8
330
1F
100
AcDbEntity
  8
0
  6
Continuous
 62
     7
370
    30
100
AcDbCircle
 10
583.1983547746
 20
435.9158412606
 30
0.0
 40
22.78706512557394
100
AcDbArc
 50
348.0968903817
 51
35.6050307726
  0
SPLINE
  5
C9
330
1F
100
AcDbEntity
  8
0
  6
Continuous
 62
     7
370
    30
100
AcDbSpline
210
0.0
220
0.0
230
1.0
 70
     8
 71
     3
 72
    45
 73
    41
 74
     0
 42
0.000000001
 43
0.00000001
 40
0.0
 40
0.0
 40
0.0
 40
0.0
 40
0.0259438367548414
 40
0.051909095164783
 40
0.0778739239274417
 40
0.1038171743140903
 40
0.1304932696958046
 40
0.157193682927171
 40
0.1838936370838483
 40
0.2105691058819812
 40
0.2365215267236293
 40
0.2624971888584001
 40
0.2884725209176411
 40
0.3144244912521639
 40
0.3411685571019681
 40
0.367938728861314
 40
0.3947086868130266
 40
0.4214524608219409
 40
0.4467702169824137
 40
0.4721103591212587
 40
0.4974504886245123
 40
0.5227682275393962
 40
0.5488369755734758
 40
0.5749300309285407
 40
0.6010232516036575
 40
0.6270922252841135
 40
0.6521715068552582
 40
0.6772719867863781
 40
0.7023727347590331
 40
0.7274523821495963
 40
0.7532322541761817
 40
0.7790344189398537
 40
0.8048369718398743
 40
0.8306173735995245
 40
0.8588008370240409
 40
0.8870387020757325
 40
0.9153052796497526
 40
0.9435732613826046
 40
0.9718143699899449
 40
1.0
 40
1.0
 40
1.0
 40
1.0
 10
605.4954476934654
 20
431.2158429200435
 30
0.0
 10
605.4842732103242
 20
431.1621874848594
 30
0.0
 10
605.4619150173446
 20
431.0548323115517
 30
0.0
 10
605.4301422107269
 20
430.8936801870988
 30
0.0
 10
605.3997430492286
 20
430.7327905435908
 30
0.0
 10
605.370644046037
 20
430.570940033459
 30
0.0
 10
605.3429312443424
 20
430.4083881085908
 30
0.0
 10
605.3167144942064
 20
430.2454117770195
 30
0.0
 10
605.2923138091863
 20
430.0838596259933
 30
0.0
 10
605.2700039861701
 20
429.9255278313689
 30
0.0
 10
605.2497891212564
 20
429.770627346827
 30
0.0
 10
605.2316361242263
 20
429.6193118613459
 30
0.0
 10
605.2154045123399
 20
429.4704741440489
 30
0.0
 10
605.2009982217181
 20
429.3229534436605
 30
0.0
 10
605.1885384006217
 20
429.1771086260881
 30
0.0
 10
605.1781112767219
 20
429.0332799081095
 30
0.0
 10
605.1698669196605
 20
428.8932448891389
 30
0.0
 10
605.1639436121521
 20
428.7597523893696
 30
0.0
 10
605.1602379828548
 20
428.6328069946524
 30
0.0
 10
605.1586056887096
 20
428.5122919105939
 30
0.0
 10
605.1589787126825
 20
428.3961086829519
 30
0.0
 10
605.1613839638985
 20
428.2834009503596
 30
0.0
 10
605.1659039114909
 20
428.1745328076447
 30
0.0
 10
605.1725812033309
 20
428.0698031383652
 30
0.0
 10
605.1813472377097
 20
427.9704723388511
 30
0.0
 10
605.1920448207902
 20
427.8779418435631
 30
0.0
 10
605.2045746928709
 20
427.792138085411
 30
0.0
 10
605.2188070149545
 20
427.7128702003853
 30
0.0
 10
605.234863641194
 20
427.6391524249935
 30
0.0
 10
605.2528728074449
 20
427.5704868214981
 30
0.0
 10
605.2728702990421
 20
427.5071779178044
 30
0.0
 10
605.294857846187
 20
427.44944193419
 30
0.0
 10
605.3185928225971
 20
427.3979353703218
 30
0.0
 10
605.3448046968864
 20
427.3513292537033
 30
0.0
 10
605.3736633165952
 20
427.3104423028147
 30
0.0
 10
605.4052898272016
 20
427.2760078945374
 30
0.0
 10
605.4387382226736
 20
427.2491414690189
 30
0.0
 10
605.4739284215183
 20
427.2300587270968
 30
0.0
 10
605.5106077920057
 20
427.21807604704
 30
0.0
 10
605.5363454274641
 20
427.2165868076348
 30
0.0
 10
605.549201592611
 20
427.21584292004
 30
0.0
  0
LINE
  5
CA
330
1F
100
AcDbEntity
  8
0
  6
Continuous
 62
     7
370
    30
100
AcDbLine
 10
605.6030628854
 20
427.21584292
 30
0.0
 11
605.5492015926
 21
427.21584292
 31
0.0
  0
LINE
  5
CB
330
1F
100
AcDbEntity
  8
0
  6
Continuous
 62
     7
370
    30
100
AcDbLine
 10
605.6030628854
 20
427.21584292
 30
0.0
 11
606.1016374375
 21
427.21584292
 31
0.0
  0
LINE
  5
CC
330
1F
100
AcDbEntity
  8
0
  6
Continuous
 62
     7
370
    30
100
AcDbLine
 10
546.5516917288
 20
459.7178098825
 30
0.0
 11
546.551691727
 21
412.1138756731
 31
0.0
  0
LINE
  5
CD
330
1F
100
AcDbEntity
  8
0
  6
Continuous
 62
     7
370
    30
100
AcDbLine
 10
546.1542733732
 20
509.2233330715
 30
0.0
 11
546.1542728503
 21
509.2233329924
 31
0.0
  0
LINE
  5
CE
330
1F
100
AcDbEntity
  8
0
  6
Continuous
 62
     7
370
    30
100
AcDbLine
 10
532.5983626822
 20
362.9244177205
 30
0.0
 11
532.5983626822
 21
508.9072675386
 31
0.0
  0
LINE
  5
CF
330
1F
100
AcDbEntity
  8
0
  6
Continuous
 62
     7
370
    30
100
AcDbLine
 10
533.1070888854
 20
360.9247226267
 30
0.0
 11
533.1074957171
 21
360.9293746394
 31
0.0
  0
LINE
  5
D0
330
1F
100
AcDbEntity
  8
0
  6
Continuous
 62
     7
370
    30
100
AcDbLine
 10
533.1070888854
 20
360.9247226267
 30
0.0
 11
544.242436616
 21
361.1190908443
 31
0.0
  0
LINE
  5
D1
330
1F
100
AcDbEntity
  8
0
  6
Continuous
 62
     7
370
    30
100
AcDbLine
 10
533.1070888854
 20
510.9069629289
 30
0.0
 11
544.242436616
 21
510.7125947113
 31
0.0
  0
SPLINE
  5
D2
330
1F
100
AcDbEntity
  8
0
  6
Continuous
 62
     7
370
    30
100
AcDbSpline
210
0.0
220
0.0
230
1.0
 70
    24
 71
     3
 72
    14
 73
    10
 74
     0
 42
0.000000001
 43
0.00000001
 40
0.0
 40
0.0
 40
0.0
 40
0.0
 40
0.25
 40
0.25
 40
0.5
 40
0.5
 40
0.75
 40
0.75
 40
1.0
 40
1.0
 40
1.0
 40
1.0
 10
532.598362682182
 20
508.9072675385709
 30
0.0
 10
532.598362682182
 20
509.1036032668871
 30
0.0
 10
532.598362682182
 20
509.2998440649763
 30
0.0
 10
532.598362682182
 20
509.6625931294366
 30
0.0
 10
532.598362682182
 20
509.8289751176195
 30
0.0
 10
532.598362682182
 20
510.1066147407808
 30
0.0
 10
532.598362682182
 20
510.217762962202
 30
0.0
 10
532.598362682182
 20
510.3680089482109
 30
0.0
 10
532.598362682182
 20
510.407039043417
 30
0.0
 10
532.598362682182
 20
510.4070390795708
 30
0.0
  0
SPLINE
  5
D3
330
1F
100
AcDbEntity
  8
0
  6
Continuous
 62
     7
370
    30
100
AcDbSpline
210
0.0
220
0.0
230
1.0
 70
     8
 71
     3
 72
    19
 73
    15
 74
     0
 42
0.000000001
 43
0.00000001
 40
0.0
 40
0.0
 40
0.0
 40
0.0
 40
0.084668633425401
 40
0.1693372668507974
 40
0.2540059002762
 40
0.3386745337016092
 40
0.4233431671270154
 40
0.5080118005524148
 40
0.5926804339778157
 40
0.6773490674032246
 40
0.7620177008286232
 40
0.8466863342540282
 40
0.9313549676794296
 40
1.0
 40
1.0
 40
1.0
 40
1.0
 10
532.598362682182
 20
510.4070390795708
 30
0.0
 10
532.599206729898
 20
510.4290980646375
 30
0.0
 10
532.6008948253296
 20
510.4732160347707
 30
0.0
 10
532.6144721976012
 20
510.5382354124118
 30
0.0
 10
532.6358858738889
 20
510.600959921427
 30
0.0
 10
532.6655574789822
 20
510.6602922602451
 30
0.0
 10
532.7027546479374
 20
510.715195035193
 30
0.0
 10
532.7468839214082
 20
510.7647061998558
 30
0.0
 10
532.7971579519782
 20
510.8079659860803
 30
0.0
 10
532.8527018897058
 20
510.8441942385595
 30
0.0
 10
532.9125414066752
 20
510.8728447766512
 30
0.0
 10
532.9756362402879
 20
510.8930897915539
 30
0.0
 10
533.0367451396805
 20
510.9049927957597
 30
0.0
 10
533.0766995353326
 20
510.9059326039467
 30
0.0
 10
533.094588813288
 20
510.9063533959422
 30
0.0
  0
SPLINE
  5
D4
330
1F
100
AcDbEntity
  8
0
  6
Continuous
 62
     7
370
    30
100
AcDbSpline
210
0.0
220
0.0
230
1.0
 70
    24
 71
     3
 72
    14
 73
    10
 74
     0
 42
0.000000001
 43
0.00000001
 40
0.0
 40
0.0
 40
0.0
 40
0.0
 40
0.25
 40
0.25
 40
0.5
 40
0.5
 40
0.75
 40
0.75
 40
1.0
 40
1.0
 40
1.0
 40
1.0
 10
532.598362682182
 20
361.4246464742708
 30
0.0
 10
532.598362682182
 20
361.4246464742708
 30
0.0
 10
532.598362682182
 20
361.4636742434566
 30
0.0
 10
532.598362682182
 20
361.6139099017686
 30
0.0
 10
532.598362682182
 20
361.7250726533478
 30
0.0
 10
532.598362682182
 20
362.0027128092432
 30
0.0
 10
532.598362682182
 20
362.1690685306309
 30
0.0
 10
532.598362682182
 20
362.5318290324696
 30
0.0
 10
532.598362682182
 20
362.7280898421116
 30
0.0
 10
532.598362682182
 20
362.9244177204708
 30
0.0
  0
SPLINE
  5
D5
330
1F
100
AcDbEntity
  8
0
  6
Continuous
 62
     7
370
    30
100
AcDbSpline
210
0.0
220
0.0
230
1.0
 70
     8
 71
     3
 72
    19
 73
    15
 74
     0
 42
0.000000001
 43
0.00000001
 40
0.0
 40
0.0
 40
0.0
 40
0.0
 40
0.0846548176033895
 40
0.1693096352067728
 40
0.2539644528101698
 40
0.3386192704135667
 40
0.4232740880169586
 40
0.5079289056203374
 40
0.5925837232237335
 40
0.6772385408271261
 40
0.7618933584305155
 40
0.8465481760339056
 40
0.9312029936372965
 40
1.0
 40
1.0
 40
1.0
 40
1.0
 10
532.598362682182
 20
361.4246464742708
 30
0.0
 10
532.5992067299804
 20
361.4025874891128
 30
0.0
 10
532.600894825577
 20
361.3584695187967
 30
0.0
 10
532.6144721981851
 20
361.293450140909
 30
0.0
 10
532.6358858748756
 20
361.2307256318036
 30
0.0
 10
532.6655574803934
 20
361.1713932925912
 30
0.0
 10
532.7027546499355
 20
361.1164905187324
 30
0.0
 10
532.7468839235635
 20
361.0669793500168
 30
0.0
 10
532.7971579560037
 20
361.0237195793629
 30
0.0
 10
532.8527018892411
 20
360.9874912696784
 30
0.0
 10
532.9125414254106
 20
360.9588409464582
 30
0.0
 10
532.97563618968
 20
360.9385951314979
 30
0.0
 10
533.0367872405072
 20
360.9266867661194
 30
0.0
 10
533.0767842751526
 20
360.9257471908803
 30
0.0
 10
533.094716132695
 20
360.9253259514188
 30
0.0
  0
SPLINE
  5
D6
330
1F
100
AcDbEntity
  8
0
  6
Continuous
 62
     7
370
    30
100
AcDbSpline
210
0.0
220
0.0
230
1.0
 70
    24
 71
     3
 72
    17
 73
    13
 74
     0
 42
0.000000001
 43
0.00000001
 40
0.0
 40
0.0
 40
0.0
 40
0.0
 40
0.1045374184312955
 40
0.2090748368277455
 40
0.3136122552094317
 40
0.4181496735904808
 40
0.5226870919798492
 40
0.6272245103820631
 40
0.7257883627535305
 40
0.8243522151358694
 40
0.9229160675259682
 40
1.0
 40
1.0
 40
1.0
 40
1.0
 10
544.2424366159821
 20
361.1190908442708
 30
0.0
 10
544.2720535896113
 20
361.1196078104731
 30
0.0
 10
544.33128753686
 20
361.1206417428774
 30
0.0
 10
544.4079953673202
 20
361.1219806830504
 30
0.0
 10
544.4758143118094
 20
361.1231644671402
 30
0.0
 10
544.5338706428489
 20
361.124177844177
 30
0.0
 10
544.582405065897
 20
361.12502501569
 30
0.0
 10
544.6205870882044
 20
361.1256914853744
 30
0.0
 10
544.6491550686123
 20
361.1261901413317
 30
0.0
 10
544.6683771253877
 20
361.1265256635836
 30
0.0
 10
544.6792292608719
 20
361.1267150883149
 30
0.0
 10
544.6797114357518
 20
361.1267235047088
 30
0.0
 10
544.6799230406742
 20
361.1267271982865
 30
0.0
  0
SPLINE
  5
D7
330
1F
100
AcDbEntity
  8
0
  6
Continuous
 62
     7
370
    30
100
AcDbSpline
210
0.0
220
0.0
230
1.0
 70
    24
 71
     3
 72
    14
 73
    10
 74
     0
 42
0.000000001
 43
0.00000001
 40
0.0
 40
0.0
 40
0.0
 40
0.0
 40
0.0349905734462415
 40
0.1962760792580788
 40
0.3575615850608309
 40
0.5188470908484033
 40
0.6801325966167482
 40
0.8414181023649054
 40
1.0
 40
1.0
 40
1.0
 40
1.0
 10
544.679925399683
 20
510.7049583160785
 30
0.0
 10
544.6801479293556
 20
510.7049544318086
 30
0.0
 10
544.6813961870246
 20
510.7049326433898
 30
0.0
 10
544.6753089322056
 20
510.7050388968188
 30
0.0
 10
544.661247824773
 20
510.7052843343641
 30
0.0
 10
544.6379948173912
 20
510.7056902171214
 30
0.0
 10
544.6062512962811
 20
510.7062443023482
 30
0.0
 10
544.5668015225557
 20
510.7069329007161
 30
0.0
 10
544.5334435193034
 20
510.707515166834
 30
0.0
 10
544.5169054932304
 20
510.7078038391554
 30
0.0
  0
SPLINE
  5
D8
330
1F
100
AcDbEntity
  8
0
  6
Continuous
 62
     7
370
    30
100
AcDbSpline
210
0.0
220
0.0
230
1.0
 70
    24
 71
     3
 72
    11
 73
     7
 74
     0
 42
0.000000001
 43
0.00000001
 40
0.0
 40
0.0
 40
0.0
 40
0.0
 40
0.2349839824944595
 40
0.4899893216094435
 40
0.7449946607634897
 40
1.0
 40
1.0
 40
1.0
 40
1.0
 10
544.5116853302136
 20
510.7078949574406
 30
0.0
 10
544.4949751057532
 20
510.7081866354961
 30
0.0
 10
544.4601308944142
 20
510.7087948434727
 30
0.0
 10
544.3968402566135
 20
510.7098995856747
 30
0.0
 10
544.3249332268881
 20
510.7111547275583
 30
0.0
 10
544.2699354862871
 20
510.7121147166999
 30
0.0
 10
544.2424366159821
 20
510.7125947112709
 30
0.0
  0
LINE
  5
D9
330
1F
100
AcDbEntity
  8
0
  6
Continuous
 62
   252
370
     0
100
AcDbLine
 10
591.5825839937
 20
412.895095039
 30
0.0
 11
591.5825839937
 21
458.936590801
 31
0.0
  0
LINE
  5
DA
330
1F
100
AcDbEntity
  8
0
  6
Continuous
 62
   252
370
     0
100
AcDbLine
 10
545.7160391897
 20
362.6006850747
 30
0.0
 11
546.1543651208
 21
362.6083360823
 31
0.0
  0
SPLINE
  5
DB
330
1F
100
AcDbEntity
  8
0
  6
Continuous
 62
   252
370
     0
100
AcDbSpline
210
0.0
220
0.0
230
1.0
 70
     8
 71
     3
 72
    14
 73
    10
 74
     0
 42
0.000000001
 43
0.00000001
 40
0.0
 40
0.0
 40
0.0
 40
0.0
 40
0.25
 40
0.25
 40
0.5
 40
0.5
 40
0.75
 40
0.75
 40
1.0
 40
1.0
 40
1.0
 40
1.0
 10
545.7160392112821
 20
363.1007329015708
 30
0.0
 10
545.7150389921037
 20
363.0176572513021
 30
0.0
 10
545.7144800870543
 20
362.9531285027717
 30
0.0
 10
545.7137166635191
 20
362.8378667396469
 30
0.0
 10
545.7135449135051
 20
362.78898559956
 30
0.0
 10
545.713544455671
 20
362.7053630959541
 30
0.0
 10
545.7137164650704
 20
362.6706872078847
 30
0.0
 10
545.7144770204986
 20
362.6189073897278
 30
0.0
 10
545.7150412399335
 20
362.6006686104121
 30
0.0
 10
545.7160391925821
 20
362.6006852489708
 30
0.0
  0
SPLINE
  5
DC
330
1F
100
AcDbEntity
  8
0
  6
Continuous
 62
   252
370
     0
100
AcDbSpline
210
0.0
220
0.0
230
1.0
 70
     8
 71
     3
 72
    12
 73
     8
 74
     0
 42
0.000000001
 43
0.00000001
 40
0.0
 40
0.0
 40
0.0
 40
0.0
 40
0.2203610343919604
 40
0.4471957420769151
 40
0.706739862228267
 40
0.8515617915122241
 40
1.0
 40
1.0
 40
1.0
 40
1.0
 10
546.0217680796013
 20
395.8665049106317
 30
0.0
 10
546.0049970846319
 20
393.4596893123232
 30
0.0
 10
545.9709624034942
 20
388.5753517047343
 30
0.0
 10
545.9053967871296
 20
380.8563241298542
 30
0.0
 10
545.8382337831299
 20
373.962415531859
 30
0.0
 10
545.7729948594747
 20
367.9248119311109
 30
0.0
 10
545.7351798947778
 20
364.7219273143681
 30
0.0
 10
545.7160392585623
 20
363.1007371379097
 30
0.0
  0
LWPOLYLINE
  5
DD
330
1F
100
AcDbEntity
  8
0
  6
Continuous
 62
   252
370
     0
100
AcDbPolyline
 90
       28
 70
   128
 43
0.0
 10
545.7160391897
 20
508.7309543753
 10
545.7649205716
 20
504.5509995744
 10
545.8109129837
 20
500.3710119778
 10
545.8540164043
 20
496.1909935827
 10
545.8942308125
 20
492.0109463864
 10
545.9315561893
 20
487.8308723863
 10
545.9659925168
 20
483.6507735797
 10
545.9975397785
 20
479.4706519641
 10
546.0261979595
 20
475.2905095367
 10
546.0519670458
 20
471.110348295
 10
546.0748470254
 20
466.9301702364
 10
546.0948378871
 20
462.7499773583
 10
546.1119396216
 20
458.5697716581
 10
546.1261522205
 20
454.3895551332
 10
546.1374756772
 20
450.209329781
 10
546.1459099862
 20
446.029097599
 10
546.1514551434
 20
441.8488605846
 10
546.1541111463
 20
437.6686207353
 10
546.1538779935
 20
433.4883800484
 10
546.1507556852
 20
429.3081405214
 10
546.1447442228
 20
425.1279041518
 10
546.1358436093
 20
420.947672937
 10
546.1240538488
 20
416.7674488743
 10
546.1093749471
 20
412.5872339613
 10
546.0918069111
 20
408.4070301954
 10
546.0713497492
 20
404.226839574
 10
546.0480034712
 20
400.0466640944
 10
546.0217680883
 20
395.8665057542
  0
SPLINE
  5
DE
330
1F
100
AcDbEntity
  8
0
  6
Continuous
 62
   252
370
     0
100
AcDbSpline
210
0.0
220
0.0
230
1.0
 70
     8
 71
     3
 72
    14
 73
    10
 74
     0
 42
0.000000001
 43
0.00000001
 40
0.0
 40
0.0
 40
0.0
 40
0.0
 40
0.25
 40
0.25
 40
0.5
 40
0.5
 40
0.75
 40
0.75
 40
1.0
 40
1.0
 40
1.0
 40
1.0
 10
545.7160392112821
 20
509.2310004802708
 30
0.0
 10
545.7150389921034
 20
509.2310179392239
 30
0.0
 10
545.7144800870541
 20
509.2129200923039
 30
0.0
 10
545.713716663519
 20
509.1610795517618
 30
0.0
 10
545.7135449135051
 20
509.1264664863685
 30
0.0
 10
545.713544455671
 20
509.0428820177963
 30
0.0
 10
545.7137164650707
 20
508.9939165035099
 30
0.0
 10
545.714477020499
 20
508.8789537314759
 30
0.0
 10
545.7150412399344
 20
508.8138425649308
 30
0.0
 10
545.7160391925821
 20
508.7309543776708
 30
0.0
  0
SPLINE
  5
DF
330
1F
100
AcDbEntity
  8
0
  6
Continuous
 62
   252
370
     0
100
AcDbSpline
210
0.0
220
0.0
230
1.0
 70
     8
 71
     3
 72
    83
 73
    79
 74
     0
 42
0.000000001
 43
0.00000001
 40
0.0
 40
0.0
 40
0.0
 40
0.0
 40
0.0262011271417788
 40
0.0604311093992075
 40
0.0947063202693585
 40
0.1045883376873953
 40
0.1145324474914785
 40
0.1244755261868402
 40
0.1344193943573957
 40
0.1443658627254368
 40
0.1543167314296284
 40
0.164273789317378
 40
0.1949992495753032
 40
0.1998530383624179
 40
0.2048439567538329
 40
0.2098354150057956
 40
0.2148276172486671
 40
0.2198207666951219
 40
0.2482186913223166
 40
0.2766901417745712
 40
0.3018339889636262
 40
0.3051886023929685
 40
0.308644900403202
 40
0.3121022044419464
 40
0.3155605703554492
 40
0.3190200537387812
 40
0.3224807099342967
 40
0.342526843133834
 40
0.362624544006834
 40
0.3827840137495839
 40
0.409505827035482
 40
0.4130155217278879
 40
0.4166881956401211
 40
0.4205677275059385
 40
0.4244494443753903
 40
0.4283334058824327
 40
0.4322196712669797
 40
0.4559310388045022
 40
0.479742882601493
 40
0.5036676145840178
 40
0.5277170982278356
 40
0.5482289926512166
 40
0.5688454586635381
 40
0.5895728195855053
 40
0.6104171206734712
 40
0.631384132391377
 40
0.6524793542578389
 40
0.6623046206813104
 40
0.663593413570757
 40
0.6648827081464068
 40
0.6661725055174577
 40
0.6674628067896107
 40
0.6687536130650257
 40
0.6701802990824015
 40
0.6858740207341968
 40
0.6999511666202475
 40
0.7140909097719467
 40
0.7310073197818612
 40
0.7480163149416605
 40
0.7651198700383064
 40
0.7835118427838234
 40
0.8020162416760404
 40
0.818394768515286
 40
0.8205462139758641
 40
0.8228565653612018
 40
0.8252446851836422
 40
0.8276349142090685
 40
0.8300272567999656
 40
0.8324217172887134
 40
0.8519361663644981
 40
0.8715926526016285
 40
0.8913932795609706
 40
0.9091958307392487
 40
0.9271162022232319
 40
0.9451556519038713
 40
0.963315366880715
 40
0.9815964656014959
 40
1.0
 40
1.0
 40
1.0
 40
1.0
 10
546.1542728502938
 20
509.2233329923528
 30
0.0
 10
546.1542515696937
 20
509.2233223962344
 30
0.0
 10
546.154202487444
 20
509.223297957011
 30
0.0
 10
546.1529115671887
 20
509.2232602788778
 30
0.0
 10
546.1511550464733
 20
509.2234095668688
 30
0.0
 10
546.1495772482214
 20
509.2234318798808
 30
0.0
 10
546.1486242325398
 20
509.2234264000554
 30
0.0
 10
546.1475823041702
 20
509.2234184323063
 30
0.0
 10
546.1464536517004
 20
509.2234161083666
 30
0.0
 10
546.1452378463737
 20
509.2234254663569
 30
0.0
 10
546.1439345705554
 20
509.2234493579236
 30
0.0
 10
546.1415766874527
 20
509.2235130502085
 30
0.0
 10
546.1391851119458
 20
509.2236092719597
 30
0.0
 10
546.1368439974826
 20
509.2236562389592
 30
0.0
 10
546.1359666037484
 20
509.2236680427956
 30
0.0
 10
546.1350592295621
 20
509.2236767828674
 30
0.0
 10
546.1341299052851
 20
509.2236835059207
 30
0.0
 10
546.1316922365173
 20
509.2236984401362
 30
0.0
 10
546.127461631161
 20
509.2237301615012
 30
0.0
 10
546.1211704450645
 20
509.2238797205661
 30
0.0
 10
546.1163538298588
 20
509.2240128366792
 30
0.0
 10
546.1135194520023
 20
509.2240626994899
 30
0.0
 10
546.1125984695384
 20
509.2240770657558
 30
0.0
 10
546.1116577219386
 20
509.2240904005772
 30
0.0
 10
546.1107062163894
 20
509.2241028413342
 30
0.0
 10
546.1097439238522
 20
509.224114704665
 30
0.0
 10
546.1072163717438
 20
509.2241446720098
 30
0.0
 10
546.1029796080289
 20
509.2241930046187
 30
0.0
 10
546.0967663578127
 20
509.2242921311516
 30
0.0
 10
546.0894709494319
 20
509.2244442947074
 30
0.0
 10
546.0836370251576
 20
509.2245791966511
 30
0.0
 10
546.0795623010022
 20
509.2246553236918
 30
0.0
 10
546.0782212559594
 20
509.2246787081146
 30
0.0
 10
546.0768225388645
 20
509.2246995034527
 30
0.0
 10
546.0753848089655
 20
509.2247177892293
 30
0.0
 10
546.0739330623715
 20
509.2247335472043
 30
0.0
 10
546.069975028904
 20
509.2247702969198
 30
0.0
 10
546.0633046591219
 20
509.224803271019
 30
0.0
 10
546.0535383452901
 20
509.2248512447092
 30
0.0
 10
546.0432247771096
 20
509.2249425846545
 30
0.0
 10
546.0329047022777
 20
509.2250900738703
 30
0.0
 10
546.0226582628883
 20
509.2252858496765
 30
0.0
 10
546.0125619996124
 20
509.2255140105642
 30
0.0
 10
546.002035571562
 20
509.2257749523093
 30
0.0
 10
545.991069879785
 20
509.226054236368
 30
0.0
 10
545.9796555298448
 20
509.2263350305983
 30
0.0
 10
545.9699219883364
 20
509.2265518074545
 30
0.0
 10
545.9637345689368
 20
509.2266732499556
 30
0.0
 10
545.961331770758
 20
509.2267178323666
 30
0.0
 10
545.9605810232462
 20
509.2267315741234
 30
0.0
 10
545.9598285274118
 20
509.2267451549344
 30
0.0
 10
545.9590742808558
 20
509.2267585785845
 30
0.0
 10
545.9582918530635
 20
509.2267722771206
 30
0.0
 10
545.9546901931637
 20
509.2268347315901
 30
0.0
 10
545.9485091401239
 20
509.2269470384621
 30
0.0
 10
545.9396182635828
 20
509.2271135185448
 30
0.0
 10
545.93029376536
 20
509.2272888821343
 30
0.0
 10
545.9201455210427
 20
509.2274764514031
 30
0.0
 10
545.9091186977757
 20
509.2276728931404
 30
0.0
 10
545.8975114788751
 20
509.227870839726
 30
0.0
 10
545.8852937582781
 20
509.2280712465008
 30
0.0
 10
545.8729529688852
 20
509.2282705245944
 30
0.0
 10
545.8641854301452
 20
509.2284158126558
 30
0.0
 10
545.8591952279945
 20
509.2285017186099
 30
0.0
 10
545.8575505512904
 20
509.2285303456464
 30
0.0
 10
545.8558436682802
 20
509.2285607552893
 30
0.0
 10
545.8541120301873
 20
509.2285921860054
 30
0.0
 10
545.8523738399116
 20
509.2286242848497
 30
0.0
 10
545.8464713572181
 20
509.2287349569814
 30
0.0
 10
545.8362424459339
 20
509.2289382828856
 30
0.0
 10
545.8213924997154
 20
509.2292390155392
 30
0.0
 10
545.8066436793285
 20
509.2295267788161
 30
0.0
 10
545.7920373709793
 20
509.2297930392251
 30
0.0
 10
545.7776136466368
 20
509.2300367255152
 30
0.0
 10
545.7628115019735
 20
509.230269479294
 30
0.0
 10
545.7476171257468
 20
509.2304988707935
 30
0.0
 10
545.7320503795648
 20
509.2307324451064
 30
0.0
 10
545.7213883333204
 20
509.2309112658103
 30
0.0
 10
545.7160395178047
 20
509.2310009745711
 30
0.0
  0
SPLINE
  5
E0
330
1F
100
AcDbEntity
  8
0
  6
Continuous
 62
   252
370
     0
100
AcDbSpline
210
0.0
220
0.0
230
1.0
 70
    24
 71
     3
 72
    10
 73
     6
 74
     0
 42
0.000000001
 43
0.00000001
 40
0.0
 40
0.0
 40
0.0
 40
0.0
 40
0.5
 40
0.5
 40
1.0
 40
1.0
 40
1.0
 40
1.0
 10
532.598362682182
 20
508.9072675386674
 30
0.0
 10
532.598362682182
 20
508.9072675386761
 30
0.0
 10
532.6536289890275
 20
508.9072675386846
 30
0.0
 10
532.8424231301616
 20
508.9072675386965
 30
0.0
 10
532.974754908634
 20
508.9072675387
 30
0.0
 10
533.1070888854017
 20
508.9072675386997
 30
0.0
  0
LINE
  5
E1
330
1F
100
AcDbEntity
  8
0
  6
Continuous
 62
   252
370
     0
100
AcDbLine
 10
533.1070888854
 20
362.9244180169
 30
0.0
 11
533.1070888854
 21
508.9072675386
 31
0.0
  0
SPLINE
  5
E2
330
1F
100
AcDbEntity
  8
0
  6
Continuous
 62
   252
370
     0
100
AcDbSpline
210
0.0
220
0.0
230
1.0
 70
     8
 71
     3
 72
    10
 73
     6
 74
     0
 42
0.000000001
 43
0.00000001
 40
0.0
 40
0.0
 40
0.0
 40
0.0
 40
0.5
 40
0.5
 40
1.0
 40
1.0
 40
1.0
 40
1.0
 10
532.5983626821821
 20
362.9244177204708
 30
0.0
 10
532.598362681732
 20
362.9244177640542
 30
0.0
 10
532.653506403186
 20
362.9244178076375
 30
0.0
 10
532.8423096956658
 20
362.9244178948042
 30
0.0
 10
532.9747549083504
 20
362.9244179383875
 30
0.0
 10
533.1070888854008
 20
362.9244179819709
 30
0.0
  0
SPLINE
  5
E3
330
1F
100
AcDbEntity
  8
0
  6
Continuous
 62
   252
370
     0
100
AcDbSpline
210
0.0
220
0.0
230
1.0
 70
     8
 71
     3
 72
    23
 73
    19
 74
     0
 42
0.000000001
 43
0.00000001
 40
0.0
 40
0.0
 40
0.0
 40
0.0
 40
0.033355796252361
 40
0.0978007499324019
 40
0.162244668823681
 40
0.2266877255549285
 40
0.2911300927618152
 40
0.3555719430855535
 40
0.4200134491715038
 40
0.4844547836677911
 40
0.5488961192239297
 40
0.6133376284894173
 40
0.6777794841123617
 40
0.7422218587380842
 40
0.806664925007727
 40
0.8711088555568888
 40
0.9355538230142137
 40
1.0
 40
1.0
 40
1.0
 40
1.0
 10
533.1074957170795
 20
360.9293746394484
 30
0.0
 10
533.1076422314555
 20
360.9305493040395
 30
0.0
 10
533.108071818438
 20
360.933993475393
 30
0.0
 10
533.1087407295405
 20
360.9606288640115
 30
0.0
 10
533.1094690638843
 20
361.007623356456
 30
0.0
 10
533.1100971995111
 20
361.074054362399
 30
0.0
 10
533.1106071693489
 20
361.1580404286748
 30
0.0
 10
533.1109827115505
 20
361.2591055506477
 30
0.0
 10
533.1112126257711
 20
361.3761875100753
 30
0.0
 10
533.111290023436
 20
361.5081829838985
 30
0.0
 10
533.1112126246101
 20
361.6538148460726
 30
0.0
 10
533.1109827152774
 20
361.8116828645401
 30
0.0
 10
533.1106071534597
 20
361.9802668902527
 30
0.0
 10
533.1100972553675
 20
362.1579442523873
 30
0.0
 10
533.1094688496513
 20
362.3430046263127
 30
0.0
 10
533.1087415200798
 20
362.5336667504796
 30
0.0
 10
533.1079406736347
 20
362.7280953200602
 30
0.0
 10
533.1073728131607
 20
362.8589767085552
 30
0.0
 10
533.1070888802594
 20
362.9244180169053
 30
0.0
  0
LINE
  5
E4
330
1F
100
AcDbEntity
  8
0
  6
Continuous
 62
   252
370
     0
100
AcDbLine
 10
533.1070888803
 20
362.9244180169
 30
0.0
 11
544.242436616
 21
363.1187862346
 31
0.0
  0
SPLINE
  5
E5
330
1F
100
AcDbEntity
  8
0
  6
Continuous
 62
   252
370
     0
100
AcDbSpline
210
0.0
220
0.0
230
1.0
 70
     8
 71
     3
 72
    18
 73
    14
 74
     0
 42
0.000000001
 43
0.00000001
 40
0.0
 40
0.0
 40
0.0
 40
0.0
 40
0.1250000000000016
 40
0.1250000000000016
 40
0.2500000000000031
 40
0.2500000000000031
 40
0.5000000000000062
 40
0.5000000000000062
 40
0.7500000000000093
 40
0.7500000000000093
 40
0.8750000000000047
 40
0.8750000000000047
 40
1.0
 40
1.0
 40
1.0
 40
1.0
 10
544.2424366159821
 20
363.1187862346709
 30
0.0
 10
544.2441094464575
 20
362.9527402369067
 30
0.0
 10
544.2453830917341
 20
362.8066285893266
 30
0.0
 10
544.2474754160351
 20
362.5371633425549
 30
0.0
 10
544.2482901514079
 20
362.4135063612426
 30
0.0
 10
544.250205395279
 20
362.0678795726652
 30
0.0
 10
544.2507841154932
 20
361.8723728891179
 30
0.0
 10
544.2507809778391
 20
361.5380239229321
 30
0.0
 10
544.2502054774346
 20
361.3993317259685
 30
0.0
 10
544.2482903224436
 20
361.2440477340568
 30
0.0
 10
544.2474780013392
 20
361.2010081585911
 30
0.0
 10
544.2453837485356
 20
361.1386309113208
 30
0.0
 10
544.2441057179816
 20
361.119122282172
 30
0.0
 10
544.242436678282
 20
361.1190915615708
 30
0.0
  0
SPLINE
  5
E6
330
1F
100
AcDbEntity
  8
0
  6
Continuous
 62
   252
370
     0
100
AcDbSpline
210
0.0
220
0.0
230
1.0
 70
     8
 71
     3
 72
    23
 73
    19
 74
     0
 42
0.000000001
 43
0.00000001
 40
0.0
 40
0.0
 40
0.0
 40
0.0
 40
0.0634748378331939
 40
0.1269484864550965
 40
0.1904211158844246
 40
0.2538928961480728
 40
0.3173639972797719
 40
0.3808345893187112
 40
0.4443048423081647
 40
0.5077749262941299
 40
0.5712450113239725
 40
0.6347152674450417
 40
0.6981858647033181
 40
0.7616569731420376
 40
0.8251287628003198
 40
0.8886014037118245
 40
0.952075065903362
 40
1.0
 40
1.0
 40
1.0
 40
1.0
 10
533.1070888854009
 20
508.9072675385709
 30
0.0
 10
533.1073728178172
 20
508.9727088307652
 30
0.0
 10
533.1079406773304
 20
509.1035901891007
 30
0.0
 10
533.1087415226684
 20
509.2980187180282
 30
0.0
 10
533.1094688513709
 20
509.4886808100466
 30
0.0
 10
533.1100972564521
 20
509.6737411616738
 30
0.0
 10
533.1106071540939
 20
509.8514185083474
 30
0.0
 10
533.1109827156293
 20
510.0200025367875
 30
0.0
 10
533.1112126247098
 20
510.1778705320594
 30
0.0
 10
533.1112900236024
 20
510.3235025062282
 30
0.0
 10
533.1112126250061
 20
510.4554976208066
 30
0.0
 10
533.1109827135265
 20
510.5725810063698
 30
0.0
 10
533.1106071600669
 20
510.6736409101007
 30
0.0
 10
533.110097230689
 20
510.7576465654642
 30
0.0
 10
533.1094689417597
 20
510.82400457704
 30
0.0
 10
533.1087411763177
 20
510.8712715980165
 30
0.0
 10
533.108007221423
 20
510.8994851876101
 30
0.0
 10
533.1075095681516
 20
510.903061876639
 30
0.0
 10
533.1072954720945
 20
510.9046006086493
 30
0.0
  0
SPLINE
  5
E7
330
1F
100
AcDbEntity
  8
0
  6
Continuous
 62
   252
370
     0
100
AcDbSpline
210
0.0
220
0.0
230
1.0
 70
     8
 71
     3
 72
    18
 73
    14
 74
     0
 42
0.000000001
 43
0.00000001
 40
0.0
 40
0.0
 40
0.0
 40
0.0
 40
0.125
 40
0.125
 40
0.25
 40
0.25
 40
0.5
 40
0.5
 40
0.75
 40
0.75
 40
0.875
 40
0.875
 40
1.0
 40
1.0
 40
1.0
 40
1.0
 10
544.2424366159821
 20
510.7125947112709
 30
0.0
 10
544.2441094464581
 20
510.7125655118272
 30
0.0
 10
544.2453830917349
 20
510.6928543223891
 30
0.0
 10
544.247475416036
 20
510.6310378033785
 30
0.0
 10
544.2482901514087
 20
510.5882376990787
 30
0.0
 10
544.2502053952794
 20
510.4326856627661
 30
0.0
 10
544.2507841154934
 20
510.2946129958373
 30
0.0
 10
544.2507809778389
 20
509.9599526360896
 30
0.0
 10
544.2502054774343
 20
509.7641459788358
 30
0.0
 10
544.2482903224434
 20
509.4187960455936
 30
0.0
 10
544.2474780013389
 20
509.2951392008879
 30
0.0
 10
544.2453837485353
 20
509.0249218478615
 30
0.0
 10
544.2441057179815
 20
508.8785775456041
 30
0.0
 10
544.242436678282
 20
508.7129062225708
 30
0.0
  0
LINE
  5
E8
330
1F
100
AcDbEntity
  8
0
  6
Continuous
 62
   252
370
     0
100
AcDbLine
 10
533.1070888854
 20
508.9072675385
 30
0.0
 11
544.2424365704
 21
508.7128993217
 31
0.0
  0
SPLINE
  5
E9
330
1F
100
AcDbEntity
  8
0
  6
Continuous
 62
   252
370
     0
100
AcDbSpline
210
0.0
220
0.0
230
1.0
 70
     8
 71
     3
 72
     8
 73
     4
 74
     0
 42
0.000000001
 43
0.00000001
 40
0.0
 40
0.0
 40
0.0
 40
0.0
 40
1.0
 40
1.0
 40
1.0
 40
1.0
 10
544.2424366159821
 20
508.7128993208708
 30
0.0
 10
544.6952570751822
 20
471.1027838309708
 30
0.0
 10
544.7971473256822
 20
433.4884419798408
 30
0.0
 10
544.5480896225822
 20
395.8764246533708
 30
0.0
  0
SPLINE
  5
EA
330
1F
100
AcDbEntity
  8
0
  6
Continuous
 62
   252
370
     0
100
AcDbSpline
210
0.0
220
0.0
230
1.0
 70
     8
 71
     3
 72
     8
 73
     4
 74
     0
 42
0.000000001
 43
0.00000001
 40
0.0
 40
0.0
 40
0.0
 40
0.0
 40
1.0
 40
1.0
 40
1.0
 40
1.0
 10
544.5480896878821
 20
395.8764345221708
 30
0.0
 10
544.4757836403821
 20
384.9569690722709
 30
0.0
 10
544.3738987844822
 20
374.0376995459708
 30
0.0
 10
544.2424366159821
 20
363.1187862346709
 30
0.0
  0
SPLINE
  5
EB
330
1F
100
AcDbEntity
  8
0
  6
Continuous
 62
   252
370
     0
100
AcDbSpline
210
0.0
220
0.0
230
1.0
 70
     8
 71
     3
 72
    11
 73
     7
 74
     0
 42
0.000000001
 43
0.00000001
 40
0.0
 40
0.0
 40
0.0
 40
0.0
 40
0.25
 40
0.5
 40
0.75
 40
1.0
 40
1.0
 40
1.0
 40
1.0
 10
546.0217654912831
 20
395.8665049279261
 30
0.0
 10
546.0198980109499
 20
395.8665394943594
 30
0.0
 10
545.93931993279
 20
395.8671175922677
 30
0.0
 10
545.6119775808486
 20
395.8693416757427
 30
0.0
 10
545.12494560074
 20
395.8726048280176
 30
0.0
 10
544.7401425920831
 20
395.875162457326
 30
0.0
 10
544.5480870962831
 20
395.876434539526
 30
0.0
  0
SPLINE
  5
EC
330
1F
100
AcDbEntity
  8
0
  6
Continuous
 62
   252
370
     0
100
AcDbSpline
210
0.0
220
0.0
230
1.0
 70
     8
 71
     3
 72
    14
 73
    10
 74
     0
 42
0.000000001
 43
0.00000001
 40
0.0
 40
0.0
 40
0.0
 40
0.0
 40
0.25
 40
0.25
 40
0.5
 40
0.5
 40
0.75
 40
0.75
 40
1.0
 40
1.0
 40
1.0
 40
1.0
 10
545.7160391898955
 20
508.7309543776385
 30
0.0
 10
545.7137052517373
 20
508.7308862245429
 30
0.0
 10
545.6738099853383
 20
508.7303659488078
 30
0.0
 10
545.5246906791904
 20
508.7284967729435
 30
0.0
 10
545.4155210315738
 20
508.7271485549214
 30
0.0
 10
545.1438161653194
 20
508.7238207194525
 30
0.0
 10
544.9813800526094
 20
508.7218423161677
 30
0.0
 10
544.6269306337579
 20
508.7175439193975
 30
0.0
 10
544.435046615102
 20
508.7152254940921
 30
0.0
 10
544.2424366907775
 20
508.7129062225708
 30
0.0
  0
SPLINE
  5
ED
330
1F
100
AcDbEntity
  8
0
  6
Continuous
 62
   252
370
     0
100
AcDbSpline
210
0.0
220
0.0
230
1.0
 70
     8
 71
     3
 72
    11
 73
     7
 74
     0
 42
0.000000001
 43
0.00000001
 40
0.0
 40
0.0
 40
0.0
 40
0.0
 40
0.25
 40
0.5
 40
0.75
 40
1.0
 40
1.0
 40
1.0
 40
1.0
 10
545.7160392112477
 20
509.2310004802715
 30
0.0
 10
545.7141719935678
 20
509.4230728804843
 30
0.0
 10
545.6335983266814
 20
509.8083197069491
 30
0.0
 10
545.3062729522096
 20
510.2971157708611
 30
0.0
 10
544.8192658833073
 20
510.6270684348294
 30
0.0
 10
544.4344824004098
 20
510.7097024812365
 30
0.0
 10
544.2424366160974
 20
510.7125947112688
 30
0.0
  0
SPLINE
  5
EE
330
1F
100
AcDbEntity
  8
0
  6
Continuous
 62
   252
370
     0
100
AcDbSpline
210
0.0
220
0.0
230
1.0
 70
     8
 71
     3
 72
    11
 73
     7
 74
     0
 42
0.000000001
 43
0.00000001
 40
0.0
 40
0.0
 40
0.0
 40
0.0
 40
0.25
 40
0.5
 40
0.75
 40
1.0
 40
1.0
 40
1.0
 40
1.0
 10
545.7160392112479
 20
363.1007328987254
 30
0.0
 10
545.714171993568
 20
363.1007957439331
 30
0.0
 10
545.6335983266817
 20
363.1018467993932
 30
0.0
 10
545.3062729522098
 20
363.1058904713775
 30
0.0
 10
544.819265883307
 20
363.1118233072547
 30
0.0
 10
544.4344824004093
 20
363.1164734114596
 30
0.0
 10
544.2424366160967
 20
363.1187862232965
 30
0.0
  0
SPLINE
  5
EF
330
1F
100
AcDbEntity
  8
0
  6
Continuous
 62
   252
370
     0
100
AcDbSpline
210
0.0
220
0.0
230
1.0
 70
     8
 71
     3
 72
    14
 73
    10
 74
     0
 42
0.000000001
 43
0.00000001
 40
0.0
 40
0.0
 40
0.0
 40
0.0
 40
0.25
 40
0.25
 40
0.5
 40
0.5
 40
0.75
 40
0.75
 40
1.0
 40
1.0
 40
1.0
 40
1.0
 10
545.7160391898955
 20
362.6006852490032
 30
0.0
 10
545.7137052517373
 20
362.4080461736182
 30
0.0
 10
545.6738099853383
 20
362.2159326127985
 30
0.0
 10
545.5246906791904
 20
361.8606566639573
 30
0.0
 10
545.4155210315738
 20
361.6976238649071
 30
0.0
 10
545.1438161653194
 20
361.4244454391952
 30
0.0
 10
544.9813800526103
 20
361.3143994559553
 30
0.0
 10
544.6269306337588
 20
361.1633756354148
 30
0.0
 10
544.435046615102
 20
361.1224528849324
 30
0.0
 10
544.2424366907775
 20
361.1190908455716
 30
0.0
  0
ARC
  5
F0
330
1F
100
AcDbEntity
  8
0
  6
Continuous
 62
     7
370
    30
100
AcDbCircle
 10
41.4516373178
 20
458.8426285647
 30
0.0
 40
0.1000000000000229
100
AcDbArc
 50
47.0663979575
 51
110.0117664589
  0
ARC
  5
F1
330
1F
100
AcDbEntity
  8
0
  6
Continuous
 62
     7
370
    30
100
AcDbCircle
 10
41.4516373178
 20
412.9890572753
 30
0.0
 40
0.1000000000000132
100
AcDbArc
 50
249.9882335411
 51
312.9336020425
  0
ARC
  5
F2
330
1F
100
AcDbEntity
  8
0
  6
Continuous
 62
     7
370
    30
100
AcDbCircle
 10
49.8016373178
 20
435.91584292
 30
0.0
 40
24.5000000000045
100
AcDbArc
 50
110.0117664665
 51
125.2812618273
  0
ARC
  5
F3
330
1F
100
AcDbEntity
  8
0
  6
Continuous
 62
     7
370
    30
100
AcDbCircle
 10
49.8016373178
 20
435.91584292
 30
0.0
 40
24.50000000000455
100
AcDbArc
 50
200.7996984537
 51
249.9882335335
  0
LINE
  5
F4
330
1F
100
AcDbEntity
  8
0
  6
Continuous
 62
     7
370
    30
100
AcDbLine
 10
86.4483082713
 20
458.91584292
 30
0.0
 11
41.5197523542
 21
458.91584292
 31
0.0
  0
LINE
  5
F5
330
1F
100
AcDbEntity
  8
0
  6
Continuous
 62
     7
370
    30
100
AcDbLine
 10
41.5197523542
 20
412.91584292
 30
0.0
 11
86.448308273
 21
412.91584292
 31
0.0
  0
ARC
  5
F6
330
1F
100
AcDbEntity
  8
0
  6
Continuous
 62
     7
370
    30
100
AcDbCircle
 10
6136.4014871278
 20
435.9158427778
 30
0.0
 40
6050.000000001149
100
AcDbArc
 50
180.2254141807
 51
180.6942666986
  0
ARC
  5
F7
330
1F
100
AcDbEntity
  8
0
  6
Continuous
 62
     7
370
    30
100
AcDbCircle
 10
6136.4014871278
 20
435.9158427778
 30
0.0
 40
6050.0
100
AcDbArc
 50
179.3057334471
 51
179.7745858214
  0
LINE
  5
F8
330
1F
100
AcDbEntity
  8
0
  6
Continuous
 62
     7
370
    30
100
AcDbLine
 10
99.8926997153
 20
360.9253285741
 30
0.0
 11
99.9054260664
 21
360.9246608628
 31
0.0
  0
LINE
  5
F9
330
1F
100
AcDbEntity
  8
0
  6
Continuous
 62
     7
370
    30
100
AcDbLine
 10
99.9053190635
 20
510.907025495
 30
0.0
 11
99.8926997029
 21
510.9063569364
 31
0.0
  0
ARC
  5
FA
330
1F
100
AcDbEntity
  8
0
  6
Continuous
 62
     7
370
    30
100
AcDbCircle
 10
88.3455247606
 20
362.6265114973
 30
0.0
 40
1.50000000000002
100
AcDbArc
 50
180.6942666999
 51
269.0
  0
SPLINE
  5
FB
330
1F
100
AcDbEntity
  8
0
  6
Continuous
 62
     7
370
    30
100
AcDbSpline
210
0.0
220
0.0
230
1.0
 70
     8
 71
     3
 72
   151
 73
   147
 74
     0
 42
0.000000001
 43
0.00000001
 40
0.0
 40
0.0
 40
0.0
 40
0.0
 40
0.007736007137008
 40
0.0153462141085069
 40
0.0228329793145021
 40
0.0301985934240003
 40
0.0374452813385691
 40
0.0445752041015587
 40
0.0511926420678288
 40
0.0577098550173973
 40
0.064128507005831
 40
0.0704502170973617
 40
0.0766765606042605
 40
0.0844823516781682
 40
0.0921385619615031
 40
0.0996481692120276
 40
0.1070140492257894
 40
0.1142389794198185
 40
0.1213256422906839
 40
0.1282766287526169
 40
0.135094441358875
 40
0.141781497409899
 40
0.1483401319517295
 40
0.1547726006680654
 40
0.1610810826692497
 40
0.1672676831813999
 40
0.1733344361387931
 40
0.1798717838684391
 40
0.1862690154611642
 40
0.1925285604367303
 40
0.1986527584251181
 40
0.204643862601167
 40
0.2108550441343607
 40
0.2169214412205907
 40
0.222845447422274
 40
0.2286293630138681
 40
0.2342753986942998
 40
0.239785679134881
 40
0.2448585814280327
 40
0.2498142629329077
 40
0.2546543100801386
 40
0.2593802510684467
 40
0.2639935579774905
 40
0.2684956487892032
 40
0.2728878893210732
 40
0.2771715950747035
 40
0.2813480330028698
 40
0.2854184231982037
 40
0.2893140407248593
 40
0.2931095694833454
 40
0.296806042128109
 40
0.3004044532769414
 40
0.3045190953402412
 40
0.3085574376927994
 40
0.3126012579453762
 40
0.3166510825561845
 40
0.320706821855639
 40
0.3247683873848612
 40
0.3288356918588856
 40
0.3400496711588217
 40
0.3513046540052672
 40
0.3714995367404827
 40
0.3918105309808402
 40
0.4122292841511915
 40
0.4327489231218348
 40
0.4407748209336943
 40
0.4486894494147245
 40
0.4564950361938903
 40
0.464193752844912
 40
0.4723899226979596
 40
0.4804664744163634
 40
0.4884258787693013
 40
0.4962705208458247
 40
0.5040027028497076
 40
0.5116246468128437
 40
0.5204690408882516
 40
0.5291666637192102
 40
0.5377207536306761
 40
0.5461344153258068
 40
0.548465484281188
 40
0.550816803056937
 40
0.5532553746224286
 40
0.5557830540942406
 40
0.5583993562955673
 40
0.5611037849732116
 40
0.5638958334815557
 40
0.5667749854793586
 40
0.5705172611083099
 40
0.574395302886225
 40
0.5784080304021421
 40
0.5825543472057411
 40
0.5868331431517433
 40
0.591243296762149
 40
0.5957836775997651
 40
0.6004531486463709
 40
0.6052505686787655
 40
0.61017479463584
 40
0.615133412025259
 40
0.6202121650991488
 40
0.6254099788244788
 40
0.6307257849804373
 40
0.6363277189535717
 40
0.6420527527252676
 40
0.6478997525029179
 40
0.6538676011333083
 40
0.6599552002001864
 40
0.6661614720363338
 40
0.6724853616425475
 40
0.678925838506036
 40
0.6857969579144015
 40
0.6927938085307976
 40
0.6999153037101347
 40
0.707160393818657
 40
0.7145280677364616
 40
0.7220173548815824
 40
0.7296273382892853
 40
0.7373571648640033
 40
0.7452060461307645
 40
0.7531732620970549
 40
0.7612581652437627
 40
0.7694601845405243
 40
0.777300344076865
 40
0.7852438383943549
 40
0.7932903950499696
 40
0.8014398145699133
 40
0.8096919735377512
 40
0.8185564834854548
 40
0.8275365631976667
 40
0.8366323695452934
 40
0.8458441720583869
 40
0.8551723572471293
 40
0.8646174329692549
 40
0.8736304198995892
 40
0.8827485193677351
 40
0.8919724747096065
 40
0.9013031389906258
 40
0.9107414784825485
 40
0.9202885761964666
 40
0.9299456354770389
 40
0.9397139836634104
 40
0.9495950758226512
 40
0.9595904985619714
 40
0.9695203836096058
 40
0.9795639754634949
 40
0.9897231699004241
 40
1.0
 40
1.0
 40
1.0
 40
1.0
 10
88.74712271750269
 20
510.712399952354
 30
0.0
 10
88.74486858498989
 20
510.7123606102286
 30
0.0
 10
88.74039697585643
 20
510.7122825657455
 30
0.0
 10
88.73380888395087
 20
510.7121675816997
 30
0.0
 10
88.7273736115286
 20
510.7120552649394
 30
0.0
 10
88.72109140926123
 20
510.7119456198404
 30
0.0
 10
88.71495685121535
 20
510.7118385516927
 30
0.0
 10
88.7090775869431
 20
510.711735939326
 30
0.0
 10
88.70344332860915
 20
510.711637603173
 30
0.0
 10
88.69804438803399
 20
510.7115433741333
 30
0.0
 10
88.69276352809595
 20
510.711451206032
 30
0.0
 10
88.68759776427605
 20
510.7113610467744
 30
0.0
 10
88.68209154155375
 20
510.7112649454525
 30
0.0
 10
88.67626879499164
 20
510.7111633198176
 30
0.0
 10
88.67015344413768
 20
510.7110565873463
 30
0.0
 10
88.664205142675
 20
510.7109527704629
 30
0.0
 10
88.65841873355198
 20
510.7108517791503
 30
0.0
 10
88.65278926566248
 20
510.7107535269876
 30
0.0
 10
88.64731198478488
 20
510.7106579309892
 30
0.0
 10
88.6419823249292
 20
510.7105649114561
 30
0.0
 10
88.63679590007706
 20
510.7104743918299
 30
0.0
 10
88.63174849629785
 20
510.7103862985567
 30
0.0
 10
88.62683606422597
 20
510.7103005609547
 30
0.0
 10
88.62205471188419
 20
510.7102171110892
 30
0.0
 10
88.61740069783825
 20
510.7101358836537
 30
0.0
 10
88.61287042466878
 20
510.7100568158549
 30
0.0
 10
88.60831785788432
 20
510.7099773589152
 30
0.0
 10
88.60374916500771
 20
510.7098976204654
 30
0.0
 10
88.59917029355822
 20
510.7098177042947
 30
0.0
 10
88.59472461254916
 20
510.7097401126484
 30
0.0
 10
88.59040821256724
 20
510.7096647772873
 30
0.0
 10
88.5861355106949
 20
510.7095902045004
 30
0.0
 10
88.58190874704117
 20
510.709516433371
 30
0.0
 10
88.57773004630752
 20
510.709443500967
 30
0.0
 10
88.57368046525671
 20
510.7093728219929
 30
0.0
 10
88.56975623479092
 20
510.7093043306589
 30
0.0
 10
88.56595374516809
 20
510.709237963957
 30
0.0
 10
88.56233720758276
 20
510.7091748425943
 30
0.0
 10
88.55889844507564
 20
510.7091148238613
 30
0.0
 10
88.55562970786562
 20
510.7090577725049
 30
0.0
 10
88.55245794975919
 20
510.7090024136037
 30
0.0
 10
88.54938071128444
 20
510.7089487042277
 30
0.0
 10
88.54639562888522
 20
510.7088966031208
 30
0.0
 10
88.54350043095394
 20
510.7088460706321
 30
0.0
 10
88.54069293407636
 20
510.7087970686504
 30
0.0
 10
88.53797103947977
 20
510.7087495605412
 30
0.0
 10
88.53533272966257
 20
510.7087035110891
 30
0.0
 10
88.53279069881197
 20
510.70865914186
 30
0.0
 10
88.53034203908827
 20
510.7086164021033
 30
0.0
 10
88.52798396317601
 20
510.7085752431735
 30
0.0
 10
88.5256995113524
 20
510.7085353690455
 30
0.0
 10
88.52336142791931
 20
510.708494558521
 30
0.0
 10
88.52096645112292
 20
510.7084527545583
 30
0.0
 10
88.5184951750165
 20
510.7084096185325
 30
0.0
 10
88.51605138312047
 20
510.7083669623242
 30
0.0
 10
88.51361846224687
 20
510.708324495861
 30
0.0
 10
88.51119641292708
 20
510.7082822191759
 30
0.0
 10
88.50878535154077
 20
510.708240134294
 30
0.0
 10
88.50498083809939
 20
510.7081737268374
 30
0.0
 10
88.49982079715336
 20
510.7080836588094
 30
0.0
 10
88.49166500268605
 20
510.7079413002959
 30
0.0
 10
88.48200846697033
 20
510.7077727466831
 30
0.0
 10
88.47100320082453
 20
510.7075806514752
 30
0.0
 10
88.46030369664422
 20
510.7073938934471
 30
0.0
 10
88.4520433664316
 20
510.7072497114594
 30
0.0
 10
88.44604445730192
 20
510.7071450013101
 30
0.0
 10
88.44219246367543
 20
510.7070777639088
 30
0.0
 10
88.43844711180304
 20
510.7070123868403
 30
0.0
 10
88.43471016961354
 20
510.7069471553063
 30
0.0
 10
88.43098589930706
 20
510.7068821436127
 30
0.0
 10
88.42727843593653
 20
510.7068174238119
 30
0.0
 10
88.4236803904673
 20
510.7067546125462
 30
0.0
 10
88.4201882496041
 20
510.70669364849
 30
0.0
 10
88.41679863787489
 20
510.7066344727237
 30
0.0
 10
88.41331686634776
 20
510.70657368628
 30
0.0
 10
88.40975629263322
 20
510.7065115220273
 30
0.0
 10
88.40613018657037
 20
510.7064482111682
 30
0.0
 10
88.40262814710528
 20
510.7063870642135
 30
0.0
 10
88.40004213424803
 20
510.7063419088883
 30
0.0
 10
88.39830786420696
 20
510.7063116262391
 30
0.0
 10
88.39736928392455
 20
510.7062952352695
 30
0.0
 10
88.39640734063111
 20
510.7062784240807
 30
0.0
 10
88.39541412088678
 20
510.7062610569803
 30
0.0
 10
88.39438994728005
 20
510.7062431388476
 30
0.0
 10
88.39333566179576
 20
510.7062246845408
 30
0.0
 10
88.39225207185292
 20
510.7062057080458
 30
0.0
 10
88.39104003442358
 20
510.7061844721985
 30
0.0
 10
88.38969597004495
 20
510.7061609111306
 30
0.0
 10
88.38821704486388
 20
510.7061349719024
 30
0.0
 10
88.3866980151685
 20
510.7061083152416
 30
0.0
 10
88.38514070160531
 20
510.7060809727145
 30
0.0
 10
88.38354696108458
 20
510.7060529764953
 30
0.0
 10
88.3819186846158
 20
510.7060243593277
 30
0.0
 10
88.38025779494275
 20
510.705995154485
 30
0.0
 10
88.37856624429921
 20
510.7059653957294
 30
0.0
 10
88.37684601219847
 20
510.7059351172748
 30
0.0
 10
88.37510989729824
 20
510.7059045438334
 30
0.0
 10
88.37336002006896
 20
510.7058737123849
 30
0.0
 10
88.37159846181399
 20
510.7058426592025
 30
0.0
 10
88.36981702651896
 20
510.7058112391417
 30
0.0
 10
88.36799859768082
 20
510.7057791493291
 30
0.0
 10
88.36614523321512
 20
510.7057464245734
 30
0.0
 10
88.36425912705246
 20
510.7057131020083
 30
0.0
 10
88.36236051299409
 20
510.7056795378958
 30
0.0
 10
88.36045160915498
 20
510.7056457703671
 30
0.0
 10
88.35853464360736
 20
510.7056118377006
 30
0.0
 10
88.3566118529539
 20
510.705577778297
 30
0.0
 10
88.35468548097278
 20
510.7055436306557
 30
0.0
 10
88.35272634209542
 20
510.705508875694
 30
0.0
 10
88.35073762807721
 20
510.7054735670936
 30
0.0
 10
88.34872277341961
 20
510.7054377626591
 30
0.0
 10
88.34671412540901
 20
510.7054020350324
 30
0.0
 10
88.34471428343488
 20
510.7053664286645
 30
0.0
 10
88.34272584769676
 20
510.7053309879881
 30
0.0
 10
88.34075141035916
 20
510.7052957572636
 30
0.0
 10
88.33879358503516
 20
510.705260781094
 30
0.0
 10
88.33685499861045
 20
510.7052261042818
 30
0.0
 10
88.33493827290818
 20
510.7051917715096
 30
0.0
 10
88.33304602980652
 20
510.7051578274286
 30
0.0
 10
88.3311808906134
 20
510.7051243166484
 30
0.0
 10
88.32938116919975
 20
510.7050919261233
 30
0.0
 10
88.3276465515578
 20
510.7050606515539
 30
0.0
 10
88.32597656196019
 20
510.7050304858729
 30
0.0
 10
88.3243397394562
 20
510.7050008595177
 30
0.0
 10
88.32273829602768
 20
510.7049718100077
 30
0.0
 10
88.32114225685811
 20
510.7049427895869
 30
0.0
 10
88.31955737722102
 20
510.7049138948772
 30
0.0
 10
88.31798980226867
 20
510.7048852290818
 30
0.0
 10
88.31647240002718
 20
510.7048573879166
 30
0.0
 10
88.31500788921814
 20
510.7048304173809
 30
0.0
 10
88.31359901672292
 20
510.7048043639331
 30
0.0
 10
88.3122747564752
 20
510.7047797612207
 30
0.0
 10
88.31103335949142
 20
510.7047565804161
 30
0.0
 10
88.30987295391573
 20
510.7047347906088
 30
0.0
 10
88.30877182342316
 20
510.7047139819644
 30
0.0
 10
88.30773245107709
 20
510.7046941964468
 30
0.0
 10
88.30675736983127
 20
510.7046754768666
 30
0.0
 10
88.30584916938083
 20
510.7046578669983
 30
0.0
 10
88.3050104977027
 20
510.7046414116107
 30
0.0
 10
88.30424408437207
 20
510.7046261568651
 30
0.0
 10
88.3035526828243
 20
510.7046121493376
 30
0.0
 10
88.30294303618196
 20
510.7045995172579
 30
0.0
 10
88.30241577212519
 20
510.7045882714551
 30
0.0
 10
88.3019742526176
 20
510.7045784692379
 30
0.0
 10
88.30161018977225
 20
510.7045699560873
 30
0.0
 10
88.30144282900277
 20
510.7045655519793
 30
0.0
 10
88.30135866692956
 20
510.7045633372497
 30
0.0
  0
SPLINE
  5
FC
330
1F
100
AcDbEntity
  8
0
  6
Continuous
 62
     7
370
    30
100
AcDbSpline
210
0.0
220
0.0
230
1.0
 70
     8
 71
     3
 72
    31
 73
    27
 74
     0
 42
0.000000001
 43
0.00000001
 40
0.0
 40
0.0
 40
0.0
 40
0.0
 40
0.0495213498912904
 40
0.0990799949271815
 40
0.1470249236732289
 40
0.1929471313608296
 40
0.2371431507617033
 40
0.2810491565267839
 40
0.3248399495235328
 40
0.3685142844306099
 40
0.3934225741153665
 40
0.4191234856777439
 40
0.4481587069364319
 40
0.4807059424352267
 40
0.5167670627761927
 40
0.5563461791238303
 40
0.599449782586717
 40
0.6400651127269718
 40
0.6833913479067834
 40
0.729432618780681
 40
0.7781887908209237
 40
0.8191471338802969
 40
0.8618287953197473
 40
0.9062170362212709
 40
0.9522862080613975
 40
1.0
 40
1.0
 40
1.0
 40
1.0
 10
88.30134373365412
 20
510.7045629274691
 30
0.0
 10
88.2635198691723
 20
510.7026723784523
 30
0.0
 10
88.18784365458585
 20
510.6988898566228
 30
0.0
 10
88.07649752949855
 20
510.6823239055137
 30
0.0
 10
87.96935263766278
 20
510.6586890484454
 30
0.0
 10
87.86813093960691
 20
510.6284469460628
 30
0.0
 10
87.77212201313843
 20
510.5924528880441
 30
0.0
 10
87.68023013093152
 20
510.550762012585
 30
0.0
 10
87.59168214528727
 20
510.5032180776616
 30
0.0
 10
87.51881559650265
 20
510.4575836529231
 30
0.0
 10
87.45980328772349
 20
510.4161705446827
 30
0.0
 10
87.41134132264527
 20
510.3792836448955
 30
0.0
 10
87.35996666648462
 20
510.3366682976248
 30
0.0
 10
87.30479921038118
 20
510.2863354193909
 30
0.0
 10
87.24668139148515
 20
510.2274294527782
 30
0.0
 10
87.18673580988023
 20
510.1591854819139
 30
0.0
 10
87.1290889156918
 20
510.0845196710054
 30
0.0
 10
87.07473942366903
 20
510.0039521388452
 30
0.0
 10
87.02452250959139
 20
509.9181192544896
 30
0.0
 10
86.9774947090009
 20
509.8234804091634
 30
0.0
 10
86.93810037968152
 20
509.727355764455
 30
0.0
 10
86.90619701657626
 20
509.6312360007961
 30
0.0
 10
86.88130072723968
 20
509.5364994718563
 30
0.0
 10
86.86217379450996
 20
509.4364699139778
 30
0.0
 10
86.84903839737343
 20
509.3315192128553
 30
0.0
 10
86.84678561663345
 20
509.2598251929946
 30
0.0
 10
86.84563947337695
 20
509.2233495538269
 30
0.0
  0
SPLINE
  5
FD
330
1F
100
AcDbEntity
  8
0
  6
Continuous
 62
     7
370
    30
100
AcDbSpline
210
0.0
220
0.0
230
1.0
 70
     8
 71
     3
 72
    45
 73
    41
 74
     0
 42
0.000000001
 43
0.00000001
 40
0.0
 40
0.0
 40
0.0
 40
0.0
 40
0.0259438367548075
 40
0.0519090951647117
 40
0.0778739239273122
 40
0.1038171743138983
 40
0.1304932696955959
 40
0.1571936829269458
 40
0.1838936370836065
 40
0.2105691058817224
 40
0.2365215267233525
 40
0.2624971888581051
 40
0.2884725209173287
 40
0.3144244912518333
 40
0.3411685571016173
 40
0.367938728860943
 40
0.3947086868126355
 40
0.4214524608215299
 40
0.4467702169820059
 40
0.4721103591208546
 40
0.4974504886241118
 40
0.5227682275389991
 40
0.5488369755730826
 40
0.5749300309281514
 40
0.6010232516032722
 40
0.6270922252837319
 40
0.6521715068548795
 40
0.6772719867860023
 40
0.7023727347586601
 40
0.7274523821492266
 40
0.753232254175815
 40
0.77903441893949
 40
0.8048369718395137
 40
0.8306173735991667
 40
0.8588008370237423
 40
0.8870387020754937
 40
0.9153052796495742
 40
0.9435732613824858
 40
0.971814369989885
 40
1.0
 40
1.0
 40
1.0
 40
1.0
 10
27.50455230654231
 20
431.2158429200451
 30
0.0
 10
27.51572678968324
 20
431.162187484861
 30
0.0
 10
27.53808498266219
 20
431.0548323115535
 30
0.0
 10
27.56985778927694
 20
430.8936801871
 30
0.0
 10
27.60025695077226
 20
430.7327905435913
 30
0.0
 10
27.62935595396264
 20
430.5709400334593
 30
0.0
 10
27.65706875565756
 20
430.4083881085915
 30
0.0
 10
27.68328550579349
 20
430.2454117770203
 30
0.0
 10
27.70768619081358
 20
430.0838596259941
 30
0.0
 10
27.72999601382982
 20
429.9255278313698
 30
0.0
 10
27.75021087874351
 20
429.770627346828
 30
0.0
 10
27.76836387577364
 20
429.6193118613471
 30
0.0
 10
27.78459548766005
 20
429.4704741440502
 30
0.0
 10
27.79900177828171
 20
429.322953443662
 30
0.0
 10
27.81146159937818
 20
429.1771086260895
 30
0.0
 10
27.82188872327794
 20
429.0332799081111
 30
0.0
 10
27.83013308033935
 20
428.8932448891405
 30
0.0
 10
27.83605638784789
 20
428.7597523893713
 30
0.0
 10
27.83976201714522
 20
428.6328069946541
 30
0.0
 10
27.84139431129035
 20
428.5122919105955
 30
0.0
 10
27.84102128731761
 20
428.3961086829534
 30
0.0
 10
27.83861603610153
 20
428.2834009503611
 30
0.0
 10
27.83409608850909
 20
428.1745328076461
 30
0.0
 10
27.82741879666933
 20
428.0698031383665
 30
0.0
 10
27.81865276229049
 20
427.9704723388524
 30
0.0
 10
27.80795517920992
 20
427.8779418435642
 30
0.0
 10
27.79542530712931
 20
427.792138085412
 30
0.0
 10
27.78119298504575
 20
427.7128702003863
 30
0.0
 10
27.76513635880617
 20
427.6391524249944
 30
0.0
 10
27.7471271925553
 20
427.570486821499
 30
0.0
 10
27.72712970095818
 20
427.5071779178052
 30
0.0
 10
27.70514215381327
 20
427.4494419341906
 30
0.0
 10
27.68140717740321
 20
427.3979353703225
 30
0.0
 10
27.65519530311389
 20
427.3513292537039
 30
0.0
 10
27.62633668340518
 20
427.3104423028151
 30
0.0
 10
27.5947101727987
 20
427.2760078945377
 30
0.0
 10
27.56126177732649
 20
427.249141469019
 30
0.0
 10
27.52607157848189
 20
427.2300587270968
 30
0.0
 10
27.48939220799453
 20
427.21807604704
 30
0.0
 10
27.46365457253602
 20
427.2165868076348
 30
0.0
 10
27.45079840738911
 20
427.21584292004
 30
0.0
  0
ARC
  5
FE
330
1F
100
AcDbEntity
  8
0
  6
Continuous
 62
     7
370
    30
100
AcDbCircle
 10
49.8016502695
 20
435.9158402022
 30
0.0
 40
22.78706984286032
100
AcDbArc
 50
144.3949744474
 51
191.9031043982
  0
SPLINE
  5
FF
330
1F
100
AcDbEntity
  8
0
  6
Continuous
 62
     7
370
    30
100
AcDbSpline
210
0.0
220
0.0
230
1.0
 70
     8
 71
     3
 72
    51
 73
    47
 74
     0
 42
0.000000001
 43
0.00000001
 40
0.0
 40
0.0
 40
0.0
 40
0.0
 40
0.0215605005214166
 40
0.0431210600906488
 40
0.0648691154283594
 40
0.086617344396166
 40
0.1089394437523278
 40
0.1312618317952633
 40
0.1537704018624757
 40
0.1762793285779945
 40
0.1978329054511347
 40
0.2193867968091547
 40
0.2412638091807229
 40
0.2631567590268044
 40
0.2850514089268987
 40
0.3069307412098664
 40
0.3291280788004479
 40
0.351325690769005
 40
0.3716302050156329
 40
0.3919395158701197
 40
0.4122445856773032
 40
0.4327049856164086
 40
0.4531695799410749
 40
0.4736304247714903
 40
0.4945268220112989
 40
0.5154270938879293
 40
0.5363238574835354
 40
0.5573488222084716
 40
0.5783772682167381
 40
0.5994025113316919
 40
0.6261221409708906
 40
0.6528419253728982
 40
0.6796599290630091
 40
0.706478050563098
 40
0.7305720890157987
 40
0.7546702667734687
 40
0.7787644897466512
 40
0.8030030629711425
 40
0.8272456210458217
 40
0.8514843045252011
 40
0.8761623017948346
 40
0.9008443652602862
 40
0.9255224119024245
 40
0.9503469167393913
 40
0.975175505232322
 40
1.0
 40
1.0
 40
1.0
 40
1.0
 10
35.65066561970297
 20
455.5699157517543
 30
0.0
 10
35.64998389248426
 20
455.5556743298083
 30
0.0
 10
35.64862043617974
 20
455.5271914469132
 30
0.0
 10
35.63762379045819
 20
455.475210658144
 30
0.0
 10
35.62004689541654
 20
455.4164923665808
 30
0.0
 10
35.59510907280891
 20
455.3499312582311
 30
0.0
 10
35.56294993370529
 20
455.2758462830083
 30
0.0
 10
35.52344809173351
 20
455.1940347426437
 30
0.0
 10
35.47704605118994
 20
455.1053327292379
 30
0.0
 10
35.42473775185537
 20
455.0113430880781
 30
0.0
 10
35.36723779390717
 20
454.912894421876
 30
0.0
 10
35.30483604872883
 20
454.8100581649277
 30
0.0
 10
35.23684718826475
 20
454.7015289625027
 30
0.0
 10
35.16349409096187
 20
454.5875070008753
 30
0.0
 10
35.08543673035417
 20
454.4688342175296
 30
0.0
 10
35.0025764569398
 20
454.3451917581318
 30
0.0
 10
34.91512065811884
 20
454.2167498879979
 30
0.0
 10
34.82589214323045
 20
454.0874570105526
 30
0.0
 10
34.73593134651459
 20
453.9585139767217
 30
0.0
 10
34.64579135928184
 20
453.8304567486157
 30
0.0
 10
34.55271499073773
 20
453.6992264799562
 30
0.0
 10
34.45686150648196
 20
453.5649479096866
 30
0.0
 10
34.35838415464536
 20
453.4277474419494
 30
0.0
 10
34.25697793674703
 20
453.2871138755522
 30
0.0
 10
34.15275017117673
 20
453.14311828437
 30
0.0
 10
34.04580604238658
 20
452.9958381899075
 30
0.0
 10
33.9368011688409
 20
452.8461009618883
 30
0.0
 10
33.82586626104158
 20
452.6940097006403
 30
0.0
 10
33.71312159067158
 20
452.5396671954816
 30
0.0
 10
33.58861180199045
 20
452.3693961940974
 30
0.0
 10
33.45200610662154
 20
452.1827151851365
 30
0.0
 10
33.30284591917869
 20
451.9789324517077
 30
0.0
 10
33.15178582530343
 20
451.7725052032981
 30
0.0
 10
33.00419175928786
 20
451.5706901791951
 30
0.0
 10
32.86058805141074
 20
451.37414569718
 30
0.0
 10
32.7212539874745
 20
451.1832342042094
 30
0.0
 10
32.58081811297778
 20
450.9905617550255
 30
0.0
 10
32.43939507036391
 20
450.7962413824016
 30
0.0
 10
32.29709095093158
 20
450.6003921085104
 30
0.0
 10
32.15343304925808
 20
450.4023348593437
 30
0.0
 10
32.00851911519504
 20
450.2021706140038
 30
0.0
 10
31.8624452230688
 20
450.0000129264378
 30
0.0
 10
31.71588782411076
 20
449.7967859105435
 30
0.0
 10
31.56895218705685
 20
449.5926106443515
 30
0.0
 10
31.4217158635498
 20
449.3876326124179
 30
0.0
 10
31.32365592906581
 20
449.2507684971284
 30
0.0
 10
31.27463000417531
 20
449.1823420814704
 30
0.0
  0
LINE
  5
100
330
1F
100
AcDbEntity
  8
0
  6
Continuous
 62
     7
370
    30
100
AcDbLine
 10
35.6506656197
 20
455.5699157518
 30
0.0
 11
35.6506656197
 21
455.91584292
 31
0.0
  0
LINE
  5
101
330
1F
100
AcDbEntity
  8
0
  6
Continuous
 62
     7
370
    30
100
AcDbLine
 10
26.8983625625
 20
427.21584292
 30
0.0
 11
27.4507984074
 21
427.21584292
 31
0.0
  0
LINE
  5
102
330
1F
100
AcDbEntity
  8
0
  6
Continuous
 62
     7
370
    30
100
AcDbLine
 10
86.448308273
 20
412.1138756731
 30
0.0
 11
86.4483082712
 21
459.7178098825
 31
0.0
  0
LINE
  5
103
330
1F
100
AcDbEntity
  8
0
  6
Continuous
 62
     7
370
    30
100
AcDbLine
 10
100.4016373178
 20
508.9072678351
 30
0.0
 11
100.4016373178
 21
362.924418017
 31
0.0
  0
LINE
  5
104
330
1F
100
AcDbEntity
  8
0
  6
Continuous
 62
     7
370
    30
100
AcDbLine
 10
99.8929111146
 20
360.9247226267
 30
0.0
 11
88.757563384
 21
361.1190908443
 31
0.0
  0
LINE
  5
105
330
1F
100
AcDbEntity
  8
0
  6
Continuous
 62
     7
370
    30
100
AcDbLine
 10
99.8929111146
 20
510.9069629289
 30
0.0
 11
99.8927045985
 21
510.9046014723
 31
0.0
  0
LINE
  5
106
330
1F
100
AcDbEntity
  8
0
  6
Continuous
 62
     7
370
    30
100
AcDbLine
 10
99.8929111146
 20
510.9069629288
 30
0.0
 11
88.7575634296
 21
510.712594712
 31
0.0
  0
SPLINE
  5
107
330
1F
100
AcDbEntity
  8
0
  6
Continuous
 62
     7
370
    30
100
AcDbSpline
210
0.0
220
0.0
230
1.0
 70
    24
 71
     3
 72
    14
 73
    10
 74
     0
 42
0.000000001
 43
0.00000001
 40
0.0
 40
0.0
 40
0.0
 40
0.0
 40
0.25
 40
0.25
 40
0.5
 40
0.5
 40
0.75
 40
0.75
 40
1.0
 40
1.0
 40
1.0
 40
1.0
 10
100.4016373178179
 20
362.9244180169708
 30
0.0
 10
100.4016373178179
 20
362.7280822886551
 30
0.0
 10
100.4016373178179
 20
362.5318414905663
 30
0.0
 10
100.4016373178179
 20
362.1690924261067
 30
0.0
 10
100.4016373178179
 20
362.0027104379242
 30
0.0
 10
100.4016373178179
 20
361.725070814763
 30
0.0
 10
100.4016373178179
 20
361.6139225933416
 30
0.0
 10
100.4016373178179
 20
361.4636766073317
 30
0.0
 10
100.4016373178179
 20
361.4246465121246
 30
0.0
 10
100.4016373178179
 20
361.4246464759709
 30
0.0
  0
SPLINE
  5
108
330
1F
100
AcDbEntity
  8
0
  6
Continuous
 62
     7
370
    30
100
AcDbSpline
210
0.0
220
0.0
230
1.0
 70
     8
 71
     3
 72
    19
 73
    15
 74
     0
 42
0.000000001
 43
0.00000001
 40
0.0
 40
0.0
 40
0.0
 40
0.0
 40
0.0846662004835655
 40
0.1693324009671263
 40
0.2539986014506934
 40
0.3386648019342667
 40
0.4233310024178369
 40
0.5079972029014
 40
0.5926634033849645
 40
0.6773296038685271
 40
0.7619958043520967
 40
0.8466620048356651
 40
0.93132820531923
 40
0.9999999999999999
 40
0.9999999999999999
 40
0.9999999999999999
 40
0.9999999999999999
 10
100.4016373178179
 20
361.4246464759709
 30
0.0
 10
100.400793270102
 20
361.4025874909045
 30
0.0
 10
100.3991051746703
 20
361.3584695207717
 30
0.0
 10
100.385527802399
 20
361.2934501431269
 30
0.0
 10
100.3641141261101
 20
361.2307256341257
 30
0.0
 10
100.3344425210213
 20
361.1713932952554
 30
0.0
 10
100.2972453520492
 20
361.1164905205023
 30
0.0
 10
100.2531160786417
 20
361.0669793551123
 30
0.0
 10
100.2028420478351
 20
361.023719571602
 30
0.0
 10
100.1472981109907
 20
360.9874913089932
 30
0.0
 10
100.0874585907252
 20
360.9588408087054
 30
0.0
 10
100.0243637694136
 20
360.9385956527166
 30
0.0
 10
99.96324744827614
 20
360.9266917046411
 30
0.0
 10
99.92328554501312
 20
360.925751937415
 30
0.0
 10
99.90538876989883
 20
360.9253310665023
 30
0.0
  0
SPLINE
  5
109
330
1F
100
AcDbEntity
  8
0
  6
Continuous
 62
     7
370
    30
100
AcDbSpline
210
0.0
220
0.0
230
1.0
 70
    24
 71
     3
 72
    14
 73
    10
 74
     0
 42
0.000000001
 43
0.00000001
 40
0.0
 40
0.0
 40
0.0
 40
0.0
 40
0.25
 40
0.25
 40
0.5
 40
0.5
 40
0.75
 40
0.75
 40
1.0
 40
1.0
 40
1.0
 40
1.0
 10
100.4016373178179
 20
510.4070390812709
 30
0.0
 10
100.4016373178179
 20
510.4070390812709
 30
0.0
 10
100.4016373178179
 20
510.368011312085
 30
0.0
 10
100.4016373178179
 20
510.217775653773
 30
0.0
 10
100.4016373178179
 20
510.1066129021938
 30
0.0
 10
100.4016373178179
 20
509.8289727462985
 30
0.0
 10
100.4016373178179
 20
509.6626170249108
 30
0.0
 10
100.4016373178179
 20
509.2998565230721
 30
0.0
 10
100.4016373178179
 20
509.1035957134301
 30
0.0
 10
100.4016373178179
 20
508.9072678350708
 30
0.0
  0
SPLINE
  5
10A
330
1F
100
AcDbEntity
  8
0
  6
Continuous
 62
     7
370
    30
100
AcDbSpline
210
0.0
220
0.0
230
1.0
 70
     8
 71
     3
 72
    19
 73
    15
 74
     0
 42
0.000000001
 43
0.00000001
 40
0.0
 40
0.0
 40
0.0
 40
0.0
 40
0.0846546292391661
 40
0.169309258478326
 40
0.2539638877174994
 40
0.3386185169566567
 40
0.4232731461958247
 40
0.5079277754349927
 40
0.5925824046741645
 40
0.6772370339133325
 40
0.7618916631524975
 40
0.8465462923916631
 40
0.9312009216308295
 40
1.0
 40
1.0
 40
1.0
 40
1.0
 10
100.4016373178179
 20
510.4070390812709
 30
0.0
 10
100.4007932700195
 20
510.4290980664289
 30
0.0
 10
100.399105174423
 20
510.4732160367449
 30
0.0
 10
100.3855278018149
 20
510.5382354146329
 30
0.0
 10
100.3641141251242
 20
510.6009599237372
 30
0.0
 10
100.3344425196068
 20
510.6602922629536
 30
0.0
 10
100.2972453500634
 20
510.7151950367974
 30
0.0
 10
100.2531160764404
 20
510.7647062055693
 30
0.0
 10
100.2028420439819
 20
510.8079659760133
 30
0.0
 10
100.1472981108127
 20
510.8441942864807
 30
0.0
 10
100.0874585743886
 20
510.8728446067793
 30
0.0
 10
100.0243638110697
 20
510.8930904326431
 30
0.0
 10
99.96321218546356
 20
510.9049988711526
 30
0.0
 10
99.92321456938686
 20
510.9059384432221
 30
0.0
 10
99.90528213122079
 20
510.9063596887784
 30
0.0
  0
LINE
  5
10B
330
1F
100
AcDbEntity
  8
0
  6
Continuous
 62
     7
370
    30
100
AcDbLine
 10
88.7471431556
 20
510.7120256609
 30
0.0
 11
88.757563384
 21
510.7125947113
 31
0.0
  0
SPLINE
  5
10C
330
1F
100
AcDbEntity
  8
0
  6
Continuous
 62
     7
370
    30
100
AcDbSpline
210
0.0
220
0.0
230
1.0
 70
    24
 71
     3
 72
    18
 73
    14
 74
     0
 42
0.000000001
 43
0.00000001
 40
0.0
 40
0.0
 40
0.0
 40
0.0
 40
0.0214030340659966
 40
0.1199667572009188
 40
0.2185304803302889
 40
0.3170942034503826
 40
0.415657926558726
 40
0.5142216496547323
 40
0.6127853727403143
 40
0.7095890295378947
 40
0.8063926863382678
 40
0.9031963431534692
 40
1.0
 40
1.0
 40
1.0
 40
1.0
 10
88.32007508409666
 20
361.1267272310187
 30
0.0
 10
88.31985229829472
 20
361.1267311197594
 30
0.0
 10
88.3186035552368
 20
361.1267529166507
 30
0.0
 10
88.32469303576771
 20
361.1266466243717
 30
0.0
 10
88.33874459954215
 20
361.1264013534116
 30
0.0
 10
88.36203351737471
 20
361.1259948438351
 30
0.0
 10
88.39364294033962
 20
361.1254430993001
 30
0.0
 10
88.43381486528527
 20
361.1247418957356
 30
0.0
 10
88.48220837230011
 20
361.1238971839211
 30
0.0
 10
88.53861037912485
 20
361.1229126832212
 30
0.0
 10
88.60304182936486
 20
361.1217880280639
 30
0.0
 10
88.67509625161726
 20
361.1205303134341
 30
0.0
 10
88.73007433988136
 20
361.1195706673253
 30
0.0
 10
88.75756338401786
 20
361.1190908442708
 30
0.0
  0
SPLINE
  5
10D
330
1F
100
AcDbEntity
  8
0
  6
Continuous
 62
     7
370
    30
100
AcDbSpline
210
0.0
220
0.0
230
1.0
 70
    24
 71
     3
 72
    17
 73
    13
 74
     0
 42
0.000000001
 43
0.00000001
 40
0.0
 40
0.0
 40
0.0
 40
0.0
 40
0.104527312114643
 40
0.2090546241944438
 40
0.3135819362594826
 40
0.4181092483238838
 40
0.522636560396604
 40
0.6271638724822679
 40
0.7257181960408369
 40
0.8242725196102761
 40
0.9228268431874747
 40
1.0
 40
1.0
 40
1.0
 40
1.0
 10
88.75756338401786
 20
510.7125947112709
 30
0.0
 10
88.72794641039948
 20
510.7120777450688
 30
0.0
 10
88.6687124631726
 20
510.7110438126649
 30
0.0
 10
88.59200463254932
 20
510.7097048724889
 30
0.0
 10
88.52418568868009
 20
510.7085210884099
 30
0.0
 10
88.46612935532387
 20
510.7075077113328
 30
0.0
 10
88.4175949409227
 20
510.7066605399707
 30
0.0
 10
88.3794128869592
 20
510.7059940697338
 30
0.0
 10
88.35084501820228
 20
510.7054954157253
 30
0.0
 10
88.33162254997933
 20
510.7051598862915
 30
0.0
 10
88.3207680133247
 20
510.7049704196477
 30
0.0
 10
88.32028619674215
 20
510.7049620095079
 30
0.0
 10
88.32007460031684
 20
510.7049583160785
 30
0.0
  0
LINE
  5
10E
330
1F
100
AcDbEntity
  8
0
  6
Continuous
 62
   252
370
     0
100
AcDbLine
 10
41.4174160063
 20
458.936590801
 30
0.0
 11
41.4174160063
 21
412.895095039
 31
0.0
  0
SPLINE
  5
10F
330
1F
100
AcDbEntity
  8
0
  6
Continuous
 62
   252
370
     0
100
AcDbSpline
210
0.0
220
0.0
230
1.0
 70
     8
 71
     3
 72
    14
 73
    10
 74
     0
 42
0.000000001
 43
0.00000001
 40
0.0
 40
0.0
 40
0.0
 40
0.0
 40
0.25
 40
0.25
 40
0.5
 40
0.5
 40
0.75
 40
0.75
 40
1.0
 40
1.0
 40
1.0
 40
1.0
 10
87.28396078871786
 20
362.6006850752708
 30
0.0
 10
87.28496100789732
 20
362.6006676163178
 30
0.0
 10
87.28551991294675
 20
362.6187654632087
 30
0.0
 10
87.28628333648162
 20
362.6706060038071
 30
0.0
 10
87.28645508650415
 20
362.7052190691799
 30
0.0
 10
87.28645554439005
 20
362.7888035377617
 30
0.0
 10
87.28628353494395
 20
362.8377690520349
 30
0.0
 10
87.28552297949318
 20
362.9527318241283
 30
0.0
 10
87.28495876006363
 20
363.0178429907693
 30
0.0
 10
87.28396080741786
 20
363.1007311778708
 30
0.0
  0
LINE
  5
110
330
1F
100
AcDbEntity
  8
0
  6
Continuous
 62
   252
370
     0
100
AcDbLine
 10
86.8456348792
 20
362.6083360823
 30
0.0
 11
87.2839604737
 21
362.6006850806
 31
0.0
  0
SPLINE
  5
111
330
1F
100
AcDbEntity
  8
0
  6
Continuous
 62
   252
370
     0
100
AcDbSpline
210
0.0
220
0.0
230
1.0
 70
     8
 71
     3
 72
    90
 73
    86
 74
     0
 42
0.000000001
 43
0.00000001
 40
0.0
 40
0.0
 40
0.0
 40
0.0
 40
0.0181697380807853
 40
0.0362201674413089
 40
0.0541522986444914
 40
0.071967205377582
 40
0.0896660264571428
 40
0.106936968995333
 40
0.1240983052480035
 40
0.141151308779203
 40
0.1580973211452393
 40
0.16993806575589
 40
0.1712638989736137
 40
0.1725890829282739
 40
0.1739136183581663
 40
0.1752375060043904
 40
0.1765607466109261
 40
0.1778833409245575
 40
0.1791587469171911
 40
0.1940305570840353
 40
0.2072471066487491
 40
0.2204060730987937
 40
0.2359974957805022
 40
0.2515097477910097
 40
0.2669442367279604
 40
0.286477986902839
 40
0.3058913266831124
 40
0.3251875910289782
 40
0.3283604627653771
 40
0.3314632926472691
 40
0.3342626916838258
 40
0.3370597218169346
 40
0.3398543943690582
 40
0.3426467207407288
 40
0.3454367124107232
 40
0.3482243809362294
 40
0.3656944159887078
 40
0.3833294078284317
 40
0.4008766674044605
 40
0.4183395537597498
 40
0.4357215619233768
 40
0.4577328913075921
 40
0.4796269213800544
 40
0.5014118339740951
 40
0.5230961808698396
 40
0.5421022952319052
 40
0.5610437547925974
 40
0.5776639456525666
 40
0.5849637517701509
 40
0.5860040598162445
 40
0.5870424393888023
 40
0.588080595133056
 40
0.5891185282898368
 40
0.590156240102161
 40
0.6104168632637557
 40
0.6306027469657608
 40
0.6507236915061791
 40
0.6772010664998804
 40
0.6801681022822844
 40
0.6831342712578637
 40
0.6860996082434233
 40
0.6890641481925285
 40
0.6920279261948397
 40
0.6949909774753716
 40
0.6978662595819843
 40
0.7221197090470858
 40
0.7462939342769271
 40
0.7704105096377096
 40
0.7749535475766092
 40
0.7794954721568751
 40
0.7840364347187005
 40
0.7885765872543988
 40
0.7931160823980462
 40
0.7976550734149234
 40
0.8021461749585476
 40
0.8262891547608652
 40
0.842586358301847
 40
0.8588656768155106
 40
0.8751349427446244
 40
0.8914020677199636
 40
0.9075711780739262
 40
0.9235655420402017
 40
0.9577900075102584
 40
0.9920118796163482
 40
1.0
 40
1.0
 40
1.0
 40
1.0
 10
87.28396079186588
 20
509.2310004802258
 30
0.0
 10
87.27867922222428
 20
509.2309119399599
 30
0.0
 10
87.26815076353537
 20
509.230735440814
 30
0.0
 10
87.2527737313749
 20
509.2305051772845
 30
0.0
 10
87.2377598165656
 20
509.2302794952679
 30
0.0
 10
87.22312846993397
 20
509.2300509290273
 30
0.0
 10
87.20895037519873
 20
509.2298132321357
 30
0.0
 10
87.1952143317405
 20
509.229564833321
 30
0.0
 10
87.18190716489332
 20
509.2293079748865
 30
0.0
 10
87.16893962408757
 20
509.2290470176785
 30
0.0
 10
87.15754837382266
 20
509.22881654122
 30
0.0
 10
87.150192074831
 20
509.2286736191288
 30
0.0
 10
87.14667974653862
 20
509.228607983694
 30
0.0
 10
87.1457177445434
 20
509.228590160775
 30
0.0
 10
87.14475775363964
 20
509.2285725379333
 30
0.0
 10
87.14379977113357
 20
509.2285551232568
 30
0.0
 10
87.14284379435915
 20
509.2285379269588
 30
0.0
 10
87.14190101082906
 20
509.2285211507403
 30
0.0
 10
87.13770738871713
 20
509.2284474672167
 30
0.0
 10
87.13072795875726
 20
509.2283296353933
 30
0.0
 10
87.12109327826482
 20
509.2281723709252
 30
0.0
 10
87.11145224193714
 20
509.2280161211214
 30
0.0
 10
87.1014697123665
 20
509.227852066579
 30
0.0
 10
87.0911854015928
 20
509.2276774214559
 30
0.0
 10
87.08025804387349
 20
509.2274844752365
 30
0.0
 10
87.06876396522445
 20
509.2272731180648
 30
0.0
 10
87.05678502488675
 20
509.2270472845719
 30
0.0
 10
87.04840793846769
 20
509.226891493522
 30
0.0
 10
87.04337717595449
 20
509.2268013300996
 30
0.0
 10
87.04160016453054
 20
509.2267701674027
 30
0.0
 10
87.03990424149856
 20
509.2267397981177
 30
0.0
 10
87.03827524317303
 20
509.2267096498446
 30
0.0
 10
87.036654457497
 20
509.2266788231713
 30
0.0
 10
87.0350418606475
 20
509.2266473232314
 30
0.0
 10
87.0334374293534
 20
509.2266151949568
 30
0.0
 10
87.02903820571156
 20
509.2265250192508
 30
0.0
 10
87.02191745938532
 20
509.2263671436274
 30
0.0
 10
87.01229294528859
 20
509.2261342268484
 30
0.0
 10
87.00294025570614
 20
509.2258980833272
 30
0.0
 10
86.99390053453351
 20
509.225670019009
 30
0.0
 10
86.98438019792023
 20
509.2254402820651
 30
0.0
 10
86.97447095327058
 20
509.2252252238286
 30
0.0
 10
86.96427174903508
 20
509.2250456214543
 30
0.0
 10
86.95454102599825
 20
509.2249217554632
 30
0.0
 10
86.94563751209037
 20
509.2248505400907
 30
0.0
 10
86.93749400145505
 20
509.2248095681361
 30
0.0
 10
86.93034458280736
 20
509.224774685242
 30
0.0
 10
86.92495132577534
 20
509.2247272345268
 30
0.0
 10
86.92189756191807
 20
509.2246810825173
 30
0.0
 10
86.9207615418614
 20
509.2246607826676
 30
0.0
 10
86.92038494285521
 20
509.2246539400935
 30
0.0
 10
86.92000957400059
 20
509.2246469767742
 30
0.0
 10
86.91963522864708
 20
509.2246399071493
 30
0.0
 10
86.91695669554959
 20
509.2245884472819
 30
0.0
 10
86.9121108825344
 20
509.2244803729182
 30
0.0
 10
86.90539392249087
 20
509.2243334198402
 30
0.0
 10
86.89838121141882
 20
509.2242100221487
 30
0.0
 10
86.89351440012403
 20
509.2241542655012
 30
0.0
 10
86.89047142036246
 20
509.2241181158648
 30
0.0
 10
86.88964365937497
 20
509.2241079433422
 30
0.0
 10
86.88882383394257
 20
509.2240973838478
 30
0.0
 10
86.88801192575505
 20
509.2240862474484
 30
0.0
 10
86.88720791665507
 20
509.2240743300054
 30
0.0
 10
86.88641958787935
 20
509.2240615750059
 30
0.0
 10
86.88375013906955
 20
509.2240136171478
 30
0.0
 10
86.8794019029099
 20
509.2238947927557
 30
0.0
 10
86.8737668937915
 20
509.2237563953565
 30
0.0
 10
86.8700363159424
 20
509.2237121076215
 30
0.0
 10
86.86783111668814
 20
509.2236965431239
 30
0.0
 10
86.86694419492427
 20
509.22369095371
 30
0.0
 10
86.86607553890924
 20
509.2236855823666
 30
0.0
 10
86.86522509963234
 20
509.2236796565555
 30
0.0
 10
86.86439282914532
 20
509.2236723004109
 30
0.0
 10
86.86358152345255
 20
509.223662619895
 30
0.0
 10
86.86164180642744
 20
509.2236301370208
 30
0.0
 10
86.8592019625401
 20
509.2235423470364
 30
0.0
 10
86.85645736875615
 20
509.2234554096984
 30
0.0
 10
86.85432663320817
 20
509.2234175489401
 30
0.0
 10
86.8524298999777
 20
509.2234171410536
 30
0.0
 10
86.85076867206806
 20
509.2234357114549
 30
0.0
 10
86.84934771378383
 20
509.2234187325108
 30
0.0
 10
86.8477015458511
 20
509.2233238378453
 30
0.0
 10
86.84629752445653
 20
509.2232337003134
 30
0.0
 10
86.84555082578235
 20
509.223360287244
 30
0.0
 10
86.84569865126461
 20
509.223337402411
 30
0.0
 10
86.84572662681443
 20
509.2233330715218
 30
0.0
  0
SPLINE
  5
112
330
1F
100
AcDbEntity
  8
0
  6
Continuous
 62
   252
370
     0
100
AcDbSpline
210
0.0
220
0.0
230
1.0
 70
     8
 71
     3
 72
    14
 73
    10
 74
     0
 42
0.000000001
 43
0.00000001
 40
0.0
 40
0.0
 40
0.0
 40
0.0
 40
0.25
 40
0.25
 40
0.5
 40
0.5
 40
0.75
 40
0.75
 40
1.0
 40
1.0
 40
1.0
 40
1.0
 10
87.28396078871786
 20
508.7309526539709
 30
0.0
 10
87.28496100777019
 20
508.8140283042929
 30
0.0
 10
87.28551991299646
 20
508.8785570528131
 30
0.0
 10
87.28628333651608
 20
508.9938188159196
 30
0.0
 10
87.28645508652345
 20
509.0426999559924
 30
0.0
 10
87.28645554437131
 20
509.1263224595423
 30
0.0
 10
87.28628353492152
 20
509.1609983476214
 30
0.0
 10
87.28552297952155
 20
509.2127781658351
 30
0.0
 10
87.28495875995642
 20
509.2310169451277
 30
0.0
 10
87.28396080741786
 20
509.2310003065709
 30
0.0
  0
SPLINE
  5
113
330
1F
100
AcDbEntity
  8
0
  6
Continuous
 62
   252
370
     0
100
AcDbSpline
210
0.0
220
0.0
230
1.0
 70
     8
 71
     3
 72
    12
 73
     8
 74
     0
 42
0.000000001
 43
0.00000001
 40
0.0
 40
0.0
 40
0.0
 40
0.0
 40
0.2202822495592941
 40
0.4470332726086834
 40
0.7065844475155301
 40
0.8514821770727459
 40
1.0
 40
1.0
 40
1.0
 40
1.0
 10
86.97823191942526
 20
475.9651806212315
 30
0.0
 10
86.99499662594332
 20
478.3711360345541
 30
0.0
 10
87.02901834868352
 20
483.2536997650406
 30
0.0
 10
87.09456429461521
 20
490.9710309425312
 30
0.0
 10
87.16172135131657
 20
497.8649314331848
 30
0.0
 10
87.22697547102592
 20
503.9043103177943
 30
0.0
 10
87.26481008671203
 20
507.108892740961
 30
0.0
 10
87.28396079193338
 20
508.730952651725
 30
0.0
  0
LWPOLYLINE
  5
114
330
1F
100
AcDbEntity
  8
0
  6
Continuous
 62
   252
370
     0
100
AcDbPolyline
 90
       28
 70
   128
 43
0.0
 10
87.2839608103
 20
363.1007311802
 10
87.2350794281
 20
367.2806860115
 10
87.1890870156
 20
371.4606736385
 10
87.1459835948
 20
375.640692064
 10
87.1057691864
 20
379.8207392906
 10
87.0684438094
 20
384.0008133211
 10
87.0340074817
 20
388.180912158
 10
87.0024602199
 20
392.3610338041
 10
86.973802039
 20
396.5411762618
 10
86.9480329526
 20
400.7213375338
 10
86.9251529731
 20
404.9015156228
 10
86.9051621114
 20
409.0817085313
 10
86.888060377
 20
413.2619142619
 10
86.8738477783
 20
417.4421308172
 10
86.8625243218
 20
421.6223561997
 10
86.8540900131
 20
425.802588412
 10
86.8485448561
 20
429.9828254568
 10
86.8458888536
 20
434.1630653365
 10
86.8461220067
 20
438.3433060538
 10
86.8492443155
 20
442.5235456111
 10
86.8552557783
 20
446.7037820111
 10
86.8641563923
 20
450.8840132563
 10
86.8759461533
 20
455.0642373493
 10
86.8906250556
 20
459.2444522926
 10
86.9081930922
 20
463.4246560889
 10
86.9286502548
 20
467.6048467407
 10
86.9519965335
 20
471.7850222507
 10
86.9782319171
 20
475.9651806213
  0
SPLINE
  5
115
330
1F
100
AcDbEntity
  8
0
  6
Continuous
 62
   252
370
     0
100
AcDbSpline
210
0.0
220
0.0
230
1.0
 70
    24
 71
     3
 72
    10
 73
     6
 74
     0
 42
0.000000001
 43
0.00000001
 40
0.0
 40
0.0
 40
0.0
 40
0.0
 40
0.5
 40
0.5
 40
1.0
 40
1.0
 40
1.0
 40
1.0
 10
100.4016373178179
 20
362.924418016874
 30
0.0
 10
100.4016373178179
 20
362.9244180168656
 30
0.0
 10
100.3463710109724
 20
362.924418016857
 30
0.0
 10
100.1575768698384
 20
362.924418016845
 30
0.0
 10
100.0252450913659
 20
362.9244180168417
 30
0.0
 10
99.89291111459829
 20
362.9244180168419
 30
0.0
  0
LINE
  5
116
330
1F
100
AcDbEntity
  8
0
  6
Continuous
 62
   252
370
     0
100
AcDbLine
 10
99.8929111146
 20
508.9072675387
 30
0.0
 11
99.8929111146
 21
362.924418017
 31
0.0
  0
SPLINE
  5
117
330
1F
100
AcDbEntity
  8
0
  6
Continuous
 62
   252
370
     0
100
AcDbSpline
210
0.0
220
0.0
230
1.0
 70
    24
 71
     3
 72
    10
 73
     6
 74
     0
 42
0.000000001
 43
0.00000001
 40
0.0
 40
0.0
 40
0.0
 40
0.0
 40
0.5
 40
0.5
 40
1.0
 40
1.0
 40
1.0
 40
1.0
 10
100.4016373178179
 20
508.9072678350708
 30
0.0
 10
100.4016373182679
 20
508.9072678350708
 30
0.0
 10
100.3464935975596
 20
508.9072678350708
 30
0.0
 10
100.1576903072574
 20
508.9072678350708
 30
0.0
 10
100.0252450959593
 20
508.9072678350709
 30
0.0
 10
99.89291111974241
 20
508.9072678350708
 30
0.0
  0
SPLINE
  5
118
330
1F
100
AcDbEntity
  8
0
  6
Continuous
 62
   252
370
     0
100
AcDbSpline
210
0.0
220
0.0
230
1.0
 70
     8
 71
     3
 72
    23
 73
    19
 74
     0
 42
0.000000001
 43
0.00000001
 40
0.0
 40
0.0
 40
0.0
 40
0.0
 40
0.0634747697384
 40
0.1269483502667846
 40
0.1904209116036878
 40
0.2538926237758223
 40
0.3173636568167362
 40
0.3808341807654364
 40
0.4443043656650146
 40
0.5077743815612858
 40
0.5712443985014333
 40
0.6347145865326238
 40
0.6981851157006556
 40
0.761656156048582
 40
0.8251278776153403
 40
0.8886004504344079
 40
0.9520740445324128
 40
0.9999999999999999
 40
0.9999999999999999
 40
0.9999999999999999
 40
0.9999999999999999
 10
99.89291111459906
 20
362.9244180169708
 30
0.0
 10
99.89262718218275
 20
362.8589767247765
 30
0.0
 10
99.89205932266965
 20
362.7280953664409
 30
0.0
 10
99.89125847733156
 20
362.5336668375136
 30
0.0
 10
99.89053114862907
 20
362.3430047454951
 30
0.0
 10
99.88990274354778
 20
362.1579443938679
 30
0.0
 10
99.88939284590597
 20
361.9802670471943
 30
0.0
 10
99.88901728437058
 20
361.8116830187539
 30
0.0
 10
99.88878737529026
 20
361.6538150234836
 30
0.0
 10
99.88870997639766
 20
361.5081830493085
 30
0.0
 10
99.88878737499385
 20
361.3761879347532
 30
0.0
 10
99.8890172864733
 20
361.2591045491046
 30
0.0
 10
99.88939283993352
 20
361.1580446456922
 30
0.0
 10
99.88990276930906
 20
361.0740389891401
 30
0.0
 10
99.89053105824765
 20
361.0076809820001
 30
0.0
 10
99.89125882365498
 20
360.9604139444683
 30
0.0
 10
99.89199278317093
 20
360.9322002385341
 30
0.0
 10
99.89249044128643
 20
360.9286235397494
 30
0.0
 10
99.89270454215824
 20
360.9270847839164
 30
0.0
  0
SPLINE
  5
119
330
1F
100
AcDbEntity
  8
0
  6
Continuous
 62
   252
370
     0
100
AcDbSpline
210
0.0
220
0.0
230
1.0
 70
     8
 71
     3
 72
    18
 73
    14
 74
     0
 42
0.000000001
 43
0.00000001
 40
0.0
 40
0.0
 40
0.0
 40
0.0
 40
0.1249999999999992
 40
0.1249999999999992
 40
0.2499999999999986
 40
0.2499999999999986
 40
0.4999999999999971
 40
0.4999999999999971
 40
0.7499999999999958
 40
0.7499999999999958
 40
0.8749999999999979
 40
0.8749999999999979
 40
1.0
 40
1.0
 40
1.0
 40
1.0
 10
88.75756338401786
 20
361.1190908442708
 30
0.0
 10
88.75589055354067
 20
361.1191200437145
 30
0.0
 10
88.75461690826313
 20
361.1388312331862
 30
0.0
 10
88.75252458396125
 20
361.2006477522227
 30
0.0
 10
88.75170984858858
 20
361.2434478565032
 30
0.0
 10
88.74979460471856
 20
361.3989998927448
 30
0.0
 10
88.74921588450546
 20
361.5370725597117
 30
0.0
 10
88.74921902216215
 20
361.871732919494
 30
0.0
 10
88.74979452256773
 20
362.0675395766957
 30
0.0
 10
88.75170967755905
 20
362.4128895099631
 30
0.0
 10
88.75252199866337
 20
362.5365463546893
 30
0.0
 10
88.75461625146623
 20
362.8067637077355
 30
0.0
 10
88.75589428201961
 20
362.9531080099916
 30
0.0
 10
88.75756332171785
 20
363.1187793329708
 30
0.0
  0
LINE
  5
11A
330
1F
100
AcDbEntity
  8
0
  6
Continuous
 62
   252
370
     0
100
AcDbLine
 10
99.8929111146
 20
362.924418017
 30
0.0
 11
88.7575634296
 21
363.1187862338
 31
0.0
  0
SPLINE
  5
11B
330
1F
100
AcDbEntity
  8
0
  6
Continuous
 62
   252
370
     0
100
AcDbSpline
210
0.0
220
0.0
230
1.0
 70
     8
 71
     3
 72
    23
 73
    19
 74
     0
 42
0.000000001
 43
0.00000001
 40
0.0
 40
0.0
 40
0.0
 40
0.0
 40
0.0479303279209141
 40
0.1114036158995038
 40
0.1748758846913097
 40
0.2383473043222605
 40
0.301818044825121
 40
0.3652882762381141
 40
0.4287581686035479
 40
0.4922278919664537
 40
0.5556976163732309
 40
0.6191675118702626
 40
0.6826377485025633
 40
0.7461084963124025
 40
0.8095799253379339
 40
0.8730522056118513
 40
0.9365255071599987
 40
0.9999999999999999
 40
0.9999999999999999
 40
0.9999999999999999
 40
0.9999999999999999
 10
99.89270459854319
 20
510.9046014723183
 30
0.0
 10
99.8924904773677
 20
510.9030626149825
 30
0.0
 10
99.89199279929568
 20
510.8994858760159
 30
0.0
 10
99.89125882094704
 20
510.8712716832475
 30
0.0
 10
99.89053105655971
 20
510.8240045934558
 30
0.0
 10
99.88990276821666
 20
510.7576466282578
 30
0.0
 10
99.88939283929834
 20
510.673640991095
 30
0.0
 10
99.88901728613259
 20
510.5725811130604
 30
0.0
 10
99.88878737484977
 20
510.4554977485356
 30
0.0
 10
99.8887099763976
 20
510.3235026512054
 30
0.0
 10
99.8887873754345
 20
510.1778706881504
 30
0.0
 10
99.88901728471066
 20
510.0200026967139
 30
0.0
 10
99.88939284654347
 20
509.8514186637584
 30
0.0
 10
99.88990274463161
 20
509.6737413035644
 30
0.0
 10
99.89053115034898
 20
509.488680929119
 30
0.0
 10
99.89125847992017
 20
509.2980188050914
 30
0.0
 10
99.89205932636527
 20
509.1035902354741
 30
0.0
 10
99.89262718683922
 20
508.972708846984
 30
0.0
 10
99.89291111974062
 20
508.9072675386363
 30
0.0
  0
LINE
  5
11C
330
1F
100
AcDbEntity
  8
0
  6
Continuous
 62
   252
370
     0
100
AcDbLine
 10
99.8929111146
 20
508.9072675386
 30
0.0
 11
88.757563384
 21
508.7128993209
 31
0.0
  0
SPLINE
  5
11D
330
1F
100
AcDbEntity
  8
0
  6
Continuous
 62
   252
370
     0
100
AcDbSpline
210
0.0
220
0.0
230
1.0
 70
     8
 71
     3
 72
    18
 73
    14
 74
     0
 42
0.000000001
 43
0.00000001
 40
0.0
 40
0.0
 40
0.0
 40
0.0
 40
0.1250000000000012
 40
0.1250000000000012
 40
0.2500000000000024
 40
0.2500000000000024
 40
0.4999999999999993
 40
0.4999999999999993
 40
0.7499999999999962
 40
0.7499999999999962
 40
0.8749999999999981
 40
0.8749999999999981
 40
1.0
 40
1.0
 40
1.0
 40
1.0
 10
88.75756338401786
 20
508.7128993208708
 30
0.0
 10
88.75589055355121
 20
508.8789453186505
 30
0.0
 10
88.75461690826032
 20
509.0250569661787
 30
0.0
 10
88.75252458398907
 20
509.2945222130625
 30
0.0
 10
88.75170984863155
 20
509.4181791945409
 30
0.0
 10
88.74979460474792
 20
509.7638059830646
 30
0.0
 10
88.7492158844783
 20
509.9593126664963
 30
0.0
 10
88.74921902211622
 20
510.2936616325147
 30
0.0
 10
88.74979452252774
 20
510.432353829469
 30
0.0
 10
88.75170967755368
 20
510.5876378214287
 30
0.0
 10
88.75252199867082
 20
510.6306773969248
 30
0.0
 10
88.75461625148137
 20
510.6930546442268
 30
0.0
 10
88.75589428202795
 20
510.7125632733708
 30
0.0
 10
88.75756332171785
 20
510.7125939939709
 30
0.0
  0
LWPOLYLINE
  5
11E
330
1F
100
AcDbEntity
  8
0
  6
Continuous
 62
   252
370
     0
100
AcDbPolyline
 90
       28
 70
   128
 43
0.0
 10
88.7575633764
 20
363.1187862332
 10
88.7086941154
 20
367.2977046483
 10
88.6627131078
 20
371.4766558511
 10
88.6196203756
 20
375.6556378447
 10
88.5794159393
 20
379.8346486324
 10
88.5420998181
 20
384.0136862172
 10
88.5076720299
 20
388.1927486023
 10
88.476132591
 20
392.3718337908
 10
88.4474815167
 20
396.5509397859
 10
88.4217188206
 20
400.7300645907
 10
88.3988445149
 20
404.9092062082
 10
88.3788586106
 20
409.0883626415
 10
88.3617611174
 20
413.2675318938
 10
88.3475520432
 20
417.446711968
 10
88.336231395
 20
421.6259008673
 10
88.3277991781
 20
425.8050965948
 10
88.3222553966
 20
429.9842971535
 10
88.319600053
 20
434.1635005464
 10
88.3198331488
 20
438.3427047766
 10
88.3229546837
 20
442.5219078472
 10
88.3289646563
 20
446.7011077613
 10
88.3378630638
 20
450.8803025218
 10
88.3496499017
 20
455.0594901319
 10
88.3643251646
 20
459.2386685947
 10
88.3818888454
 20
463.4178359131
 10
88.4023409357
 20
467.5969900903
 10
88.4256814258
 20
471.7761291294
 10
88.4519103044
 20
475.9552510334
  0
SPLINE
  5
11F
330
1F
100
AcDbEntity
  8
0
  6
Continuous
 62
   252
370
     0
100
AcDbSpline
210
0.0
220
0.0
230
1.0
 70
     8
 71
     3
 72
     8
 73
     4
 74
     0
 42
0.000000001
 43
0.00000001
 40
0.0
 40
0.0
 40
0.0
 40
0.0
 40
1.0
 40
1.0
 40
1.0
 40
1.0
 10
88.45191031211786
 20
475.9552510333708
 30
0.0
 10
88.52421635961785
 20
486.8747164832708
 30
0.0
 10
88.62610121551785
 20
497.7939860095708
 30
0.0
 10
88.75756338401786
 20
508.7128993208708
 30
0.0
  0
SPLINE
  5
120
330
1F
100
AcDbEntity
  8
0
  6
Continuous
 62
   252
370
     0
100
AcDbSpline
210
0.0
220
0.0
230
1.0
 70
     8
 71
     3
 72
    11
 73
     7
 74
     0
 42
0.000000001
 43
0.00000001
 40
0.0
 40
0.0
 40
0.0
 40
0.0
 40
0.25
 40
0.5
 40
0.75
 40
1.0
 40
1.0
 40
1.0
 40
1.0
 10
86.97823191631791
 20
475.9651806212784
 30
0.0
 10
86.98009939785125
 20
475.9651460549117
 30
0.0
 10
87.06067747780072
 20
475.9645679583703
 30
0.0
 10
87.38801983048275
 20
475.9623438801917
 30
0.0
 10
87.87505180965073
 20
475.9590807356952
 30
0.0
 10
88.25985481698457
 20
475.9565231125116
 30
0.0
 10
88.4519103121179
 20
475.9552510333783
 30
0.0
  0
SPLINE
  5
121
330
1F
100
AcDbEntity
  8
0
  6
Continuous
 62
   252
370
     0
100
AcDbSpline
210
0.0
220
0.0
230
1.0
 70
     8
 71
     3
 72
    14
 73
    10
 74
     0
 42
0.000000001
 43
0.00000001
 40
0.0
 40
0.0
 40
0.0
 40
0.0
 40
0.25
 40
0.25
 40
0.5
 40
0.5
 40
0.75
 40
0.75
 40
1.0
 40
1.0
 40
1.0
 40
1.0
 10
87.2839608001073
 20
363.1007311777828
 30
0.0
 10
87.28629473829086
 20
363.1007993308789
 30
0.0
 10
87.32619000503993
 20
363.1013196066184
 30
0.0
 10
87.47530931243861
 20
363.103188782498
 30
0.0
 10
87.58447896095466
 20
363.104537000531
 30
0.0
 10
87.85618382929127
 20
363.107864836025
 30
0.0
 10
88.01861994318124
 20
363.1098432393241
 30
0.0
 10
88.37306936430524
 20
363.1141416361213
 30
0.0
 10
88.56495338404994
 20
363.1164600614397
 30
0.0
 10
88.75756330921995
 20
363.1187793329709
 30
0.0
  0
SPLINE
  5
122
330
1F
100
AcDbEntity
  8
0
  6
Continuous
 62
   252
370
     0
100
AcDbSpline
210
0.0
220
0.0
230
1.0
 70
     8
 71
     3
 72
    27
 73
    23
 74
     0
 42
0.000000001
 43
0.00000001
 40
0.0
 40
0.0
 40
0.0
 40
0.0
 40
0.0501332987962233
 40
0.1003527204361511
 40
0.1506205610996621
 40
0.2009063438205934
 40
0.2511875833403439
 40
0.3014498987808816
 40
0.3516865623010681
 40
0.4018975683182392
 40
0.4520883093118488
 40
0.502267948861463
 40
0.5524475884111713
 40
0.602638329405055
 40
0.6528493354225885
 40
0.7030859989430509
 40
0.7533483143835837
 40
0.8036295539027879
 40
0.8539153366223577
 40
0.9041831772833765
 40
0.9544025989194196
 40
1.0
 40
1.0
 40
1.0
 40
1.0
 10
87.28396078871786
 20
509.2310004802708
 30
0.0
 10
87.28521648747167
 20
509.2694498571742
 30
0.0
 10
87.2877300421154
 20
509.3464146622833
 30
0.0
 10
87.30297293167665
 20
509.4611043629086
 30
0.0
 10
87.32642373932879
 20
509.5744277070436
 30
0.0
 10
87.35872895251103
 20
509.6856381839556
 30
0.0
 10
87.39943761044431
 20
509.7940351694179
 30
0.0
 10
87.44834661104238
 20
509.8989504030246
 30
0.0
 10
87.50513966574924
 20
509.9997518728946
 30
0.0
 10
87.56948386686608
 20
510.0958430698039
 30
0.0
 10
87.64100371903108
 20
510.1866635122715
 30
0.0
 10
87.71928808262145
 20
510.2716889253867
 30
0.0
 10
87.80388839728663
 20
510.3504315486445
 30
0.0
 10
87.89431933459261
 20
510.422440173578
 30
0.0
 10
87.9900588546535
 20
510.487300912436
 30
0.0
 10
88.09054854912036
 20
510.5446349829329
 30
0.0
 10
88.19519365757193
 20
510.5941072995856
 30
0.0
 10
88.3033642071883
 20
510.635394356909
 30
0.0
 10
88.41439197220363
 20
510.6683037574587
 30
0.0
 10
88.52758292555984
 20
510.6923274929307
 30
0.0
 10
88.6387209638721
 20
510.7078255107161
 30
0.0
 10
88.71218365839013
 20
510.7106713704717
 30
0.0
 10
88.74714315559977
 20
510.7120256609296
 30
0.0
  0
SPLINE
  5
123
330
1F
100
AcDbEntity
  8
0
  6
Continuous
 62
   252
370
     0
100
AcDbSpline
210
0.0
220
0.0
230
1.0
 70
     8
 71
     3
 72
    11
 73
     7
 74
     0
 42
0.000000001
 43
0.00000001
 40
0.0
 40
0.0
 40
0.0
 40
0.0
 40
0.25
 40
0.5
 40
0.75
 40
1.0
 40
1.0
 40
1.0
 40
1.0
 10
87.28396078875214
 20
508.7309526568179
 30
0.0
 10
87.285828006432
 20
508.730889811611
 30
0.0
 10
87.36640167331825
 20
508.7298387561522
 30
0.0
 10
87.69372704779026
 20
508.7257950841695
 30
0.0
 10
88.180734116693
 20
508.7198622482933
 30
0.0
 10
88.56551759959069
 20
508.7152121440888
 30
0.0
 10
88.7575633839032
 20
508.7128993322521
 30
0.0
  0
SPLINE
  5
124
330
1F
100
AcDbEntity
  8
0
  6
Continuous
 62
   252
370
     0
100
AcDbSpline
210
0.0
220
0.0
230
1.0
 70
     8
 71
     3
 72
    11
 73
     7
 74
     0
 42
0.000000001
 43
0.00000001
 40
0.0
 40
0.0
 40
0.0
 40
0.0
 40
0.25
 40
0.5
 40
0.75
 40
1.0
 40
1.0
 40
1.0
 40
1.0
 10
87.28396078874925
 20
362.6006850752703
 30
0.0
 10
87.285828006428
 20
362.4086126750556
 30
0.0
 10
87.36640167331352
 20
362.0233658485871
 30
0.0
 10
87.69372704778836
 20
361.534569784672
 30
0.0
 10
88.18073411669668
 20
361.2046171207049
 30
0.0
 10
88.56551759959858
 20
361.1219830743021
 30
0.0
 10
88.75756338391282
 20
361.1190908442726
 30
0.0
  0
ARC
  5
125
330
1F
100
AcDbEntity
  8
0
  6
Continuous
 62
     7
370
    30
100
AcDbCircle
 10
293.5732130616
 20
206.4516373178
 30
0.0
 40
0.1000000000000325
100
AcDbArc
 50
137.0663979575
 51
200.0117664589
  0
ARC
  5
126
330
1F
100
AcDbEntity
  8
0
  6
Continuous
 62
     7
370
    30
100
AcDbCircle
 10
339.426784351
 20
206.4516373178
 30
0.0
 40
0.0999999999999909
100
AcDbArc
 50
339.9882335411
 51
42.9336020425
  0
ARC
  5
127
330
1F
100
AcDbEntity
  8
0
  6
Continuous
 62
     7
370
    30
100
AcDbCircle
 10
316.4999987063
 20
214.8016373178
 30
0.0
 40
24.50000000000455
100
AcDbArc
 50
200.0117664665
 51
248.4479106727
  0
ARC
  5
128
330
1F
100
AcDbEntity
  8
0
  6
Continuous
 62
     7
370
    30
100
AcDbCircle
 10
316.4999987063
 20
214.8016373178
 30
0.0
 40
24.5000000000045
100
AcDbArc
 50
291.5520892476
 51
339.9882335335
  0
ARC
  5
129
330
1F
100
AcDbEntity
  8
0
  6
Continuous
 62
     7
370
    30
100
AcDbCircle
 10
316.4999987063
 20
226.1008179957
 30
0.0
 40
32.95523042541686
100
AcDbArc
 50
254.1513141936
 51
270.0
  0
ARC
  5
12A
330
1F
100
AcDbEntity
  8
0
  6
Continuous
 62
     7
370
    30
100
AcDbCircle
 10
316.4999987063
 20
226.1008179957
 30
0.0
 40
32.95523042541686
100
AcDbArc
 50
270.0
 51
285.8486858064
  0
LINE
  5
12B
330
1F
100
AcDbEntity
  8
0
  6
Continuous
 62
     7
370
    30
100
AcDbLine
 10
293.4999987063
 20
251.4483082717
 30
0.0
 11
293.4999987063
 21
206.5197523542
 31
0.0
  0
LINE
  5
12C
330
1F
100
AcDbEntity
  8
0
  6
Continuous
 62
     7
370
    30
100
AcDbLine
 10
339.4999987063
 20
206.5197523542
 30
0.0
 11
339.4999987063
 21
251.4483082721
 31
0.0
  0
ARC
  5
12D
330
1F
100
AcDbEntity
  8
0
  6
Continuous
 62
     7
370
    30
100
AcDbCircle
 10
316.4999987063
 20
6301.4014871278
 30
0.0
 40
6050.000000001151
100
AcDbArc
 50
269.3057333014
 51
269.7745858207
  0
ARC
  5
12E
330
1F
100
AcDbEntity
  8
0
  6
Continuous
 62
     7
370
    30
100
AcDbCircle
 10
316.4999987063
 20
6301.4014871278
 30
0.0
 40
6050.000000001151
100
AcDbArc
 50
270.2254141799
 51
270.6942666986
  0
LINE
  5
12F
330
1F
100
AcDbEntity
  8
0
  6
Continuous
 62
     7
370
    30
100
AcDbLine
 10
391.49051291
 20
264.8926997153
 30
0.0
 11
391.4911804503
 21
264.9054485459
 31
0.0
  0
LINE
  5
130
330
1F
100
AcDbEntity
  8
0
  6
Continuous
 62
     7
370
    30
100
AcDbLine
 10
241.5088159891
 20
264.9053190635
 30
0.0
 11
241.5094845477
 21
264.8926997029
 31
0.0
  0
ARC
  5
131
330
1F
100
AcDbEntity
  8
0
  6
Continuous
 62
     7
370
    30
100
AcDbCircle
 10
243.2106674258
 20
253.3455247606
 30
0.0
 40
1.500000000000021
100
AcDbArc
 50
181.0
 51
269.3057332935
  0
SPLINE
  5
132
330
1F
100
AcDbEntity
  8
0
  6
Continuous
 62
     7
370
    30
100
AcDbSpline
210
0.0
220
0.0
230
1.0
 70
    24
 71
     3
 72
    60
 73
    56
 74
     0
 42
0.000000001
 43
0.00000001
 40
0.0
 40
0.0
 40
0.0
 40
0.0
 40
0.0052413485134126
 40
0.0102318612075637
 40
0.014970114670525
 40
0.0194547484451003
 40
0.023684466732236
 40
0.0276580400397268
 40
0.0311688995733998
 40
0.0344501010967103
 40
0.0375007834049583
 40
0.0403201422570108
 40
0.0429074313419331
 40
0.0458696782905369
 40
0.0486456206990862
 40
0.0514403129425375
 40
0.0542538590567561
 40
0.0570863193623742
 40
0.0599377548317903
 40
0.0628082270965705
 40
0.0719014892658521
 40
0.0810774973519778
 40
0.0902534983541617
 40
0.0994294729602396
 40
0.1649717693529121
 40
0.2820098114261396
 40
0.4910011613512976
 40
0.6239927014316212
 40
0.7569823187226057
 40
0.8740118218812378
 40
0.8811617383789913
 40
0.8880968165431421
 40
0.8948067634888482
 40
0.9012894788974213
 40
0.9041256269882688
 40
0.9069153753782897
 40
0.9096585454274839
 40
0.9124637079336387
 40
0.915593742138581
 40
0.9190616258816567
 40
0.9228689257752424
 40
0.9264800934727724
 40
0.930353703772242
 40
0.9344911110132033
 40
0.9388937673955177
 40
0.9435632245986321
 40
0.9485011355139779
 40
0.9537092560927133
 40
0.959189447311311
 40
0.9652245585591521
 40
0.971562821433803
 40
0.9782067621619993
 40
0.9851590447239699
 40
0.9924224741504872
 40
1.0
 40
1.0
 40
1.0
 40
1.0
 10
391.2912206773693
 20
253.4414691174682
 30
0.0
 10
391.2912273006802
 20
253.4418485666723
 30
0.0
 10
391.2912402303294
 20
253.4425893057361
 30
0.0
 10
391.2912592483823
 20
253.4436788492019
 30
0.0
 10
391.2912773711815
 20
253.4447171036156
 30
0.0
 10
391.2912945894108
 20
253.4457035352542
 30
0.0
 10
391.291310885773
 20
253.4466371531755
 30
0.0
 10
391.2913259812172
 20
253.4475019705515
 30
0.0
 10
391.291339896036
 20
253.4482991499445
 30
0.0
 10
391.2913526526081
 20
253.4490299734285
 30
0.0
 10
391.2913645429683
 20
253.4497111716707
 30
0.0
 10
391.2913755574245
 20
253.4503421894154
 30
0.0
 10
391.2913864801406
 20
253.4509679513626
 30
0.0
 10
391.2913973701229
 20
253.4515918380044
 30
0.0
 10
391.2914085567601
 20
253.4522327199856
 30
0.0
 10
391.2914195726481
 20
253.4528638197509
 30
0.0
 10
391.2914306873226
 20
253.4535005789963
 30
0.0
 10
391.2914419015784
 20
253.4541430432475
 30
0.0
 10
391.2914532161597
 20
253.4547912551461
 30
0.0
 10
391.2914728556353
 20
253.4559163998728
 30
0.0
 10
391.2915010102664
 20
253.4575293775546
 30
0.0
 10
391.2915378227697
 20
253.4596383643395
 30
0.0
 10
391.2915750081668
 20
253.4617687142133
 30
0.0
 10
391.2916891327122
 20
253.4683069047225
 30
0.0
 10
391.2919574161726
 20
253.4836768532296
 30
0.0
 10
391.2925422920214
 20
253.5171843671527
 30
0.0
 10
391.2933050303823
 20
253.5608816181593
 30
0.0
 10
391.294177725143
 20
253.6108782676639
 30
0.0
 10
391.2949339509132
 20
253.6542024134789
 30
0.0
 10
391.2954749544087
 20
253.6851964836326
 30
0.0
 10
391.2957592107976
 20
253.7014815216232
 30
0.0
 10
391.295804445916
 20
253.7040730398888
 30
0.0
 10
391.2958483718965
 20
253.7065895576912
 30
0.0
 10
391.2958834620374
 20
253.708599870577
 30
0.0
 10
391.2959100285439
 20
253.7101218647439
 30
0.0
 10
391.2959284148035
 20
253.7111752128937
 30
0.0
 10
391.29594675688
 20
253.7122260297705
 30
0.0
 10
391.2959658724496
 20
253.7133211600487
 30
0.0
 10
391.2959866132241
 20
253.7145093982473
 30
0.0
 10
391.2960096000065
 20
253.7158263101364
 30
0.0
 10
391.2960336907011
 20
253.7172064651102
 30
0.0
 10
391.2960587226159
 20
253.7186405425486
 30
0.0
 10
391.2960845313455
 20
253.7201191236682
 30
0.0
 10
391.2961121491814
 20
253.7217013484167
 30
0.0
 10
391.296141596021
 20
253.7233883567095
 30
0.0
 10
391.2961728931609
 20
253.7251813686342
 30
0.0
 10
391.2962060633296
 20
253.7270816863008
 30
0.0
 10
391.2962411307153
 20
253.7290906954486
 30
0.0
 10
391.2962787529125
 20
253.7312460696551
 30
0.0
 10
391.2963190239342
 20
253.7335531948962
 30
0.0
 10
391.2963620419277
 20
253.7360176940558
 30
0.0
 10
391.2964072677886
 20
253.738608681841
 30
0.0
 10
391.2964547423788
 20
253.7413284992395
 30
0.0
 10
391.2965044900174
 20
253.7441785394924
 30
0.0
 10
391.2965385127375
 20
253.7461276997919
 30
0.0
 10
391.2965558841288
 20
253.7471229061166
 30
0.0
  0
ARC
  5
133
330
1F
100
AcDbEntity
  8
0
  6
Continuous
 62
     7
370
    30
100
AcDbCircle
 10
389.7893299868
 20
253.3455247506
 30
0.0
 40
1.500000000000022
100
AcDbArc
 50
270.6942667112
 51
358.9999999866
  0
SPLINE
  5
134
330
1F
100
AcDbEntity
  8
0
  6
Continuous
 62
     7
370
    30
100
AcDbSpline
210
0.0
220
0.0
230
1.0
 70
     8
 71
     3
 72
    45
 73
    41
 74
     0
 42
0.000000001
 43
0.00000001
 40
0.0
 40
0.0
 40
0.0
 40
0.0
 40
0.0259438367548075
 40
0.0519090951647117
 40
0.0778739239273122
 40
0.1038171743138983
 40
0.1304932696955959
 40
0.1571936829269458
 40
0.1838936370836065
 40
0.2105691058817224
 40
0.2365215267233525
 40
0.2624971888581051
 40
0.2884725209173287
 40
0.3144244912518333
 40
0.3411685571016173
 40
0.367938728860943
 40
0.3947086868126355
 40
0.4214524608215299
 40
0.4467702169820059
 40
0.4721103591208546
 40
0.4974504886241118
 40
0.5227682275389991
 40
0.5488369755730825
 40
0.5749300309281513
 40
0.601023251603272
 40
0.6270922252837318
 40
0.6521715068548792
 40
0.6772719867860023
 40
0.7023727347586601
 40
0.7274523821492266
 40
0.753232254175815
 40
0.7790344189394901
 40
0.8048369718395137
 40
0.8306173735991667
 40
0.8588008370237423
 40
0.887038702075494
 40
0.9153052796495743
 40
0.9435732613824859
 40
0.971814369989885
 40
1.0
 40
1.0
 40
1.0
 40
1.0
 10
325.4999987063036
 20
192.5045523065424
 30
0.0
 10
325.499372014756
 20
192.5157267896834
 30
0.0
 10
325.4981181142057
 20
192.5380849826623
 30
0.0
 10
325.4879921818679
 20
192.5698577892771
 30
0.0
 10
325.4718301676165
 20
192.6002569507724
 30
0.0
 10
325.4488106809902
 20
192.6293559539627
 30
0.0
 10
325.4188240830289
 20
192.6570687556577
 30
0.0
 10
325.3816663099439
 20
192.6832855057936
 30
0.0
 10
325.3376852969162
 20
192.7076861908137
 30
0.0
 10
325.2873823700163
 20
192.7299960138299
 30
0.0
 10
325.2309679443421
 20
192.7502108787436
 30
0.0
 10
325.1687566296952
 20
192.7683638757737
 30
0.0
 10
325.100347344924
 20
192.7845954876601
 30
0.0
 10
325.0250911325854
 20
192.7990017782818
 30
0.0
 10
324.9428110860289
 20
192.8114615993783
 30
0.0
 10
324.8534596006797
 20
192.8218887232781
 30
0.0
 10
324.7580594897153
 20
192.8301330803395
 30
0.0
 10
324.6585992512273
 20
192.836056387848
 30
0.0
 10
324.5555494782052
 20
192.8397620171453
 30
0.0
 10
324.4494353708925
 20
192.8413943112904
 30
0.0
 10
324.3385839264291
 20
192.8410212873177
 30
0.0
 10
324.2220727308681
 20
192.8386160361016
 30
0.0
 10
324.0998825024304
 20
192.8340960885092
 30
0.0
 10
323.9720972646004
 20
192.8274187966694
 30
0.0
 10
323.8401935276654
 20
192.8186527622906
 30
0.0
 10
323.7061703973679
 20
192.80795517921
 30
0.0
 10
323.5703859740422
 20
192.7954253071294
 30
0.0
 10
323.433216249906
 20
192.7811929850458
 30
0.0
 10
323.2931823015465
 20
192.7651363588063
 30
0.0
 10
323.1492340729669
 20
192.7471271925554
 30
0.0
 10
323.0014800296553
 20
192.7271297009583
 30
0.0
 10
322.8500897762277
 20
192.7051421538134
 30
0.0
 10
322.6967277018755
 20
192.6814071774033
 30
0.0
 10
322.5368917852757
 20
192.6551953031139
 30
0.0
 10
322.3705566296893
 20
192.6263366834053
 30
0.0
 10
322.1978236175941
 20
192.5947101727988
 30
0.0
 10
322.0239040531118
 20
192.5612617773266
 30
0.0
 10
321.8493134623989
 20
192.526071578482
 30
0.0
 10
321.6745293261531
 20
192.4893922079946
 30
0.0
 10
321.5581374342067
 20
192.4636545725361
 30
0.0
 10
321.4999987063101
 20
192.4507984073892
 30
0.0
  0
LINE
  5
135
330
1F
100
AcDbEntity
  8
0
  6
Continuous
 62
     7
370
    30
100
AcDbLine
 10
325.4999987063
 20
192.0145800071
 30
0.0
 11
325.4999987063
 21
196.2746300042
 31
0.0
  0
SPLINE
  5
136
330
1F
100
AcDbEntity
  8
0
  6
Continuous
 62
     7
370
    30
100
AcDbSpline
210
0.0
220
0.0
230
1.0
 70
     8
 71
     3
 72
    51
 73
    47
 74
     0
 42
0.000000001
 43
0.00000001
 40
0.0
 40
0.0
 40
0.0
 40
0.0
 40
0.0215605005214166
 40
0.0431210600906488
 40
0.0648691154283594
 40
0.086617344396166
 40
0.1089394437523278
 40
0.1312618317952633
 40
0.1537704018624757
 40
0.1762793285779945
 40
0.1978329054511347
 40
0.2193867968091547
 40
0.2412638091807229
 40
0.2631567590268044
 40
0.2850514089268987
 40
0.3069307412098664
 40
0.3291280788004479
 40
0.351325690769005
 40
0.3716302050156329
 40
0.3919395158701197
 40
0.4122445856773032
 40
0.4327049856164086
 40
0.4531695799410749
 40
0.4736304247714903
 40
0.4945268220112989
 40
0.5154270938879293
 40
0.5363238574835354
 40
0.5573488222084716
 40
0.5783772682167381
 40
0.5994025113316919
 40
0.6261221409708906
 40
0.6528419253728982
 40
0.6796599290630091
 40
0.706478050563098
 40
0.7305720890157987
 40
0.7546702667734687
 40
0.7787644897466512
 40
0.8030030629711425
 40
0.8272456210458217
 40
0.8514843045252011
 40
0.8761623017948346
 40
0.9008443652602862
 40
0.9255224119024245
 40
0.9503469167393913
 40
0.975175505232322
 40
1.0
 40
1.0
 40
1.0
 40
1.0
 10
320.2037024100063
 20
200.6506656197031
 30
0.0
 10
320.2754189674707
 20
200.6499838924844
 30
0.0
 10
320.41885227881
 20
200.6486204361798
 30
0.0
 10
320.632419729752
 20
200.6376237904583
 30
0.0
 10
320.8443910373965
 20
200.6200468954166
 30
0.0
 10
321.0560348173031
 20
200.595109072809
 30
0.0
 10
321.2662567468909
 20
200.5629499337054
 30
0.0
 10
321.4751361629831
 20
200.5234480917336
 30
0.0
 10
321.6804426399361
 20
200.4770460511901
 30
0.0
 10
321.8789771208736
 20
200.4247377518555
 30
0.0
 10
322.070108802753
 20
200.3672377939073
 30
0.0
 10
322.2547973308577
 20
200.304836048729
 30
0.0
 10
322.4355907540925
 20
200.2368471882648
 30
0.0
 10
322.6122750343401
 20
200.163494090962
 30
0.0
 10
322.7838121667824
 20
200.0854367303543
 30
0.0
 10
322.950867738811
 20
200.0025764569399
 30
0.0
 10
323.1132719599103
 20
199.915120658119
 30
0.0
 10
323.266468424529
 20
199.8258921432305
 30
0.0
 10
323.4101870178933
 20
199.7359313465147
 30
0.0
 10
323.544934516961
 20
199.645791359282
 30
0.0
 10
323.6753728435572
 20
199.5527149907379
 30
0.0
 10
323.8014608050323
 20
199.4568615064821
 30
0.0
 10
323.923174048017
 20
199.3583841546454
 30
0.0
 10
324.0410387063848
 20
199.2569779367471
 30
0.0
 10
324.1549538996094
 20
199.1527501711768
 30
0.0
 10
324.2648275335031
 20
199.0458060423867
 30
0.0
 10
324.3701012456529
 20
198.936801168841
 30
0.0
 10
324.4707622763925
 20
198.8258662610417
 30
0.0
 10
324.5668036815035
 20
198.7131215906717
 30
0.0
 10
324.6662806883038
 20
198.5886118019906
 30
0.0
 10
324.7675873051048
 20
198.4520061066216
 30
0.0
 10
324.8690952257358
 20
198.3028459191788
 30
0.0
 10
324.9630645825471
 20
198.1517858253035
 30
0.0
 10
325.0465757601545
 20
198.0041917592879
 30
0.0
 10
325.1204223366371
 20
197.8605880514108
 30
0.0
 10
325.1854603882863
 20
197.7212539874746
 30
0.0
 10
325.2445062468861
 20
197.5808181129779
 30
0.0
 10
325.2975269813935
 20
197.439395070364
 30
0.0
 10
325.3444937188039
 20
197.2970909509317
 30
0.0
 10
325.3855540733292
 20
197.1534330492582
 30
0.0
 10
325.4205801025661
 20
197.0085191151951
 30
0.0
 10
325.4494339753708
 20
196.8624452230689
 30
0.0
 10
325.4719915041794
 20
196.7158878241109
 30
0.0
 10
325.4880406328426
 20
196.5689521870569
 30
0.0
 10
325.4981252039877
 20
196.4217158635499
 30
0.0
 10
325.4993742398578
 20
196.3236559290659
 30
0.0
 10
325.4999987063036
 20
196.2746300041754
 30
0.0
  0
LINE
  5
137
330
1F
100
AcDbEntity
  8
0
  6
Continuous
 62
     7
370
    30
100
AcDbLine
 10
320.20370241
 20
200.6506656197
 30
0.0
 11
312.7962950026
 21
200.6506656197
 31
0.0
  0
SPLINE
  5
138
330
1F
100
AcDbEntity
  8
0
  6
Continuous
 62
     7
370
    30
100
AcDbSpline
210
0.0
220
0.0
230
1.0
 70
     8
 71
     3
 72
    51
 73
    47
 74
     0
 42
0.000000001
 43
0.00000001
 40
0.0
 40
0.0
 40
0.0
 40
0.0
 40
0.0215605006705535
 40
0.0431210603889229
 40
0.0648691158770677
 40
0.0866173449953097
 40
0.1089394445058764
 40
0.1312618327032188
 40
0.1537704029261259
 40
0.176279329797342
 40
0.1978329068195711
 40
0.2193867983266822
 40
0.2412638108495766
 40
0.2631567608470945
 40
0.2850514108986369
 40
0.3069307433329468
 40
0.3291280810770703
 40
0.3513256931991712
 40
0.3716302075862481
 40
0.3919395185812171
 40
0.4122445885288535
 40
0.4327049886094861
 40
0.4531695830757087
 40
0.4736304280476544
 40
0.494526825432006
 40
0.5154270974532065
 40
0.5363238611933583
 40
0.5573488260637269
 40
0.57837727221745
 40
0.5994025154778381
 40
0.624733501870711
 40
0.6500699585747997
 40
0.6754013579824081
 40
0.7009180339052281
 40
0.7264397813429019
 40
0.7519567352114834
 40
0.7780255498824891
 40
0.8040994095628834
 40
0.8301684041144719
 40
0.8564152445606464
 40
0.8826670135194054
 40
0.9089139384725978
 40
0.93166021315766
 40
0.9544064906998635
 40
0.9772032474925484
 40
1.0
 40
1.0
 40
1.0
 40
1.0
 10
312.7962950026009
 20
200.6506656197031
 30
0.0
 10
312.7245784451365
 20
200.6499838924843
 30
0.0
 10
312.5811451337972
 20
200.6486204361798
 30
0.0
 10
312.3675776828553
 20
200.6376237904583
 30
0.0
 10
312.1556063752108
 20
200.6200468954166
 30
0.0
 10
311.9439625953042
 20
200.595109072809
 30
0.0
 10
311.7337406657164
 20
200.5629499337054
 30
0.0
 10
311.5248612496242
 20
200.5234480917336
 30
0.0
 10
311.3195547726712
 20
200.4770460511901
 30
0.0
 10
311.1210202917336
 20
200.4247377518554
 30
0.0
 10
310.9298886098543
 20
200.3672377939073
 30
0.0
 10
310.7452000817495
 20
200.304836048729
 30
0.0
 10
310.5644066585148
 20
200.2368471882648
 30
0.0
 10
310.3877223782672
 20
200.163494090962
 30
0.0
 10
310.2161852458248
 20
200.0854367303543
 30
0.0
 10
310.0491296737963
 20
200.0025764569399
 30
0.0
 10
309.886725452697
 20
199.915120658119
 30
0.0
 10
309.7335289880782
 20
199.8258921432305
 30
0.0
 10
309.589810394714
 20
199.7359313465148
 30
0.0
 10
309.455062895646
 20
199.6457913592816
 30
0.0
 10
309.3246245690513
 20
199.5527149907391
 30
0.0
 10
309.1985366075707
 20
199.4568615064773
 30
0.0
 10
309.0768233646064
 20
199.3583841546633
 30
0.0
 10
308.9589587061617
 20
199.25697793668
 30
0.0
 10
308.8450435132299
 20
199.1527501714333
 30
0.0
 10
308.7351698782385
 20
199.0458060414301
 30
0.0
 10
308.6298961701927
 20
198.9368011724192
 30
0.0
 10
308.5292351240456
 20
198.8258662475955
 30
0.0
 10
308.4331937765157
 20
198.7131216408494
 30
0.0
 10
308.3357251402333
 20
198.5911256505459
 30
0.0
 10
308.2380114393752
 20
198.4596564669662
 30
0.0
 10
308.1413254430054
 20
198.318549172025
 30
0.0
 10
308.0512800670525
 20
198.1755348973218
 30
0.0
 10
307.967905995221
 20
198.0307788717936
 30
0.0
 10
307.8912294491386
 20
197.8844308902382
 30
0.0
 10
307.8209247281525
 20
197.7359355106612
 30
0.0
 10
307.7571496126156
 20
197.5854192161713
 30
0.0
 10
307.7000586946028
 20
197.4330039854431
 30
0.0
 10
307.6499781518244
 20
197.2795524386953
 30
0.0
 10
307.6069625820616
 20
197.1251980251579
 30
0.0
 10
307.5710559516298
 20
196.9700647238167
 30
0.0
 10
307.5436425547251
 20
196.8215378854527
 30
0.0
 10
307.523612924451
 20
196.6797792322324
 30
0.0
 10
307.5100750663792
 20
196.5447814408796
 30
0.0
 10
307.5015778302142
 20
196.4096889464675
 30
0.0
 10
307.5005250809075
 20
196.3196496487852
 30
0.0
 10
307.4999987063036
 20
196.2746300041754
 30
0.0
  0
LINE
  5
139
330
1F
100
AcDbEntity
  8
0
  6
Continuous
 62
     7
370
    30
100
AcDbLine
 10
307.4999987063
 20
196.2746300042
 30
0.0
 11
307.4999987063
 21
192.0145800999
 31
0.0
  0
SPLINE
  5
13A
330
1F
100
AcDbEntity
  8
0
  6
Continuous
 62
     7
370
    30
100
AcDbSpline
210
0.0
220
0.0
230
1.0
 70
     8
 71
     3
 72
    45
 73
    41
 74
     0
 42
0.000000001
 43
0.00000001
 40
0.0
 40
0.0
 40
0.0
 40
0.0
 40
0.0259438367548414
 40
0.051909095164783
 40
0.0778739239274417
 40
0.1038171743140903
 40
0.1304932696958046
 40
0.157193682927171
 40
0.1838936370838483
 40
0.2105691058819812
 40
0.2365215267236293
 40
0.2624971888584001
 40
0.2884725209176411
 40
0.3144244912521639
 40
0.3411685571019681
 40
0.367938728861314
 40
0.3947086868130266
 40
0.4214524608219409
 40
0.4467702169824137
 40
0.4721103591212589
 40
0.4974504886245123
 40
0.5227682275393964
 40
0.5488369755734759
 40
0.5749300309285408
 40
0.6010232516036578
 40
0.6270922252841136
 40
0.6521715068552583
 40
0.6772719867863785
 40
0.7023727347590332
 40
0.7274523821495965
 40
0.7532322541761818
 40
0.7790344189398538
 40
0.8048369718398747
 40
0.8306173735995246
 40
0.8588008370240409
 40
0.8870387020757327
 40
0.9153052796497526
 40
0.9435732613826048
 40
0.9718143699899449
 40
1.0
 40
1.0
 40
1.0
 40
1.0
 10
307.499998706292
 20
192.5045523065347
 30
0.0
 10
307.5006253978401
 20
192.5157267896759
 30
0.0
 10
307.5018792983913
 20
192.5380849826554
 30
0.0
 10
307.5120052307336
 20
192.5698577892732
 30
0.0
 10
307.5281672449894
 20
192.6002569507715
 30
0.0
 10
307.5511867316175
 20
192.6293559539631
 30
0.0
 10
307.5811733295783
 20
192.6570687556577
 30
0.0
 10
307.6183311026636
 20
192.6832855057937
 30
0.0
 10
307.6623121156913
 20
192.7076861908137
 30
0.0
 10
307.7126150425913
 20
192.72999601383
 30
0.0
 10
307.7690294682655
 20
192.7502108787437
 30
0.0
 10
307.8312407829125
 20
192.7683638757739
 30
0.0
 10
307.8996500676839
 20
192.7845954876603
 30
0.0
 10
307.9749062800226
 20
192.799001778282
 30
0.0
 10
308.0571863265792
 20
192.8114615993784
 30
0.0
 10
308.1465378119286
 20
192.8218887232782
 30
0.0
 10
308.2419379228931
 20
192.8301330803395
 30
0.0
 10
308.3413981613813
 20
192.8360563878481
 30
0.0
 10
308.4444479344035
 20
192.8397620171453
 30
0.0
 10
308.5505620417162
 20
192.8413943112905
 30
0.0
 10
308.6614134861797
 20
192.8410212873177
 30
0.0
 10
308.7779246817407
 20
192.8386160361016
 30
0.0
 10
308.9001149101785
 20
192.8340960885091
 30
0.0
 10
309.0279001480085
 20
192.8274187966693
 30
0.0
 10
309.1598038849436
 20
192.8186527622905
 30
0.0
 10
309.2938270152412
 20
192.8079551792098
 30
0.0
 10
309.4296114385669
 20
192.7954253071292
 30
0.0
 10
309.5667811627032
 20
192.7811929850456
 30
0.0
 10
309.7068151110627
 20
192.765136358806
 30
0.0
 10
309.8507633396424
 20
192.7471271925552
 30
0.0
 10
309.9985173829539
 20
192.727129700958
 30
0.0
 10
310.1499076363816
 20
192.7051421538131
 30
0.0
 10
310.3032697107338
 20
192.681407177403
 30
0.0
 10
310.4631056273336
 20
192.6551953031137
 30
0.0
 10
310.6294407829197
 20
192.626336683405
 30
0.0
 10
310.8021737950145
 20
192.5947101727985
 30
0.0
 10
310.9760933594965
 20
192.5612617773264
 30
0.0
 10
311.150683950209
 20
192.5260715784819
 30
0.0
 10
311.3254680864545
 20
192.4893922079945
 30
0.0
 10
311.4418599784007
 20
192.4636545725361
 30
0.0
 10
311.4999987062972
 20
192.4507984073892
 30
0.0
  0
ARC
  5
13B
330
1F
100
AcDbEntity
  8
0
  6
Continuous
 62
     7
370
    30
100
AcDbCircle
 10
316.5000409084
 20
214.8018309774
 30
0.0
 40
22.903473076539
100
AcDbArc
 50
257.3902479309
 51
258.0230829441
  0
ARC
  5
13C
330
1F
100
AcDbEntity
  8
0
  6
Continuous
 62
     7
370
    30
100
AcDbCircle
 10
316.4999986486
 20
214.8016477628
 30
0.0
 40
22.9032850806615
100
AcDbArc
 50
258.0230912484
 51
282.6097492414
  0
LINE
  5
13D
330
1F
100
AcDbEntity
  8
0
  6
Continuous
 62
     7
370
    30
100
AcDbLine
 10
316.4999987063
 20
251.4483082712
 30
0.0
 11
292.6980316016
 21
251.4483082719
 31
0.0
  0
LINE
  5
13E
330
1F
100
AcDbEntity
  8
0
  6
Continuous
 62
     7
370
    30
100
AcDbLine
 10
340.301965811
 20
251.4483082723
 30
0.0
 11
316.4999987063
 21
251.4483082712
 31
0.0
  0
LINE
  5
13F
330
1F
100
AcDbEntity
  8
0
  6
Continuous
 62
     7
370
    30
100
AcDbLine
 10
243.508573649
 20
265.4016373178
 30
0.0
 11
389.4914234671
 21
265.4016373178
 31
0.0
  0
LINE
  5
140
330
1F
100
AcDbEntity
  8
0
  6
Continuous
 62
     7
370
    30
100
AcDbLine
 10
391.4911188574
 20
264.8929111146
 30
0.0
 11
391.2967506398
 21
253.757563384
 31
0.0
  0
LINE
  5
141
330
1F
100
AcDbEntity
  8
0
  6
Continuous
 62
     7
370
    30
100
AcDbLine
 10
241.5088785552
 20
264.8929111146
 30
0.0
 11
241.5112400118
 21
264.8927045985
 31
0.0
  0
LINE
  5
142
330
1F
100
AcDbEntity
  8
0
  6
Continuous
 62
     7
370
    30
100
AcDbLine
 10
241.5088785552
 20
264.8929111146
 30
0.0
 11
241.7032467721
 21
253.7575634296
 31
0.0
  0
SPLINE
  5
143
330
1F
100
AcDbEntity
  8
0
  6
Continuous
 62
     7
370
    30
100
AcDbSpline
210
0.0
220
0.0
230
1.0
 70
    24
 71
     3
 72
    14
 73
    10
 74
     0
 42
0.000000001
 43
0.00000001
 40
0.0
 40
0.0
 40
0.0
 40
0.0
 40
0.25
 40
0.25
 40
0.5
 40
0.5
 40
0.75
 40
0.75
 40
1.0
 40
1.0
 40
1.0
 40
1.0
 10
389.4914234671036
 20
265.401637317818
 30
0.0
 10
389.6877591954199
 20
265.401637317818
 30
0.0
 10
389.8839999935092
 20
265.401637317818
 30
0.0
 10
390.2467490579691
 20
265.401637317818
 30
0.0
 10
390.4131310461513
 20
265.401637317818
 30
0.0
 10
390.690770669312
 20
265.401637317818
 30
0.0
 10
390.8019188907331
 20
265.401637317818
 30
0.0
 10
390.9521648767426
 20
265.401637317818
 30
0.0
 10
390.9911949719499
 20
265.401637317818
 30
0.0
 10
390.9911950081037
 20
265.401637317818
 30
0.0
  0
SPLINE
  5
144
330
1F
100
AcDbEntity
  8
0
  6
Continuous
 62
     7
370
    30
100
AcDbSpline
210
0.0
220
0.0
230
1.0
 70
     8
 71
     3
 72
    19
 73
    15
 74
     0
 42
0.000000001
 43
0.00000001
 40
0.0
 40
0.0
 40
0.0
 40
0.0
 40
0.0846686334253996
 40
0.1693372668507946
 40
0.2540059002761958
 40
0.3386745337016034
 40
0.423343167127008
 40
0.5080118005524056
 40
0.5926804339778046
 40
0.677349067403202
 40
0.7620177008286061
 40
0.8466863342540093
 40
0.9313549676794087
 40
1.0
 40
1.0
 40
1.0
 40
1.0
 10
390.9911950081037
 20
265.401637317818
 30
0.0
 10
391.0132539931703
 20
265.4007932701022
 30
0.0
 10
391.0573719633035
 20
265.3991051746704
 30
0.0
 10
391.1223913409446
 20
265.3855278023988
 30
0.0
 10
391.1851158499599
 20
265.3641141261112
 30
0.0
 10
391.2444481887779
 20
265.3344425210178
 30
0.0
 10
391.2993509637259
 20
265.2972453520626
 30
0.0
 10
391.3488621283886
 20
265.2531160785918
 30
0.0
 10
391.392121914613
 20
265.2028420480219
 30
0.0
 10
391.4283501670924
 20
265.1472981102943
 30
0.0
 10
391.457000705184
 20
265.0874585933248
 30
0.0
 10
391.4772457200867
 20
265.0243637597121
 30
0.0
 10
391.4891487242925
 20
264.9632548603195
 30
0.0
 10
391.4900885324795
 20
264.9233004646674
 30
0.0
 10
391.4905093244752
 20
264.905411186712
 30
0.0
  0
SPLINE
  5
145
330
1F
100
AcDbEntity
  8
0
  6
Continuous
 62
     7
370
    30
100
AcDbSpline
210
0.0
220
0.0
230
1.0
 70
    24
 71
     3
 72
    14
 73
    10
 74
     0
 42
0.000000001
 43
0.00000001
 40
0.0
 40
0.0
 40
0.0
 40
0.0
 40
0.25
 40
0.25
 40
0.5
 40
0.5
 40
0.75
 40
0.75
 40
1.0
 40
1.0
 40
1.0
 40
1.0
 10
242.0088024028036
 20
265.401637317818
 30
0.0
 10
242.0088024028036
 20
265.401637317818
 30
0.0
 10
242.0478301719895
 20
265.401637317818
 30
0.0
 10
242.1980658303017
 20
265.401637317818
 30
0.0
 10
242.3092285818812
 20
265.401637317818
 30
0.0
 10
242.5868687377779
 20
265.401637317818
 30
0.0
 10
242.7532244591666
 20
265.401637317818
 30
0.0
 10
243.1159849610061
 20
265.401637317818
 30
0.0
 10
243.3122457706476
 20
265.401637317818
 30
0.0
 10
243.5085736490037
 20
265.401637317818
 30
0.0
  0
SPLINE
  5
146
330
1F
100
AcDbEntity
  8
0
  6
Continuous
 62
     7
370
    30
100
AcDbSpline
210
0.0
220
0.0
230
1.0
 70
     8
 71
     3
 72
    19
 73
    15
 74
     0
 42
0.000000001
 43
0.00000001
 40
0.0
 40
0.0
 40
0.0
 40
0.0
 40
0.0846546292391663
 40
0.1693092584783263
 40
0.2539638877174999
 40
0.3386185169566734
 40
0.4232731461958273
 40
0.5079277754349958
 40
0.592582404674168
 40
0.6772370339133369
 40
0.7618916631525026
 40
0.8465462923916689
 40
0.931200921630836
 40
1.0
 40
1.0
 40
1.0
 40
1.0
 10
242.0088024028036
 20
265.401637317818
 30
0.0
 10
241.9867434176456
 20
265.4007932700196
 30
0.0
 10
241.9426254473296
 20
265.399105174423
 30
0.0
 10
241.8776060694416
 20
265.3855278018149
 30
0.0
 10
241.8148815603372
 20
265.3641141251243
 30
0.0
 10
241.7555492211209
 20
265.3344425196069
 30
0.0
 10
241.7006464472771
 20
265.2972453500635
 30
0.0
 10
241.6511352785053
 20
265.2531160764404
 30
0.0
 10
241.6078755080611
 20
265.2028420439821
 30
0.0
 10
241.5716471975938
 20
265.1472981108128
 30
0.0
 10
241.5429968772953
 20
265.0874585743887
 30
0.0
 10
241.5227510514314
 20
265.0243638110698
 30
0.0
 10
241.5108426129219
 20
264.9632121854636
 30
0.0
 10
241.5099030408524
 20
264.923214569387
 30
0.0
 10
241.509481795296
 20
264.9052821312209
 30
0.0
  0
SPLINE
  5
147
330
1F
100
AcDbEntity
  8
0
  6
Continuous
 62
     7
370
    30
100
AcDbSpline
210
0.0
220
0.0
230
1.0
 70
    24
 71
     3
 72
    18
 73
    14
 74
     0
 42
0.000000001
 43
0.00000001
 40
0.0
 40
0.0
 40
0.0
 40
0.0
 40
0.0972201092814955
 40
0.1944402185507241
 40
0.2916603278165009
 40
0.3888804370843704
 40
0.486100546357154
 40
0.5815845824484391
 40
0.6770686185441711
 40
0.7725526546424165
 40
0.8680366907407281
 40
0.98170815967107
 40
1.0
 40
1.0
 40
1.0
 40
1.0
 10
241.7032467728037
 20
253.7575633840179
 30
0.0
 10
241.7037286001416
 20
253.729959514599
 30
0.0
 10
241.7046922548175
 20
253.6747517757645
 30
0.0
 10
241.7059544187321
 20
253.602442454189
 30
0.0
 10
241.7070823775652
 20
253.5378217364421
 30
0.0
 10
241.7080629945937
 20
253.4816422249003
 30
0.0
 10
241.7088947205488
 20
253.4339926771253
 30
0.0
 10
241.7095799599836
 20
253.3947353363743
 30
0.0
 10
241.7101206365485
 20
253.3637599967961
 30
0.0
 10
241.7105256533549
 20
253.3405565994933
 30
0.0
 10
241.7107929112282
 20
253.3252454061129
 30
0.0
 10
241.7109174229734
 20
253.3181121329141
 30
0.0
 10
241.71088676116
 20
253.3198687469408
 30
0.0
 10
241.7108825110317
 20
253.3201122366159
 30
0.0
  0
LINE
  5
148
330
1F
100
AcDbEntity
  8
0
  6
Continuous
 62
     7
370
    30
100
AcDbLine
 10
391.2966180499
 20
253.7499673142
 30
0.0
 11
391.2967506398
 21
253.757563384
 31
0.0
  0
LINE
  5
149
330
1F
100
AcDbEntity
  8
0
  6
Continuous
 62
     7
370
    30
100
AcDbLine
 10
391.2891015288
 20
253.3193461406
 30
0.0
 11
391.2914154449
 21
253.4519103044
 31
0.0
  0
LINE
  5
14A
330
1F
100
AcDbEntity
  8
0
  6
Continuous
 62
   252
370
     0
100
AcDbLine
 10
293.4792508253
 20
206.4174160063
 30
0.0
 11
339.5207465873
 21
206.4174160063
 31
0.0
  0
LINE
  5
14B
330
1F
100
AcDbEntity
  8
0
  6
Continuous
 62
   252
370
     0
100
AcDbLine
 10
311.4999987063
 20
193.5270983371
 30
0.0
 11
311.4999987063
 21
192.4507984074
 31
0.0
  0
LINE
  5
14C
330
1F
100
AcDbEntity
  8
0
  6
Continuous
 62
   252
370
     0
100
AcDbLine
 10
321.4999987063
 20
193.5270983371
 30
0.0
 11
321.4999987063
 21
192.4507984074
 31
0.0
  0
LINE
  5
14D
330
1F
100
AcDbEntity
  8
0
  6
Continuous
 62
   252
370
     0
100
AcDbLine
 10
243.1848410031
 20
252.2839608103
 30
0.0
 11
243.1924920107
 21
251.8456348792
 31
0.0
  0
SPLINE
  5
14E
330
1F
100
AcDbEntity
  8
0
  6
Continuous
 62
   252
370
     0
100
AcDbSpline
210
0.0
220
0.0
230
1.0
 70
     8
 71
     3
 72
    14
 73
    10
 74
     0
 42
0.000000001
 43
0.00000001
 40
0.0
 40
0.0
 40
0.0
 40
0.0
 40
0.25
 40
0.25
 40
0.5
 40
0.5
 40
0.75
 40
0.75
 40
1.0
 40
1.0
 40
1.0
 40
1.0
 10
243.6848888301036
 20
252.283960788718
 30
0.0
 10
243.6018131798092
 20
252.2849610078967
 30
0.0
 10
243.5372844313356
 20
252.285519912946
 30
0.0
 10
243.4220226681377
 20
252.2862833364811
 30
0.0
 10
243.3731415281325
 20
252.2864550864951
 30
0.0
 10
243.2895190245767
 20
252.286455544329
 30
0.0
 10
243.2548431364655
 20
252.2862835349295
 30
0.0
 10
243.2030633182727
 20
252.2855229795011
 30
0.0
 10
243.184824538945
 20
252.2849587600656
 30
0.0
 10
243.1848411775037
 20
252.2839608074179
 30
0.0
  0
SPLINE
  5
14F
330
1F
100
AcDbEntity
  8
0
  6
Continuous
 62
   252
370
     0
100
AcDbSpline
210
0.0
220
0.0
230
1.0
 70
     8
 71
     3
 72
    23
 73
    19
 74
     0
 42
0.000000001
 43
0.00000001
 40
0.0
 40
0.0
 40
0.0
 40
0.0
 40
0.0454178038784158
 40
0.0893641544926446
 40
0.1654766715424839
 40
0.2924909682286607
 40
0.3480064426897714
 40
0.4003365567951266
 40
0.4506486193484483
 40
0.4999948591957189
 40
0.5493618564748859
 40
0.5996998232468514
 40
0.6520094699618997
 40
0.7075111533011934
 40
0.8345179144263114
 40
0.9106286987474804
 40
0.9545782065280793
 40
1.0
 40
1.0
 40
1.0
 40
1.0
 10
389.3151085824587
 20
252.283960791866
 30
0.0
 10
387.1104724373222
 20
252.2581145242201
 30
0.0
 10
382.7726263010037
 20
252.2072593604358
 30
0.0
 10
374.7400626647268
 20
252.1240334401515
 30
0.0
 10
362.7464834602486
 20
252.016203301361
 30
0.0
 10
350.1910496330776
 20
251.9343652713106
 30
0.0
 10
338.7899836329917
 20
251.8850064895618
 30
0.0
 10
331.1123225457857
 20
251.8617471347353
 30
0.0
 10
323.73412136095
 20
251.848509813386
 30
0.0
 10
316.4997528324812
 20
251.8442112005139
 30
0.0
 10
309.2641267933852
 20
251.8485105425882
 30
0.0
 10
301.8846540266648
 20
251.8617542799421
 30
0.0
 10
294.2073985098351
 20
251.8850172094652
 30
0.0
 10
282.8083613779664
 20
251.9343696273359
 30
0.0
 10
270.2540469368319
 20
252.016199798893
 30
0.0
 10
258.2607643668437
 20
252.1240254468721
 30
0.0
 10
250.2279379083176
 20
252.2072528550777
 30
0.0
 10
245.8897448589351
 20
252.2581119919313
 30
0.0
 10
243.6849150537428
 20
252.2839604821955
 30
0.0
  0
SPLINE
  5
150
330
1F
100
AcDbEntity
  8
0
  6
Continuous
 62
   252
370
     0
100
AcDbSpline
210
0.0
220
0.0
230
1.0
 70
     8
 71
     3
 72
    14
 73
    10
 74
     0
 42
0.000000001
 43
0.00000001
 40
0.0
 40
0.0
 40
0.0
 40
0.0
 40
0.25
 40
0.25
 40
0.5
 40
0.5
 40
0.75
 40
0.75
 40
1.0
 40
1.0
 40
1.0
 40
1.0
 10
389.8151564088037
 20
252.283960788718
 30
0.0
 10
389.8151738677576
 20
252.2849610077703
 30
0.0
 10
389.7970760208355
 20
252.2855199129966
 30
0.0
 10
389.7452354802151
 20
252.2862833365162
 30
0.0
 10
389.7106224148779
 20
252.2864550865235
 30
0.0
 10
389.6270379463096
 20
252.2864555443714
 30
0.0
 10
389.5780724320437
 20
252.2862835349216
 30
0.0
 10
389.4631096599803
 20
252.2855229795217
 30
0.0
 10
389.3979984933993
 20
252.2849587599565
 30
0.0
 10
389.3151103062037
 20
252.2839608074179
 30
0.0
  0
SPLINE
  5
151
330
1F
100
AcDbEntity
  8
0
  6
Continuous
 62
   252
370
     0
100
AcDbSpline
210
0.0
220
0.0
230
1.0
 70
     8
 71
     3
 72
    12
 73
     8
 74
     0
 42
0.000000001
 43
0.00000001
 40
0.0
 40
0.0
 40
0.0
 40
0.0
 40
0.2202822495592941
 40
0.4470332726086834
 40
0.7065844475155301
 40
0.8514821770727459
 40
1.0
 40
1.0
 40
1.0
 40
1.0
 10
389.809819891472
 20
251.9782319194254
 30
0.0
 10
389.8101300981461
 20
251.9949966259434
 30
0.0
 10
389.810759620974
 20
252.0290183486836
 30
0.0
 10
389.8118416081518
 20
252.0945642946153
 30
0.0
 10
389.8129979577567
 20
252.1617213513167
 30
0.0
 10
389.8142156073433
 20
252.226975471026
 30
0.0
 10
389.8148402446193
 20
252.2648100867121
 30
0.0
 10
389.8151564165725
 20
252.2839607919335
 30
0.0
  0
LINE
  5
152
330
1F
100
AcDbEntity
  8
0
  6
Continuous
 62
   252
370
     0
100
AcDbLine
 10
389.807505402
 20
251.8456348792
 30
0.0
 11
389.8098198919
 21
251.9782319171
 31
0.0
  0
SPLINE
  5
153
330
1F
100
AcDbEntity
  8
0
  6
Continuous
 62
   252
370
     0
100
AcDbSpline
210
0.0
220
0.0
230
1.0
 70
    24
 71
     3
 72
    10
 73
     6
 74
     0
 42
0.000000001
 43
0.00000001
 40
0.0
 40
0.0
 40
0.0
 40
0.0
 40
0.5
 40
0.5
 40
1.0
 40
1.0
 40
1.0
 40
1.0
 10
389.4914234672004
 20
265.401637317818
 30
0.0
 10
389.491423467209
 20
265.401637317818
 30
0.0
 10
389.4914234672174
 20
265.3463710109725
 30
0.0
 10
389.4914234672294
 20
265.1575768698385
 30
0.0
 10
389.4914234672329
 20
265.025245091366
 30
0.0
 10
389.4914234672327
 20
264.8929111145984
 30
0.0
  0
LINE
  5
154
330
1F
100
AcDbEntity
  8
0
  6
Continuous
 62
   252
370
     0
100
AcDbLine
 10
243.5085739454
 20
264.8929111146
 30
0.0
 11
389.4914234671
 21
264.8929111146
 31
0.0
  0
SPLINE
  5
155
330
1F
100
AcDbEntity
  8
0
  6
Continuous
 62
   252
370
     0
100
AcDbSpline
210
0.0
220
0.0
230
1.0
 70
    24
 71
     3
 72
    10
 73
     6
 74
     0
 42
0.000000001
 43
0.00000001
 40
0.0
 40
0.0
 40
0.0
 40
0.0
 40
0.5
 40
0.5
 40
1.0
 40
1.0
 40
1.0
 40
1.0
 10
243.5085736490037
 20
265.401637317818
 30
0.0
 10
243.5085736490037
 20
265.401637318268
 30
0.0
 10
243.5085736490037
 20
265.3464935975597
 30
0.0
 10
243.5085736490037
 20
265.1576903072575
 30
0.0
 10
243.5085736490037
 20
265.0252450959595
 30
0.0
 10
243.5085736490037
 20
264.8929111197425
 30
0.0
  0
SPLINE
  5
156
330
1F
100
AcDbEntity
  8
0
  6
Continuous
 62
   252
370
     0
100
AcDbSpline
210
0.0
220
0.0
230
1.0
 70
     8
 71
     3
 72
    23
 73
    19
 74
     0
 42
0.000000001
 43
0.00000001
 40
0.0
 40
0.0
 40
0.0
 40
0.0
 40
0.0634748378331948
 40
0.1269484864550982
 40
0.1904211158844271
 40
0.2538928961480761
 40
0.3173639972797762
 40
0.3808345893187162
 40
0.4443048423081706
 40
0.5077749262941367
 40
0.5712450113239802
 40
0.6347152674450502
 40
0.6981858647033274
 40
0.7616569731420477
 40
0.8251287628003308
 40
0.8886014037118364
 40
0.9520750659033747
 40
1.0
 40
1.0
 40
1.0
 40
1.0
 10
389.4914234671037
 20
264.8929111145991
 30
0.0
 10
389.556864759298
 20
264.8926271821829
 30
0.0
 10
389.6877461176336
 20
264.8920593226698
 30
0.0
 10
389.882174646561
 20
264.8912584773316
 30
0.0
 10
390.0728367385794
 20
264.8905311486291
 30
0.0
 10
390.2578970902067
 20
264.8899027435479
 30
0.0
 10
390.4355744368802
 20
264.8893928459061
 30
0.0
 10
390.6041584653203
 20
264.8890172843707
 30
0.0
 10
390.7620264605922
 20
264.8887873752903
 30
0.0
 10
390.9076584347612
 20
264.8887099763978
 30
0.0
 10
391.0396535493393
 20
264.888787374994
 30
0.0
 10
391.1567369349027
 20
264.8890172864735
 30
0.0
 10
391.2577968386335
 20
264.8893928399331
 30
0.0
 10
391.341802493997
 20
264.8899027693111
 30
0.0
 10
391.4081605055729
 20
264.8905310582405
 30
0.0
 10
391.4554275265493
 20
264.8912588236823
 30
0.0
 10
391.4836411161428
 20
264.8919927785771
 30
0.0
 10
391.487217805172
 20
264.8924904318485
 30
0.0
 10
391.4887565371821
 20
264.8927045279057
 30
0.0
  0
SPLINE
  5
157
330
1F
100
AcDbEntity
  8
0
  6
Continuous
 62
   252
370
     0
100
AcDbSpline
210
0.0
220
0.0
230
1.0
 70
     8
 71
     3
 72
    18
 73
    14
 74
     0
 42
0.000000001
 43
0.00000001
 40
0.0
 40
0.0
 40
0.0
 40
0.0
 40
0.1250000000000012
 40
0.1250000000000012
 40
0.2500000000000024
 40
0.2500000000000024
 40
0.4999999999999993
 40
0.4999999999999993
 40
0.7499999999999962
 40
0.7499999999999962
 40
0.8749999999999981
 40
0.8749999999999981
 40
1.0
 40
1.0
 40
1.0
 40
1.0
 10
391.2967506398036
 20
253.7575633840179
 30
0.0
 10
391.2967214403586
 20
253.7558905535513
 30
0.0
 10
391.2770102509057
 20
253.7546169082605
 30
0.0
 10
391.2151937318429
 20
253.7525245839892
 30
0.0
 10
391.1723936274773
 20
253.7517098486317
 30
0.0
 10
391.0168415912291
 20
253.749794604748
 30
0.0
 10
390.8787689243533
 20
253.7492158844784
 30
0.0
 10
390.5441085644808
 20
253.7492190221163
 30
0.0
 10
390.3483019072964
 20
253.7497945225278
 30
0.0
 10
390.0029519740528
 20
253.7517096775538
 30
0.0
 10
389.8792951293992
 20
253.7525219986709
 30
0.0
 10
389.6090777764788
 20
253.7546162514815
 30
0.0
 10
389.4627334742735
 20
253.755894282028
 30
0.0
 10
389.2970621511037
 20
253.757563321718
 30
0.0
  0
LINE
  5
158
330
1F
100
AcDbEntity
  8
0
  6
Continuous
 62
   252
370
     0
100
AcDbLine
 10
389.4914234671
 20
264.8929111146
 30
0.0
 11
389.2970552502
 21
253.7575634296
 31
0.0
  0
SPLINE
  5
159
330
1F
100
AcDbEntity
  8
0
  6
Continuous
 62
   252
370
     0
100
AcDbSpline
210
0.0
220
0.0
230
1.0
 70
     8
 71
     3
 72
    23
 73
    19
 74
     0
 42
0.000000001
 43
0.00000001
 40
0.0
 40
0.0
 40
0.0
 40
0.0
 40
0.0479303279209269
 40
0.1114036158995157
 40
0.1748758846913208
 40
0.2383473043222707
 40
0.3018180448251304
 40
0.3652882762381227
 40
0.4287581686035557
 40
0.4922278919664606
 40
0.5556976163732369
 40
0.6191675118702679
 40
0.6826377485025676
 40
0.7461084963124059
 40
0.8095799253379365
 40
0.873052205611853
 40
0.9365255071599997
 40
1.0
 40
1.0
 40
1.0
 40
1.0
 10
241.5112400117562
 20
264.8927045985433
 30
0.0
 10
241.5127788690919
 20
264.8924904773678
 30
0.0
 10
241.5163556080586
 20
264.8919927992958
 30
0.0
 10
241.5445698008269
 20
264.8912588209471
 30
0.0
 10
241.5918368906187
 20
264.8905310565598
 30
0.0
 10
241.6581948558167
 20
264.8899027682168
 30
0.0
 10
241.7422004929795
 20
264.8893928392985
 30
0.0
 10
241.8432603710142
 20
264.8890172861327
 30
0.0
 10
241.9603437355388
 20
264.8887873748499
 30
0.0
 10
242.0923388328691
 20
264.8887099763978
 30
0.0
 10
242.2379707959241
 20
264.8887873754346
 30
0.0
 10
242.3958387873606
 20
264.8890172847107
 30
0.0
 10
242.5644228203161
 20
264.8893928465436
 30
0.0
 10
242.74210018051
 20
264.8899027446317
 30
0.0
 10
242.9271605549555
 20
264.8905311503491
 30
0.0
 10
243.1178226789831
 20
264.8912584799203
 30
0.0
 10
243.3122512486004
 20
264.8920593263654
 30
0.0
 10
243.4431326370905
 20
264.8926271868393
 30
0.0
 10
243.5085739454381
 20
264.8929111197407
 30
0.0
  0
LINE
  5
15A
330
1F
100
AcDbEntity
  8
0
  6
Continuous
 62
   252
370
     0
100
AcDbLine
 10
243.5085739455
 20
264.8929111146
 30
0.0
 11
243.7029421632
 21
253.757563384
 31
0.0
  0
SPLINE
  5
15B
330
1F
100
AcDbEntity
  8
0
  6
Continuous
 62
   252
370
     0
100
AcDbSpline
210
0.0
220
0.0
230
1.0
 70
     8
 71
     3
 72
    18
 73
    14
 74
     0
 42
0.000000001
 43
0.00000001
 40
0.0
 40
0.0
 40
0.0
 40
0.0
 40
0.125
 40
0.125
 40
0.25
 40
0.25
 40
0.5
 40
0.5
 40
0.75
 40
0.75
 40
0.875
 40
0.875
 40
1.0
 40
1.0
 40
1.0
 40
1.0
 10
243.7029421632037
 20
253.7575633840179
 30
0.0
 10
243.5368961653881
 20
253.755890553542
 30
0.0
 10
243.3907845178517
 20
253.7546169082652
 30
0.0
 10
243.1213192711341
 20
253.752524583964
 30
0.0
 10
242.9976622898285
 20
253.7517098485913
 30
0.0
 10
242.6520355012067
 20
253.7497946047207
 30
0.0
 10
242.45652881772
 20
253.7492158845067
 30
0.0
 10
242.1221798516444
 20
253.7492190221612
 30
0.0
 10
241.9834876545781
 20
253.7497945225657
 30
0.0
 10
241.828203662598
 20
253.7517096775568
 30
0.0
 10
241.7851640871231
 20
253.7525219986612
 30
0.0
 10
241.7227868398494
 20
253.7546162514647
 30
0.0
 10
241.7032782107048
 20
253.7558942820187
 30
0.0
 10
241.7032474901036
 20
253.757563321718
 30
0.0
  0
SPLINE
  5
15C
330
1F
100
AcDbEntity
  8
0
  6
Continuous
 62
   252
370
     0
100
AcDbSpline
210
0.0
220
0.0
230
1.0
 70
     8
 71
     3
 72
     8
 73
     4
 74
     0
 42
0.000000001
 43
0.00000001
 40
0.0
 40
0.0
 40
0.0
 40
0.0
 40
1.0
 40
1.0
 40
1.0
 40
1.0
 10
389.2970552494037
 20
253.7575633840179
 30
0.0
 10
340.7680297376037
 20
253.173280796018
 30
0.0
 10
292.2319676750037
 20
253.173280796018
 30
0.0
 10
243.7029421632037
 20
253.7575633840179
 30
0.0
  0
SPLINE
  5
15D
330
1F
100
AcDbEntity
  8
0
  6
Continuous
 62
   252
370
     0
100
AcDbSpline
210
0.0
220
0.0
230
1.0
 70
     8
 71
     3
 72
    11
 73
     7
 74
     0
 42
0.000000001
 43
0.00000001
 40
0.0
 40
0.0
 40
0.0
 40
0.0
 40
0.25
 40
0.5
 40
0.75
 40
1.0
 40
1.0
 40
1.0
 40
1.0
 10
243.6848888272417
 20
252.2839607887524
 30
0.0
 10
243.6849516724429
 20
252.2858280064324
 30
0.0
 10
243.6860027278902
 20
252.3664016733186
 30
0.0
 10
243.6900463998582
 20
252.6937270477905
 30
0.0
 10
243.6959792357242
 20
253.1807341166928
 30
0.0
 10
243.7006293399263
 20
253.5655175995904
 30
0.0
 10
243.702942151763
 20
253.7575633839027
 30
0.0
  0
SPLINE
  5
15E
330
1F
100
AcDbEntity
  8
0
  6
Continuous
 62
   252
370
     0
100
AcDbSpline
210
0.0
220
0.0
230
1.0
 70
     8
 71
     3
 72
    11
 73
     7
 74
     0
 42
0.000000001
 43
0.00000001
 40
0.0
 40
0.0
 40
0.0
 40
0.0
 40
0.25
 40
0.5
 40
0.75
 40
1.0
 40
1.0
 40
1.0
 40
1.0
 10
389.3151085825037
 20
252.283960788718
 30
0.0
 10
389.3150457362037
 20
252.2858280063846
 30
0.0
 10
389.3139946785472
 20
252.366401673262
 30
0.0
 10
389.3099510037601
 20
252.6937270477678
 30
0.0
 10
389.3040181659721
 20
253.180734116737
 30
0.0
 10
389.2993680612703
 20
253.5655175996847
 30
0.0
 10
389.2970552494037
 20
253.7575633840179
 30
0.0
  0
SPLINE
  5
15F
330
1F
100
AcDbEntity
  8
0
  6
Continuous
 62
   252
370
     0
100
AcDbSpline
210
0.0
220
0.0
230
1.0
 70
     8
 71
     3
 72
    14
 73
    10
 74
     0
 42
0.000000001
 43
0.00000001
 40
0.0
 40
0.0
 40
0.0
 40
0.0
 40
0.25
 40
0.25
 40
0.5
 40
0.5
 40
0.75
 40
0.75
 40
1.0
 40
1.0
 40
1.0
 40
1.0
 10
243.1848411775361
 20
252.2839608101047
 30
0.0
 10
242.992202102151
 20
252.2862947482627
 30
0.0
 10
242.8000885413313
 20
252.3261900146617
 30
0.0
 10
242.4448125924901
 20
252.4753093208097
 30
0.0
 10
242.28177979344
 20
252.5844789684264
 30
0.0
 10
242.008601367728
 20
252.8561838346806
 30
0.0
 10
241.898555384488
 20
253.0186199473907
 30
0.0
 10
241.7475315639476
 20
253.3730693662422
 30
0.0
 10
241.7066088134653
 20
253.5649533848981
 30
0.0
 10
241.7032467741044
 20
253.7575633092227
 30
0.0
  0
SPLINE
  5
160
330
1F
100
AcDbEntity
  8
0
  6
Continuous
 62
   252
370
     0
100
AcDbSpline
210
0.0
220
0.0
230
1.0
 70
     8
 71
     3
 72
    11
 73
     7
 74
     0
 42
0.000000001
 43
0.00000001
 40
0.0
 40
0.0
 40
0.0
 40
0.0
 40
0.25
 40
0.5
 40
0.75
 40
1.0
 40
1.0
 40
1.0
 40
1.0
 10
389.8151564088043
 20
252.2839607887523
 30
0.0
 10
390.0072288090172
 20
252.2858280064321
 30
0.0
 10
390.3924756354822
 20
252.3664016733184
 30
0.0
 10
390.8812716993945
 20
252.6937270477904
 30
0.0
 10
391.2112243633627
 20
253.1807341166931
 30
0.0
 10
391.2938584097695
 20
253.5655175995908
 30
0.0
 10
391.2967506398016
 20
253.7575633839033
 30
0.0
  0
SPLINE
  5
161
330
1F
100
AcDbEntity
  8
0
  6
Continuous
 62
   252
370
     0
100
AcDbSpline
210
0.0
220
0.0
230
1.0
 70
     8
 71
     3
 72
    27
 73
    23
 74
     0
 42
0.000000001
 43
0.00000001
 40
0.0
 40
0.0
 40
0.0
 40
0.0
 40
0.0502267868591548
 40
0.1004535737182863
 40
0.1506803605775554
 40
0.2009071474365664
 40
0.2511339342957751
 40
0.3013607211550461
 40
0.3515875080141038
 40
0.401814294873263
 40
0.4520410817324432
 40
0.5022678685916044
 40
0.5524946554504494
 40
0.6027214423099958
 40
0.6529482291688397
 40
0.7031750160284091
 40
0.753401802887144
 40
0.8036285897463302
 40
0.8538553766055518
 40
0.9040821634651307
 40
0.9543089503236879
 40
1.0
 40
1.0
 40
1.0
 40
1.0
 10
389.8098198915922
 20
251.9782319090221
 30
0.0
 10
389.8483373085537
 20
251.9795562404269
 30
0.0
 10
389.9253721424768
 20
251.9822049032365
 30
0.0
 10
390.0401017414902
 20
251.9974421162626
 30
0.0
 10
390.1533643636482
 20
252.0208285505254
 30
0.0
 10
390.2644779170251
 20
252.0530358233521
 30
0.0
 10
390.3727855182316
 20
252.0936556149214
 30
0.0
 10
390.4776436018789
 20
252.1425050123708
 30
0.0
 10
390.5784299714442
 20
252.1992784789751
 30
0.0
 10
390.6745463578631
 20
252.2636432131732
 30
0.0
 10
390.7654222773998
 20
252.3352160583782
 30
0.0
 10
390.8505183248599
 20
252.4135724938099
 30
0.0
 10
390.9293294399669
 20
252.4982473533644
 30
0.0
 10
391.0013877391113
 20
252.5887380735053
 30
0.0
 10
391.0662658918784
 20
252.6845075295325
 30
0.0
 10
391.1235774259319
 20
252.7849873235652
 30
0.0
 10
391.1729873476245
 20
252.8895809054872
 30
0.0
 10
391.2141830551303
 20
252.997668025008
 30
0.0
 10
391.2469921680446
 20
253.1086050210164
 30
0.0
 10
391.2709507292019
 20
253.2217412993675
 30
0.0
 10
391.2864405290654
 20
253.3329252575599
 30
0.0
 10
391.2894147298406
 20
253.406461491234
 30
0.0
 10
391.29083150862
 20
253.4414909271262
 30
0.0
  0
ARC
  5
162
330
1F
100
AcDbEntity
  8
0
  6
Continuous
 62
     7
370
    30
100
AcDbCircle
 10
476.4645515366
 20
134.5462348829
 30
0.0
 40
24.50000000000451
100
AcDbArc
 50
144.7773071595
 51
180.0
  0
ARC
  5
163
330
1F
100
AcDbEntity
  8
0
  6
Continuous
 62
     7
370
    30
100
AcDbCircle
 10
476.4645515366
 20
134.5462348829
 30
0.0
 40
24.50000000000449
100
AcDbArc
 50
180.0
 51
275.2173163078
  0
SPLINE
  5
164
330
1F
100
AcDbEntity
  8
0
  6
Continuous
 62
     7
370
    30
100
AcDbSpline
210
0.0
220
0.0
230
1.0
 70
     8
 71
     3
 72
    82
 73
    78
 74
     0
 42
0.000000001
 43
0.00000001
 40
0.0
 40
0.0
 40
0.0
 40
0.0
 40
0.004203305020381
 40
0.0177151963690475
 40
0.0312249217338655
 40
0.0447324963783602
 40
0.0582379489952081
 40
0.0717413222285236
 40
0.0852426730533342
 40
0.098742072995263
 40
0.1122396081757643
 40
0.125735379170484
 40
0.139229500672675
 40
0.1527221009561423
 40
0.1662133211378577
 40
0.1797033142434392
 40
0.1931922440848833
 40
0.2066802839628933
 40
0.2201676152123619
 40
0.2336544256120514
 40
0.2471409076842583
 40
0.2606272569129213
 40
0.2741136202984308
 40
0.2876001782734333
 40
0.3010871252412167
 40
0.314574651837631
 40
0.3280629431857782
 40
0.3415521772472698
 40
0.3550425232961694
 40
0.3685341405398016
 40
0.3820271769056417
 40
0.3955217680096988
 40
0.4090180363174056
 40
0.4225160905029524
 40
0.4360160250087309
 40
0.449517919802198
 40
0.4630218403232458
 40
0.4765278376116865
 40
0.4900359486017658
 40
0.5035461965673125
 40
0.5170585917000847
 40
0.5305731318021807
 40
0.5440898030729928
 40
0.557608580970507
 40
0.5711294311280006
 40
0.5846523103070811
 40
0.5981771673699824
 40
0.6117039442550022
 40
0.6252325769406304
 40
0.638762996386032
 40
0.6522951294370926
 40
0.6658288996892162
 40
0.6793642282998922
 40
0.6929010347459639
 40
0.7064392375213837
 40
0.7199787547739086
 40
0.7335195048792704
 40
0.7470614069535374
 40
0.7606043813044315
 40
0.7741483498237206
 40
0.7876932363235275
 40
0.801238966819389
 40
0.8147854697635266
 40
0.828332676232123
 40
0.8418805200707171
 40
0.8554289380009757
 40
0.8689778696930338
 40
0.8825272578074147
 40
0.8960770480095658
 40
0.909627188960916
 40
0.9231776322892945
 40
0.9367283325422383
 40
0.9502792471252337
 40
0.9638303362281943
 40
0.9773815627418132
 40
0.9909328921662821
 40
1.0
 40
1.0
 40
1.0
 40
1.0
 10
479.1035786789796
 20
110.195022871289
 30
0.0
 10
479.1221601814082
 20
110.1974609046647
 30
0.0
 10
479.2004735473804
 20
110.2077362094057
 30
0.0
 10
479.3370934797021
 20
110.2293700049329
 30
0.0
 10
479.5133674831722
 20
110.2599757139526
 30
0.0
 10
479.6880520061286
 20
110.2942877190595
 30
0.0
 10
479.8612457283731
 20
110.3319804467408
 30
0.0
 10
480.032885853513
 20
110.3731323217172
 30
0.0
 10
480.2029532915785
 20
110.4177128381552
 30
0.0
 10
480.3714176992146
 20
110.46571998294
 30
0.0
 10
480.5382522062049
 20
110.517143438788
 30
0.0
 10
480.7034294715882
 20
110.571974458654
 30
0.0
 10
480.8669227390527
 20
110.6302032369564
 30
0.0
 10
481.0287055507918
 20
110.6918196295007
 30
0.0
 10
481.1887518185824
 20
110.7568129751729
 30
0.0
 10
481.3470357971627
 20
110.8251721568061
 30
0.0
 10
481.5035320820071
 20
110.8968855962138
 30
0.0
 10
481.6582155990686
 20
110.9719412648421
 30
0.0
 10
481.8110615954984
 20
111.0503266880056
 30
0.0
 10
481.9620456292947
 20
111.1320289484551
 30
0.0
 10
482.1111435588166
 20
111.2170346876414
 30
0.0
 10
482.2583313518401
 20
111.3053299968223
 30
0.0
 10
482.4035852111335
 20
111.3969004696836
 30
0.0
 10
482.5468816281896
 20
111.4917312301137
 30
0.0
 10
482.6881975466458
 20
111.5898070545357
 30
0.0
 10
482.8275102282533
 20
111.6911122988204
 30
0.0
 10
482.9647971892546
 20
111.7956308538982
 30
0.0
 10
483.1000361955192
 20
111.9033461363156
 30
0.0
 10
483.2332052594164
 20
112.014241077979
 30
0.0
 10
483.3642826385312
 20
112.1282981153904
 30
0.0
 10
483.493246836277
 20
112.2454991786886
 30
0.0
 10
483.6200766044084
 20
112.3658256808063
 30
0.0
 10
483.7447509473824
 20
112.4892585070427
 30
0.0
 10
483.8672491284779
 20
112.6157780053295
 30
0.0
 10
483.9875506775342
 20
112.7453639774411
 30
0.0
 10
484.1056354001388
 20
112.8779956713657
 30
0.0
 10
484.2214833880666
 20
113.013651775015
 30
0.0
 10
484.335075030751
 20
113.1523104114084
 30
0.0
 10
484.4463910275576
 20
113.2939491354273
 30
0.0
 10
484.5554124006226
 20
113.4385449321888
 30
0.0
 10
484.6621205080253
 20
113.586074217051
 30
0.0
 10
484.7664970570689
 20
113.7365128372233
 30
0.0
 10
484.8685241174596
 20
113.889836074922
 30
0.0
 10
484.9681841341937
 20
114.0460186519805
 30
0.0
 10
485.0654599399818
 20
114.2050347358039
 30
0.0
 10
485.160334767067
 20
114.3668579465345
 30
0.0
 10
485.2527922583175
 20
114.5314613652873
 30
0.0
 10
485.3428164775003
 20
114.6988175433014
 30
0.0
 10
485.4303919186695
 20
114.8688985118544
 30
0.0
 10
485.5155035146245
 20
115.0416757927854
 30
0.0
 10
485.5981366444192
 20
115.2171204094804
 30
0.0
 10
485.6782771399201
 20
115.395202898177
 30
0.0
 10
485.7559112914306
 20
115.5758933194629
 30
0.0
 10
485.8310258524152
 20
115.7591612698475
 30
0.0
 10
485.903608043365
 20
115.9449758933048
 30
0.0
 10
485.9736455548602
 20
116.1333058926959
 30
0.0
 10
486.0411265498905
 20
116.3241195409984
 30
0.0
 10
486.1060396654973
 20
116.5173846922783
 30
0.0
 10
486.1683740138077
 20
116.713068792357
 30
0.0
 10
486.2281191825275
 20
116.9111388891378
 30
0.0
 10
486.2852652349598
 20
117.1115616425685
 30
0.0
 10
486.3398027096267
 20
117.314303334218
 30
0.0
 10
486.3917226195093
 20
117.5193298764917
 30
0.0
 10
486.4410164511401
 20
117.7266068213753
 30
0.0
 10
486.487676162949
 20
117.9360993691403
 30
0.0
 10
486.5316941853526
 20
118.1477723754398
 30
0.0
 10
486.573063413514
 20
118.3615903627301
 30
0.0
 10
486.6117772268472
 20
118.5775175139578
 30
0.0
 10
486.6478294082705
 20
118.7955177309539
 30
0.0
 10
486.6812144373421
 20
119.0155544499593
 30
0.0
 10
486.7119263878503
 20
119.237591362338
 30
0.0
 10
486.7399630337977
 20
119.4615897558482
 30
0.0
 10
486.7653105168993
 20
119.6875184675309
 30
0.0
 10
486.788000561365
 20
119.9153167674148
 30
0.0
 10
486.8078969334886
 20
120.1450329094491
 30
0.0
 10
486.8235515405159
 20
120.3507966159123
 30
0.0
 10
486.8314125044844
 20
120.48073174763
 30
0.0
 10
486.8345637481873
 20
120.532819159206
 30
0.0
  0
SPLINE
  5
165
330
1F
100
AcDbEntity
  8
0
  6
Continuous
 62
     7
370
    30
100
AcDbSpline
210
0.0
220
0.0
230
1.0
 70
     8
 71
     3
 72
    82
 73
    78
 74
     0
 42
0.000000001
 43
0.00000001
 40
0.0
 40
0.0
 40
0.0
 40
0.0
 40
0.006358050329828
 40
0.0198867878534735
 40
0.0334154998234319
 40
0.0469441570557474
 40
0.060472727957904
 40
0.0740011784249942
 40
0.0875294717397475
 40
0.1010575684781274
 40
0.1145854264221494
 40
0.1281130004822745
 40
0.141640242630975
 40
0.1551671018507618
 40
0.1686935240988303
 40
0.1822194522914508
 40
0.1957448263114499
 40
0.2092695830419154
 40
0.2227936564300957
 40
0.2363169775848021
 40
0.249839474911547
 40
0.2633610742890889
 40
0.2768816992914263
 40
0.2904012714589352
 40
0.3039197106222224
 40
0.3174369352819018
 40
0.3309528630473034
 40
0.3444674111358539
 40
0.3579804969350516
 40
0.3714920386270437
 40
0.3850019558756229
 40
0.398510170573299
 40
0.4120166076456563
 40
0.4255211959075642
 40
0.4390238689647812
 40
0.4525245661528759
 40
0.4660232335024527
 40
0.4795198247190208
 40
0.4930143021634138
 40
0.5065066378165693
 40
0.5199968142121701
 40
0.5334848253178267
 40
0.5469706773460267
 40
0.5604543894746916
 40
0.5739359944572188
 40
0.5874155391034326
 40
0.6008930846122347
 40
0.6143687067404243
 40
0.6278424957933675
 40
0.6413145564260503
 40
0.6547850072478529
 40
0.6682539802263618
 40
0.6817216198919815
 40
0.6951880823479334
 40
0.7086535340959909
 40
0.722118150692368
 40
0.7355821152526593
 40
0.7490456168286618
 40
0.7625088486836616
 40
0.7759720028451053
 40
0.789435213866108
 40
0.8028986773765286
 40
0.8163625865094284
 40
0.8298271301082445
 40
0.8432924910103984
 40
0.8567588444352173
 40
0.8702263565020609
 40
0.8836951829010781
 40
0.8971654677348891
 40
0.9106373425452541
 40
0.9241109255340895
 40
0.9375863209835688
 40
0.9510636188756758
 40
0.9645428947071575
 40
0.9780242094918435
 40
0.9915076099393573
 40
1.0
 40
1.0
 40
1.0
 40
1.0
 10
469.5150855935129
 20
150.5342447970296
 30
0.0
 10
469.4822903555634
 20
150.5507080972856
 30
0.0
 10
469.3797130078114
 20
150.602202209879
 30
0.0
 10
469.2075391422987
 20
150.6852841327803
 30
0.0
 10
468.9985991592303
 20
150.7836238785091
 30
0.0
 10
468.7899175028364
 20
150.8785358249936
 30
0.0
 10
468.581517167092
 20
150.9702289781953
 30
0.0
 10
468.3734356963292
 20
151.0586273988696
 30
0.0
 10
468.1657067096269
 20
151.1437321755452
 30
0.0
 10
467.9583648463127
 20
151.2255244402529
 30
0.0
 10
467.7514444357997
 20
151.3039913604518
 30
0.0
 10
467.5449798488754
 20
151.3791191801818
 30
0.0
 10
467.3390053983363
 20
151.4508950903648
 30
0.0
 10
467.1335553602182
 20
151.5193067335683
 30
0.0
 10
466.9286639625207
 20
151.5843423427722
 30
0.0
 10
466.7243653824039
 20
151.6459907104356
 30
0.0
 10
466.5206937408348
 20
151.7042412032006
 30
0.0
 10
466.3176830975832
 20
151.7590837645268
 30
0.0
 10
466.1153674457429
 20
151.8105089206975
 30
0.0
 10
465.9137807059443
 20
151.8585077860384
 30
0.0
 10
465.7129567201615
 20
151.9030720684292
 30
0.0
 10
465.5129292450843
 20
151.9441940747787
 30
0.0
 10
465.3137319450134
 20
151.9818667165017
 30
0.0
 10
465.1153983842376
 20
152.016083514928
 30
0.0
 10
464.9179620188611
 20
152.0468386065939
 30
0.0
 10
464.7214561880502
 20
152.0741267483483
 30
0.0
 10
464.5259141046753
 20
152.0979433222043
 30
0.0
 10
464.3313688453361
 20
152.1182843398553
 30
0.0
 10
464.1378533397648
 20
152.1351464467691
 30
0.0
 10
463.9454003596146
 20
152.148526925769
 30
0.0
 10
463.7540425066572
 20
152.1584237000051
 30
0.0
 10
463.5638122004251
 20
152.1648353352164
 30
0.0
 10
463.3747416653534
 20
152.1677610411857
 30
0.0
 10
463.1868629174949
 20
152.1672006722888
 30
0.0
 10
463.0002077508973
 20
152.1631547270472
 30
0.0
 10
462.8148077237558
 20
152.1556243465998
 30
0.0
 10
462.6306941444679
 20
152.1446113120237
 30
0.0
 10
462.4478980577396
 20
152.1301180404457
 30
0.0
 10
462.2664502309053
 20
152.1121475799103
 30
0.0
 10
462.0863811406379
 20
152.0907036029892
 30
0.0
 10
461.907720960237
 20
152.0657903991455
 30
0.0
 10
461.7304995476863
 20
152.0374128658933
 30
0.0
 10
461.5547464346754
 20
152.0055764988266
 30
0.0
 10
461.3804908167741
 20
151.9702873806228
 30
0.0
 10
461.2077615449359
 20
151.9315521691573
 30
0.0
 10
461.0365871184941
 20
151.8893780849021
 30
0.0
 10
460.8669956797852
 20
151.8437728978062
 30
0.0
 10
460.6990150105063
 20
151.7947449138843
 30
0.0
 10
460.5326725298803
 20
151.742302961764
 30
0.0
 10
460.3679952946546
 20
151.6864563794517
 30
0.0
 10
460.2050100009249
 20
151.6272150015918
 30
0.0
 10
460.0437429877186
 20
151.5645891474908
 30
0.0
 10
459.8842202422322
 20
151.4985896101698
 30
0.0
 10
459.7264674065642
 20
151.4292276466955
 30
0.0
 10
459.570509785747
 20
151.3565149700071
 30
0.0
 10
459.4163723568361
 20
151.2804637424315
 30
0.0
 10
459.2640797787838
 20
151.2010865710297
 30
0.0
 10
459.1136564027991
 20
151.1183965048758
 30
0.0
 10
458.9651262963013
 20
151.0324070420855
 30
0.0
 10
458.8185134630545
 20
150.9431322609853
 30
0.0
 10
458.6738416134181
 20
150.8505867078583
 30
0.0
 10
458.5311341582969
 20
150.7547853906955
 30
0.0
 10
458.3904140182218
 20
150.6557436325475
 30
0.0
 10
458.2517038547832
 20
150.5534772155204
 30
0.0
 10
458.1150260770019
 20
150.4480023890031
 30
0.0
 10
457.9804028442913
 20
150.3393358811601
 30
0.0
 10
457.8478560742578
 20
150.2274949027406
 30
0.0
 10
457.7174074239571
 20
150.1124971826888
 30
0.0
 10
457.5890783613658
 20
149.994360886697
 30
0.0
 10
457.4628898911186
 20
149.8731049728675
 30
0.0
 10
457.3388635618878
 20
149.7487479144964
 30
0.0
 10
457.2170176811665
 20
149.6213125153612
 30
0.0
 10
457.0973814118711
 20
149.490807979
 30
0.0
 10
456.9799421117274
 20
149.3572968801847
 30
0.0
 10
456.8648418622876
 20
149.2206452016033
 30
0.0
 10
456.7656168287668
 20
149.098636865842
 30
0.0
 10
456.7057310133368
 20
149.020955068417
 30
0.0
 10
456.6825885601203
 20
148.9909354828143
 30
0.0
  0
LINE
  5
166
330
1F
100
AcDbEntity
  8
0
  6
Continuous
 62
     7
370
    30
100
AcDbLine
 10
490.8785956504
 20
169.4246784366
 30
0.0
 11
459.6147393977
 21
151.3764383895
 31
0.0
  0
LINE
  5
167
330
1F
100
AcDbEntity
  8
0
  6
Continuous
 62
     7
370
    30
100
AcDbLine
 10
482.6119472214
 20
111.5376578679
 30
0.0
 11
513.8767265021
 21
129.5864307677
 31
0.0
  0
SPLINE
  5
168
330
1F
100
AcDbEntity
  8
0
  6
Continuous
 62
     7
370
    30
100
AcDbSpline
210
0.0
220
0.0
230
1.0
 70
     8
 71
     3
 72
    49
 73
    45
 74
     0
 42
0.000000001
 43
0.00000001
 40
0.0
 40
0.0
 40
0.0
 40
0.0
 40
0.0280270432545752
 40
0.0524083855615363
 40
0.0731792872251094
 40
0.0904019848350986
 40
0.1056547045703655
 40
0.1239717191448901
 40
0.1410075534469873
 40
0.1591081321324971
 40
0.1763720660387526
 40
0.194426178915318
 40
0.2130651577101559
 40
0.2322884296609228
 40
0.2514074645209803
 40
0.2677109543871211
 40
0.3030021984271513
 40
0.3522608544049343
 40
0.4006105357591629
 40
0.447487233289762
 40
0.4943263556585685
 40
0.5380395922204507
 40
0.5817878137702097
 40
0.6267395090848618
 40
0.644954489516684
 40
0.6636903924993275
 40
0.6830381745231349
 40
0.7029944394330804
 40
0.7213666022275473
 40
0.73641520032206
 40
0.7500380720339196
 40
0.7657625732600465
 40
0.7851412332323735
 40
0.8072497476803627
 40
0.827258889053128
 40
0.8444742137660871
 40
0.8564573759004694
 40
0.8691483389741538
 40
0.8825648672711832
 40
0.8974973404313418
 40
0.9165488435975053
 40
0.9399552656003914
 40
0.9677568316497195
 40
1.0
 40
1.0
 40
1.0
 40
1.0
 10
565.0636630182635
 20
184.190137624358
 30
0.0
 10
565.0634164870577
 20
184.2136941550758
 30
0.0
 10
565.0629554929255
 20
184.2577430307683
 30
0.0
 10
565.0596110514149
 20
184.3202236525372
 30
0.0
 10
565.0553603598539
 20
184.373864571585
 30
0.0
 10
565.0506253948677
 20
184.4198591060682
 30
0.0
 10
565.0452433688624
 20
184.463884972322
 30
0.0
 10
565.0389854640443
 20
184.5079185689166
 30
0.0
 10
565.0314012812698
 20
184.5545310912021
 30
0.0
 10
565.0230252627564
 20
184.6003233496252
 30
0.0
 10
565.0135266300883
 20
184.6471092758653
 30
0.0
 10
565.0029726321748
 20
184.6944528511626
 30
0.0
 10
564.9910132280587
 20
184.7435817427952
 30
0.0
 10
564.977761916006
 20
184.7936917690236
 30
0.0
 10
564.9640326054525
 20
184.8417626736222
 30
0.0
 10
564.9450504050509
 20
184.9039795679524
 30
0.0
 10
564.9155434412962
 20
184.9924711208151
 30
0.0
 10
564.8714720344452
 20
185.1084994803745
 30
0.0
 10
564.8173000737455
 20
185.2333538985775
 30
0.0
 10
564.7583259687276
 20
185.3542795184121
 30
0.0
 10
564.6960989330348
 20
185.4690234946131
 30
0.0
 10
564.6306695945561
 20
185.5785589740006
 30
0.0
 10
564.5620084656741
 20
185.6836652984293
 30
0.0
 10
564.5033655548839
 20
185.7658450498433
 30
0.0
 10
564.456835935255
 20
185.8271208900615
 30
0.0
 10
564.4242160561486
 20
185.8685509336738
 30
0.0
 10
564.3899355291729
 20
185.9104938469999
 30
0.0
 10
564.3552253584219
 20
185.9513516533524
 30
0.0
 10
564.3225543526675
 20
185.9883784083372
 30
0.0
 10
564.2933558164203
 20
186.0203865252788
 30
0.0
 10
564.2654547167033
 20
186.0501045070478
 30
0.0
 10
564.2344382906354
 20
186.0821717795648
 30
0.0
 10
564.197538670094
 20
186.1189708130851
 30
0.0
 10
564.157317412445
 20
186.1573842568999
 30
0.0
 10
564.1179831329449
 20
186.1933047308297
 30
0.0
 10
564.0849742482736
 20
186.2222529400747
 30
0.0
 10
564.0565950620468
 20
186.2463461082004
 30
0.0
 10
564.0305839594549
 20
186.2678198692518
 30
0.0
 10
564.0023457339414
 20
186.2904401045241
 30
0.0
 10
563.9694622066173
 20
186.3159131892813
 30
0.0
 10
563.9292170376034
 20
186.3458380375381
 30
0.0
 10
563.8794690136542
 20
186.3808562687378
 30
0.0
 10
563.8198433922802
 20
186.4203139155653
 30
0.0
 10
563.7765079146137
 20
186.4460289994305
 30
0.0
 10
563.7532373794717
 20
186.4598376337179
 30
0.0
  0
LINE
  5
169
330
1F
100
AcDbEntity
  8
0
  6
Continuous
 62
     7
370
    30
100
AcDbLine
 10
565.0638313189
 20
64.9891722723
 30
0.0
 11
565.0638313189
 21
184.1901269841
 31
0.0
  0
LINE
  5
16A
330
1F
100
AcDbEntity
  8
0
  6
Continuous
 62
     7
370
    30
100
AcDbLine
 10
563.753312374
 20
186.459988673
 30
0.0
 11
460.5278493307
 21
246.0507800623
 31
0.0
  0
SPLINE
  5
16B
330
1F
100
AcDbEntity
  8
0
  6
Continuous
 62
     7
370
    30
100
AcDbSpline
210
0.0
220
0.0
230
1.0
 70
     8
 71
     3
 72
    43
 73
    39
 74
     0
 42
0.000000001
 43
0.00000001
 40
0.0
 40
0.0
 40
0.0
 40
0.0
 40
0.034684833761886
 40
0.0623234501481573
 40
0.0832064882515789
 40
0.0975519871080576
 40
0.110274633427692
 40
0.129804664858909
 40
0.1508026545113819
 40
0.1680559858855985
 40
0.1836419705218992
 40
0.2058774113077767
 40
0.2352119103951191
 40
0.2616954589241913
 40
0.2830764982159232
 40
0.3151576474051639
 40
0.3445276165335178
 40
0.3836497776008446
 40
0.4235122840133719
 40
0.4638380777442284
 40
0.5034468141211695
 40
0.5501686320108835
 40
0.596352577327614
 40
0.6447135487314887
 40
0.7015009205527122
 40
0.7435494172799664
 40
0.7638809599144487
 40
0.7850363388408292
 40
0.8059782544126178
 40
0.8238948601304305
 40
0.838577780423354
 40
0.8576352661465315
 40
0.8831450962462186
 40
0.910117275219523
 40
0.931203167191583
 40
0.9491208416328869
 40
0.971878516273713
 40
1.0
 40
1.0
 40
1.0
 40
1.0
 10
554.7676819941398
 20
59.58623121283427
 30
0.0
 10
554.7856111517691
 20
59.57633020683145
 30
0.0
 10
554.8178271620684
 20
59.55853958231042
 30
0.0
 10
554.8615683561825
 20
59.53643035969594
 30
0.0
 10
554.8949035531888
 20
59.52041551438253
 30
0.0
 10
554.9205310870107
 20
59.50862407507376
 30
0.0
 10
554.9456135690278
 20
59.49745848576496
 30
0.0
 10
554.9744657118458
 20
59.48513014443515
 30
0.0
 10
555.0060052533896
 20
59.47235384945657
 30
0.0
 10
555.0355788569802
 20
59.46098829991456
 30
0.0
 10
555.06603825832
 20
59.44982128524223
 30
0.0
 10
555.1034819360633
 20
59.43685291166381
 30
0.0
 10
555.1473066083227
 20
59.4228769407934
 30
0.0
 10
555.1909708668418
 20
59.41023538043008
 30
0.0
 10
555.2364701846204
 20
59.3982013345655
 30
0.0
 10
555.2840836560981
 20
59.38692326509396
 30
0.0
 10
555.3427269678033
 20
59.37492628745692
 30
0.0
 10
555.4048543976421
 20
59.36438146551418
 30
0.0
 10
555.4748844138481
 20
59.35529961789404
 30
0.0
 10
555.5452697949322
 20
59.34906833995029
 30
0.0
 10
555.6199782866324
 20
59.3454908713403
 30
0.0
 10
555.698244849382
 20
59.34519595436443
 30
0.0
 10
555.7815841784784
 20
59.34884883666461
 30
0.0
 10
555.8707806520247
 20
59.35714817210174
 30
0.0
 10
555.9563822594907
 20
59.36984027640663
 30
0.0
 10
556.0258659287566
 20
59.38385027157456
 30
0.0
 10
556.0739505568617
 20
59.39521524722194
 30
0.0
 10
556.1096960629715
 20
59.40449393412642
 30
0.0
 10
556.1438524111662
 20
59.41417967070797
 30
0.0
 10
556.1741358780704
 20
59.42344721913626
 30
0.0
 10
556.2031982242831
 20
59.43289622551651
 30
0.0
 10
556.2363681912694
 20
59.44434589548994
 30
0.0
 10
556.2760877052613
 20
59.45912712741244
 30
0.0
 10
556.3164605311537
 20
59.47546432423451
 30
0.0
 10
556.3522275207208
 20
59.49102118152841
 30
0.0
 10
556.3853237998077
 20
59.50626912395365
 30
0.0
 10
556.4218929628362
 20
59.52401298223853
 30
0.0
 10
556.4484536484948
 20
59.53809463925852
 30
0.0
 10
556.4631340385304
 20
59.5458777296522
 30
0.0
  0
SPLINE
  5
16C
330
1F
100
AcDbEntity
  8
0
  6
Continuous
 62
     7
370
    30
100
AcDbSpline
210
0.0
220
0.0
230
1.0
 70
     8
 71
     3
 72
    40
 73
    36
 74
     0
 42
0.000000001
 43
0.00000001
 40
0.0
 40
0.0
 40
0.0
 40
0.0
 40
0.0430103810149466
 40
0.0736140225842649
 40
0.1132537867831419
 40
0.1559179539379346
 40
0.1843137625019466
 40
0.2197441743843068
 40
0.2573054729881552
 40
0.3127515191663197
 40
0.3799432332361746
 40
0.4381883068874552
 40
0.4963994074465694
 40
0.5261675980853846
 40
0.5564092518043467
 40
0.5870231691959344
 40
0.6169840068889034
 40
0.6465536338834457
 40
0.6708605786081916
 40
0.6921517330036606
 40
0.71740420228527
 40
0.7369454783108981
 40
0.7603251958896461
 40
0.7869582297185077
 40
0.8092716865537964
 40
0.82500435222373
 40
0.8398497145813872
 40
0.8584734910855588
 40
0.8747798483246497
 40
0.8894737165134036
 40
0.902347590512352
 40
0.9167848117796731
 40
0.9377152935742588
 40
0.9653592969479794
 40
1.0
 40
1.0
 40
1.0
 40
1.0
 10
451.5146836466627
 20
241.3255355356666
 30
0.0
 10
451.4931873687839
 20
241.3119334283776
 30
0.0
 10
451.4563956118195
 20
241.2886528665798
 30
0.0
 10
451.4018157808181
 20
241.2500132463051
 30
0.0
 10
451.3486855248985
 20
241.2095535066024
 30
0.0
 10
451.2983459375265
 20
241.1675398640654
 30
0.0
 10
451.251545423627
 20
241.1254239264186
 30
0.0
 10
451.2082818398016
 20
241.0837523854346
 30
0.0
 10
451.1555815300667
 20
241.0289065904451
 30
0.0
 10
451.0930245249248
 20
240.9569891975645
 30
0.0
 10
451.0282724920214
 20
240.8720122193906
 30
0.0
 10
450.9680945523825
 20
240.7813159270168
 30
0.0
 10
450.9247119861479
 20
240.7065235057857
 30
0.0
 10
450.892409604669
 20
240.6446164285404
 30
0.0
 10
450.8691071539582
 20
240.5964477177127
 30
0.0
 10
450.8472628593074
 20
240.5475456114819
 30
0.0
 10
450.8270112716729
 20
240.4982444040877
 30
0.0
 10
450.8097891384082
 20
240.4525417977962
 30
0.0
 10
450.7952494123431
 20
240.4106649890792
 30
0.0
 10
450.7823151530384
 20
240.3705041023812
 30
0.0
 10
450.7712189442493
 20
240.3331181340069
 30
0.0
 10
450.7606241639318
 20
240.2943450275744
 30
0.0
 10
450.7506437048888
 20
240.2545685786459
 30
0.0
 10
450.7412632129041
 20
240.2129312803923
 30
0.0
 10
450.7337491812241
 20
240.1754642051119
 30
0.0
 10
450.7281672395774
 20
240.1447175311141
 30
0.0
 10
450.7234022748305
 20
240.1160891520359
 30
0.0
 10
450.7190435725109
 20
240.0870458092864
 30
0.0
 10
450.7151766641384
 20
240.0580034169865
 30
0.0
 10
450.7121339132551
 20
240.0322771635965
 30
0.0
 10
450.7095408111482
 20
240.0076113491591
 30
0.0
 10
450.7069267674801
 20
239.9793053086969
 30
0.0
 10
450.704136248831
 20
239.9423048820819
 30
0.0
 10
450.7014390782352
 20
239.8933197647335
 30
0.0
 10
450.7007465827559
 20
239.8565209748164
 30
0.0
 10
450.70036143957
 20
239.8360546994281
 30
0.0
  0
LINE
  5
16D
330
1F
100
AcDbEntity
  8
0
  6
Continuous
 62
     7
370
    30
100
AcDbLine
 10
556.4617989104
 20
59.5453391078
 30
0.0
 11
564.4763336242
 21
63.8545107428
 31
0.0
  0
LINE
  5
16E
330
1F
100
AcDbEntity
  8
0
  6
Continuous
 62
     7
370
    30
100
AcDbLine
 10
459.251693811
 20
246.1093078554
 30
0.0
 11
451.5121475192
 21
241.3238421074
 31
0.0
  0
SPLINE
  5
16F
330
1F
100
AcDbEntity
  8
0
  6
Continuous
 62
     7
370
    30
100
AcDbSpline
210
0.0
220
0.0
230
1.0
 70
     8
 71
     3
 72
    38
 73
    34
 74
     0
 42
0.000000001
 43
0.00000001
 40
0.0
 40
0.0
 40
0.0
 40
0.0
 40
0.0173352215936413
 40
0.0502715400266828
 40
0.0832078576411609
 40
0.1161441741883318
 40
0.1490804896382799
 40
0.1820168040011458
 40
0.2149531172530474
 40
0.2478894293987044
 40
0.2808257404226785
 40
0.3137620503162026
 40
0.3466983590800418
 40
0.3796346666970375
 40
0.412570973169874
 40
0.4455072784816661
 40
0.4784435826186115
 40
0.5113798855835129
 40
0.5443161873716941
 40
0.5772524879723302
 40
0.6101887873665608
 40
0.6431250855659029
 40
0.6760613825424806
 40
0.7089976783156352
 40
0.7419339728429444
 40
0.774870266148472
 40
0.8078065582087144
 40
0.8407428490195924
 40
0.8736791385804029
 40
0.9066154268748271
 40
0.9395517139009327
 40
0.9724879996390906
 40
0.9999999999999999
 40
0.9999999999999999
 40
0.9999999999999999
 40
0.9999999999999999
 10
451.7904800169621
 20
119.0336917840726
 30
0.0
 10
452.378409592357
 20
118.6862454096962
 30
0.0
 10
454.0833849238045
 20
117.678663001693
 30
0.0
 10
456.9074847465469
 20
116.012076097681
 30
0.0
 10
460.2636706117671
 20
114.0344189856738
 30
0.0
 10
463.6226092199382
 20
112.0582654631208
 30
0.0
 10
466.984251614884
 20
110.083591313812
 30
0.0
 10
470.3486082298776
 20
108.1104046018256
 30
0.0
 10
473.7156735859027
 20
106.1387047386855
 30
0.0
 10
477.0854464649072
 20
104.1684934535014
 30
0.0
 10
480.4579245052381
 20
102.1997718530385
 30
0.0
 10
483.8331056495147
 20
100.2325412096335
 30
0.0
 10
487.2109877565714
 20
98.26680275012545
 30
0.0
 10
490.5915687059159
 20
96.30255771214117
 30
0.0
 10
493.9748463688611
 20
94.33980732951738
 30
0.0
 10
497.3608186167153
 20
92.37855283594426
 30
0.0
 10
500.7494833186741
 20
90.41879546394233
 30
0.0
 10
504.1408383427658
 20
88.4605364449094
 30
0.0
 10
507.5348815554094
 20
86.50377700923475
 30
0.0
 10
510.9316108205546
 20
84.54851838677638
 30
0.0
 10
514.331024001164
 20
82.59476180621422
 30
0.0
 10
517.7331189573803
 20
80.64250849531179
 30
0.0
 10
521.1378935509842
 20
78.69175968128378
 30
0.0
 10
524.5453456327343
 20
76.74251658719322
 30
0.0
 10
527.9554730813644
 20
74.79478045005803
 30
0.0
 10
531.3682736684742
 20
72.84855244738695
 30
0.0
 10
534.7837455532988
 20
70.90383397668224
 30
0.0
 10
538.2018854445434
 20
68.96062560762043
 30
0.0
 10
541.6226954534613
 20
67.01893099655904
 30
0.0
 10
545.0461575217709
 20
65.07874227514627
 30
0.0
 10
548.4723288566033
 20
63.14009458155781
 30
0.0
 10
551.7127636762095
 20
61.30921027018757
 30
0.0
 10
553.812171225531
 20
60.12513059543573
 30
0.0
 10
554.7676805539504
 20
59.58621704566644
 30
0.0
  0
SPLINE
  5
170
330
1F
100
AcDbEntity
  8
0
  6
Continuous
 62
     7
370
    30
100
AcDbSpline
210
0.0
220
0.0
230
1.0
 70
     8
 71
     3
 72
    31
 73
    27
 74
     0
 42
0.000000001
 43
0.00000001
 40
0.0
 40
0.0
 40
0.0
 40
0.0
 40
0.0223679149146784
 40
0.064866221463787
 40
0.1073645306246352
 40
0.1498628414671571
 40
0.1923611539364532
 40
0.2348594680837657
 40
0.2773577838509141
 40
0.319856101248345
 40
0.3623544202700107
 40
0.404852740899683
 40
0.4473510631278554
 40
0.4898493869448015
 40
0.5323477123509408
 40
0.5748460393215544
 40
0.6173443678677192
 40
0.6598426979507191
 40
0.7023410295819652
 40
0.7448393627566486
 40
0.7873376974435914
 40
0.8298360336608347
 40
0.872334371370167
 40
0.9148327105690773
 40
0.9573310512529217
 40
1.0
 40
1.0
 40
1.0
 40
1.0
 10
450.7003479867291
 20
239.8360538328329
 30
0.0
 10
450.6933828267672
 20
239.1447910824971
 30
0.0
 10
450.6731840907497
 20
237.140151721878
 30
0.0
 10
450.6417711672486
 20
233.8233143025697
 30
0.0
 10
450.6069773646275
 20
229.886051118706
 30
0.0
 10
450.5748621932971
 20
225.9503563973312
 30
0.0
 10
450.5453802045253
 20
222.0162061337944
 30
0.0
 10
450.5185436020428
 20
218.0836099066577
 30
0.0
 10
450.4943491394567
 20
214.1525682854119
 30
0.0
 10
450.472797708126
 20
210.2230842535068
 30
0.0
 10
450.45388908859
 20
206.2951601455083
 30
0.0
 10
450.4376233569367
 20
202.3687984688785
 30
0.0
 10
450.4240005079184
 20
198.4440016837582
 30
0.0
 10
450.4130205561165
 20
194.520772261322
 30
0.0
 10
450.4046835081571
 20
190.5991126685414
 30
0.0
 10
450.3989893727054
 20
186.6790253729649
 30
0.0
 10
450.3959381482444
 20
182.7605128372038
 30
0.0
 10
450.395529862005
 20
178.8435775401684
 30
0.0
 10
450.3977644264189
 20
174.9282218917906
 30
0.0
 10
450.4026421744065
 20
171.0144485562662
 30
0.0
 10
450.4101618617801
 20
167.1022592431061
 30
0.0
 10
450.4203281223129
 20
163.1916592202813
 30
0.0
 10
450.4331236450896
 20
159.2826404736431
 30
0.0
 10
450.4486130100143
 20
155.3752445512551
 30
0.0
 10
450.4665791775909
 20
151.4641013540939
 30
0.0
 10
450.4808085119208
 20
148.856286666612
 30
0.0
 10
450.4879374312663
 20
147.5497673211503
 30
0.0
  0
SPLINE
  5
171
330
1F
100
AcDbEntity
  8
0
  6
Continuous
 62
     7
370
    30
100
AcDbSpline
210
0.0
220
0.0
230
1.0
 70
     8
 71
     3
 72
    37
 73
    33
 74
     0
 42
0.000000001
 43
0.00000001
 40
0.0
 40
0.0
 40
0.0
 40
0.0
 40
0.0400563197861904
 40
0.0762490769791254
 40
0.108588776808954
 40
0.1349356555265181
 40
0.1544959825565156
 40
0.17066567957486
 40
0.1930720124186414
 40
0.2186997826731293
 40
0.2421261691968737
 40
0.2632456187437854
 40
0.3051483566179435
 40
0.3436246765000452
 40
0.3877404866998903
 40
0.4317631197968805
 40
0.4802195498670761
 40
0.5205210514935631
 40
0.5564503025659301
 40
0.5967331202290979
 40
0.6400786459643865
 40
0.6819716379017298
 40
0.7234983991841769
 40
0.7698842047730794
 40
0.8157854743952093
 40
0.8588453032795764
 40
0.8740233202065699
 40
0.8885584675856927
 40
0.9074575315193603
 40
0.9323577182984054
 40
0.9632212070595555
 40
0.9999999999999999
 40
0.9999999999999999
 40
0.9999999999999999
 40
0.9999999999999999
 10
564.4765669902447
 20
63.8553449857146
 30
0.0
 10
564.4926529716548
 20
63.8643400247286
 30
0.0
 10
564.5232733891414
 20
63.88146250192747
 30
0.0
 10
564.5635734113838
 20
63.90769393757584
 30
0.0
 10
564.595766542387
 20
63.93046967106791
 30
0.0
 10
564.6217060332211
 20
63.95030330371407
 30
0.0
 10
564.642820211748
 20
63.96743898012935
 30
0.0
 10
564.6625361476409
 20
63.98423087836849
 30
0.0
 10
564.683455663434
 20
64.00297495465936
 30
0.0
 10
564.7061196979439
 20
64.02456679268917
 30
0.0
 10
564.7277179667138
 20
64.0464699171025
 30
0.0
 10
564.7535612597917
 20
64.07419329698688
 30
0.0
 10
564.7826303034685
 20
64.1079526556465
 30
0.0
 10
564.816204733078
 20
64.15108554674818
 30
0.0
 10
564.848121895472
 20
64.19659236677613
 30
0.0
 10
564.8800558057397
 20
64.2475627583346
 30
0.0
 10
564.9084454643526
 20
64.29872441165432
 30
0.0
 10
564.9328260442577
 20
64.34828968179443
 30
0.0
 10
564.9537035434917
 20
64.39558527229364
 30
0.0
 10
564.9731946970585
 20
64.44503144083188
 30
0.0
 10
564.9915303143233
 20
64.49811560434571
 30
0.0
 10
565.0078194006697
 20
64.55266113515486
 30
0.0
 10
565.022331889884
 20
64.60946461667022
 30
0.0
 10
565.0349706236118
 20
64.6689821564167
 30
0.0
 10
565.0453284293341
 20
64.73009623814802
 30
0.0
 10
565.0515355143191
 20
64.77777566661447
 30
0.0
 10
565.0550789091192
 20
64.81136839005688
 30
0.0
 10
565.0571745457255
 20
64.83388290544889
 30
0.0
 10
565.059325182499
 20
64.86093788549071
 30
0.0
 10
565.0614672776447
 20
64.89579574830537
 30
0.0
 10
565.0632699553087
 20
64.93935304593415
 30
0.0
 10
565.0635245752952
 20
64.97163048182986
 30
0.0
 10
565.0636630185223
 20
64.9891805274758
 30
0.0
  0
SPLINE
  5
172
330
1F
100
AcDbEntity
  8
0
  6
Continuous
 62
     7
370
    30
100
AcDbSpline
210
0.0
220
0.0
230
1.0
 70
     8
 71
     3
 72
    35
 73
    31
 74
     0
 42
0.000000001
 43
0.00000001
 40
0.0
 40
0.0
 40
0.0
 40
0.0
 40
0.0460857165604371
 40
0.0825048474697223
 40
0.1091661271737353
 40
0.1281532003191293
 40
0.1478853692399504
 40
0.1692301948270213
 40
0.2233121994749063
 40
0.2781921951613799
 40
0.3200068769094864
 40
0.3622494099855861
 40
0.4058206508543712
 40
0.4463422460159902
 40
0.4825911506140698
 40
0.5231146294947441
 40
0.5641574070193262
 40
0.6014508791396264
 40
0.6386487497025961
 40
0.6740578741788571
 40
0.7059859085835908
 40
0.7415150129205598
 40
0.7723702872276692
 40
0.8080100902149021
 40
0.8396635886835109
 40
0.8607991988139466
 40
0.8872901112842252
 40
0.9219316175001238
 40
0.9617838583814317
 40
1.0
 40
1.0
 40
1.0
 40
1.0
 10
460.5277722692103
 20
246.0506302159123
 30
0.0
 10
460.508759944441
 20
246.0613593353949
 30
0.0
 10
460.4747231740008
 20
246.0805671167305
 30
0.0
 10
460.4293913272821
 20
246.1037507420064
 30
0.0
 10
460.3951994383906
 20
246.1202754499406
 30
0.0
 10
460.3677582569164
 20
246.1329038697112
 30
0.0
 10
460.3424308971136
 20
246.1440788885449
 30
0.0
 10
460.302162840342
 20
246.1610269997254
 30
0.0
 10
460.2467042551374
 20
246.1823044480028
 30
0.0
 10
460.1819652068
 20
246.2036255843165
 30
0.0
 10
460.1219401584413
 20
246.2204639955024
 30
0.0
 10
460.0665471805997
 20
246.2336317124016
 30
0.0
 10
460.0114158761776
 20
246.244291699185
 30
0.0
 10
459.9588488818746
 20
246.2521359315409
 30
0.0
 10
459.9074462858527
 20
246.2577029805154
 30
0.0
 10
459.8557113180917
 20
246.2611446896812
 30
0.0
 10
459.8036740219358
 20
246.2622515384481
 30
0.0
 10
459.753144934016
 20
246.2610800676839
 30
0.0
 10
459.7052566069234
 20
246.2578917893012
 30
0.0
 10
459.6599769456849
 20
246.2529159972999
 30
0.0
 10
459.6155931589097
 20
246.2462045135601
 30
0.0
 10
459.5735304816788
 20
246.2380515405573
 30
0.0
 10
459.5302867409775
 20
246.2278049015556
 30
0.0
 10
459.4891385171705
 20
246.2162113438773
 30
0.0
 10
459.4526680470191
 20
246.2042507026377
 30
0.0
 10
459.4195302553323
 20
246.1920939757138
 30
0.0
 10
459.3873978358318
 20
246.1791736459911
 30
0.0
 10
459.3498188051265
 20
246.1623424327688
 30
0.0
 10
459.3057847679391
 20
246.1405071588923
 30
0.0
 10
459.275099881476
 20
246.1223375210772
 30
0.0
 10
459.2600789737913
 20
246.1134430950668
 30
0.0
  0
SPLINE
  5
173
330
1F
100
AcDbEntity
  8
0
  6
Continuous
 62
     7
370
    30
100
AcDbSpline
210
0.0
220
0.0
230
1.0
 70
     8
 71
     3
 72
    82
 73
    78
 74
     0
 42
0.000000001
 43
0.00000001
 40
0.0
 40
0.0
 40
0.0
 40
0.0
 40
0.0216278744594684
 40
0.0428002474861921
 40
0.0635059608515223
 40
0.0837336472316242
 40
0.103471765602452
 40
0.118629236499587
 40
0.1334715565690334
 40
0.147992988995023
 40
0.1621877814131068
 40
0.1760501773931308
 40
0.1895744279790856
 40
0.2027548032570336
 40
0.2155856037673382
 40
0.2280611574872678
 40
0.2401758280163845
 40
0.251717513362952
 40
0.2629005478464146
 40
0.2737198418970383
 40
0.284170403998826
 40
0.2944270771590013
 40
0.3042913864335181
 40
0.3137584253425974
 40
0.3228234262786982
 40
0.3314817692055754
 40
0.3395853488859178
 40
0.347288284016559
 40
0.3545866617103059
 40
0.3614767379777748
 40
0.3681415537264662
 40
0.3749919406411071
 40
0.3821685177862197
 40
0.3896742093097515
 40
0.3975121030332229
 40
0.4056854560256038
 40
0.4141977005518633
 40
0.4235792556667023
 40
0.4333489259589051
 40
0.4435114704569089
 40
0.4540719041639301
 40
0.4650355089476081
 40
0.4764078451466364
 40
0.4875099514253118
 40
0.4989857622033546
 40
0.5108406796610333
 40
0.5230803676517393
 40
0.5357107633853391
 40
0.5487380897954419
 40
0.5621688686248008
 40
0.5760099342645513
 40
0.5902684483845776
 40
0.6049519153939353
 40
0.6197944225462271
 40
0.635062228162004
 40
0.6507635018841822
 40
0.6669067976455
 40
0.6809574330713194
 40
0.6953384416224692
 40
0.7100557597359765
 40
0.7251155609930664
 40
0.7405242659048753
 40
0.7562885521291055
 40
0.7714839422150912
 40
0.7870076573283976
 40
0.8028659749552698
 40
0.8190654106478271
 40
0.8356127273779873
 40
0.8525149452669517
 40
0.869779351703308
 40
0.8874135118631702
 40
0.9054252796462081
 40
0.9238228090417562
 40
0.9422754913795406
 40
0.9611167711294278
 40
0.9803552862365598
 40
1.0
 40
1.0
 40
1.0
 40
1.0
 10
450.4879521569774
 20
147.5497770726967
 30
0.0
 10
450.489044354702
 20
147.3575397484798
 30
0.0
 10
450.4912057475379
 20
146.9771137816108
 30
0.0
 10
450.4944838077096
 20
146.4126905227908
 30
0.0
 10
450.4977391687138
 20
145.860742099516
 30
0.0
 10
450.5009714593801
 20
145.3215721365335
 30
0.0
 10
450.5039532450979
 20
144.8317353778598
 30
0.0
 10
450.5066794881125
 20
144.3897759927009
 30
0.0
 10
450.509147260447
 20
143.9941876719492
 30
0.0
 10
450.5115879894378
 20
143.6071692350896
 30
0.0
 10
450.5139989619227
 20
143.2288728386737
 30
0.0
 10
450.5163774673956
 20
142.8594507488503
 30
0.0
 10
450.5187207958675
 20
142.499055031538
 30
0.0
 10
450.5210262447865
 20
142.1478372487878
 30
0.0
 10
450.523291120154
 20
141.8059482814601
 30
0.0
 10
450.5255127492442
 20
141.4735381890538
 30
0.0
 10
450.5276761288003
 20
141.1525904527167
 30
0.0
 10
450.5297790891096
 20
140.8431341031109
 30
0.0
 10
450.5318195610065
 20
140.5451933552063
 30
0.0
 10
450.5338083737872
 20
140.2569530346087
 30
0.0
 10
450.5357542370344
 20
139.9769489044579
 30
0.0
 10
450.5376542064884
 20
139.7054344597503
 30
0.0
 10
450.539505324257
 20
139.4426624283277
 30
0.0
 10
450.5412932034326
 20
139.1904805478642
 30
0.0
 10
450.543015540074
 20
138.9490148978778
 30
0.0
 10
450.5446609451886
 20
138.7196632337271
 30
0.0
 10
450.5462280262
 20
138.502412271751
 30
0.0
 10
450.5477155214743
 20
138.2972425017994
 30
0.0
 10
450.5491316578897
 20
138.1028526137179
 30
0.0
 10
450.550486734865
 20
137.9176845993013
 30
0.0
 10
450.5518183984279
 20
137.7364979264137
 30
0.0
 10
450.5531745191296
 20
137.5527707129737
 30
0.0
 10
450.5545919697705
 20
137.3615808769642
 30
0.0
 10
450.556081233429
 20
137.1616269834059
 30
0.0
 10
450.557643841481
 20
136.9528273002219
 30
0.0
 10
450.5592814114907
 20
136.7350956157937
 30
0.0
 10
450.5610310090858
 20
136.5036639541172
 30
0.0
 10
450.5628979315314
 20
136.258065901092
 30
0.0
 10
450.5648877719227
 20
135.9978233915871
 30
0.0
 10
450.5669701301862
 20
135.7271226076544
 30
0.0
 10
450.5691475179895
 20
135.4458308050213
 30
0.0
 10
450.5714225860354
 20
135.1538081778766
 30
0.0
 10
450.5737504559467
 20
134.8569864721956
 30
0.0
 10
450.5761296518442
 20
134.5556276179579
 30
0.0
 10
450.5785586255992
 20
134.2499949105462
 30
0.0
 10
450.5810848786716
 20
133.9342752375828
 30
0.0
 10
450.5837112873846
 20
133.6083187108543
 30
0.0
 10
450.5864408752857
 20
133.2719682122959
 30
0.0
 10
450.5892768208294
 20
132.9250590675037
 30
0.0
 10
450.5922224656055
 20
132.5674187003587
 30
0.0
 10
450.5952813231535
 20
132.1988662678255
 30
0.0
 10
450.5984570884032
 20
131.8192122739562
 30
0.0
 10
450.6017331631019
 20
131.4306875346918
 30
0.0
 10
450.6051118616061
 20
131.0332234625146
 30
0.0
 10
450.6085956005386
 20
130.6267455993664
 30
0.0
 10
450.6122081593007
 20
130.2087444971092
 30
0.0
 10
450.6157573396551
 20
129.8015611082914
 30
0.0
 10
450.6192320073692
 20
129.4061081513492
 30
0.0
 10
450.6226206665018
 20
129.0233214667096
 30
0.0
 10
450.6261149226127
 20
128.6315984343714
 30
0.0
 10
450.62971809048
 20
128.2307758158681
 30
0.0
 10
450.6334336345647
 20
127.820683853902
 30
0.0
 10
450.6371897263166
 20
127.4094075000809
 30
0.0
 10
450.6409846627533
 20
126.9971292636464
 30
0.0
 10
450.6448166413345
 20
126.5840351613702
 30
0.0
 10
450.6487618777891
 20
126.1620551339233
 30
0.0
 10
450.6528239831146
 20
125.7310169797189
 30
0.0
 10
450.6570067268277
 20
125.2907419712241
 30
0.0
 10
450.6613140453192
 20
124.8410445996677
 30
0.0
 10
450.665750048001
 20
124.3817323079841
 30
0.0
 10
450.6703190339516
 20
123.9126052194941
 30
0.0
 10
450.675025470195
 20
123.4334558317136
 30
0.0
 10
450.6798443369676
 20
122.9470748698533
 30
0.0
 10
450.6847780661619
 20
122.4533658144329
 30
0.0
 10
450.6898305491297
 20
121.9522287323969
 30
0.0
 10
450.6950314968111
 20
121.4405507226939
 30
0.0
 10
450.6985744084895
 20
121.0959088908003
 30
0.0
 10
450.7003643700701
 20
120.92178780222
 30
0.0
  0
SPLINE
  5
174
330
1F
100
AcDbEntity
  8
0
  6
Continuous
 62
     7
370
    30
100
AcDbSpline
210
0.0
220
0.0
230
1.0
 70
     8
 71
     3
 72
    45
 73
    41
 74
     0
 42
0.000000001
 43
0.00000001
 40
0.0
 40
0.0
 40
0.0
 40
0.0
 40
0.0337013396388028
 40
0.0614948791288776
 40
0.0840347945876214
 40
0.1027217295179808
 40
0.129491887279209
 40
0.1505653925923026
 40
0.1702803221089529
 40
0.189818984680232
 40
0.2093707005357597
 40
0.229088006346013
 40
0.2489344110957782
 40
0.2755992852400313
 40
0.3035760320213985
 40
0.3353752275668062
 40
0.3709936672747955
 40
0.4103753378396362
 40
0.4529434856001181
 40
0.4931150946272247
 40
0.5253369681238105
 40
0.554924005859369
 40
0.5819186876576713
 40
0.6063567744761174
 40
0.6288332565511787
 40
0.6540016940074158
 40
0.6833675582173205
 40
0.7175225268854393
 40
0.7511676742511748
 40
0.7809593273392741
 40
0.8068815154106255
 40
0.8346493878140057
 40
0.8638121920845979
 40
0.8785356075574541
 40
0.8918115410106359
 40
0.904036066816959
 40
0.9198732817834603
 40
0.9408061970935487
 40
0.9672943379225709
 40
1.0
 40
1.0
 40
1.0
 40
1.0
 10
450.700362861729
 20
120.9217870535489
 30
0.0
 10
450.7008975543599
 20
120.8965616172602
 30
0.0
 10
450.7018732087126
 20
120.8505327302137
 30
0.0
 10
450.7060487443268
 20
120.7873095283979
 30
0.0
 10
450.7108032425145
 20
120.7354908273791
 30
0.0
 10
450.7166639383336
 20
120.6845982994939
 30
0.0
 10
450.7236503290705
 20
120.6347212964392
 30
0.0
 10
450.7320528702107
 20
120.5842538240944
 30
0.0
 10
450.7405301080502
 20
120.5393680070616
 30
0.0
 10
450.7496968682382
 20
120.4957920972613
 30
0.0
 10
450.7597510149606
 20
120.4524067880254
 30
0.0
 10
450.7707494824826
 20
120.4089735542412
 30
0.0
 10
450.7840447384086
 20
120.3606097929269
 30
0.0
 10
450.8002551793505
 20
120.3066541226111
 30
0.0
 10
450.8207509441673
 20
120.244653502103
 30
0.0
 10
450.8454293465089
 20
120.1767873929888
 30
0.0
 10
450.875638732434
 20
120.1015199135388
 30
0.0
 10
450.9120107719489
 20
120.019641343245
 30
0.0
 10
450.9532476216483
 20
119.935925732464
 30
0.0
 10
450.9952132540241
 20
119.8586698012492
 30
0.0
 10
451.0347202065917
 20
119.7916199126479
 30
0.0
 10
451.0707210911048
 20
119.7344631401977
 30
0.0
 10
451.1048054347306
 20
119.6834337987212
 30
0.0
 10
451.1369158976184
 20
119.6378676118088
 30
0.0
 10
451.1690553551726
 20
119.5944667221862
 30
0.0
 10
451.2050302251567
 20
119.5480936852927
 30
0.0
 10
451.2479356599866
 20
119.4956950818699
 30
0.0
 10
451.2967585144179
 20
119.4397379562992
 30
0.0
 10
451.3476957630646
 20
119.3852340198434
 30
0.0
 10
451.3957955354877
 20
119.3369876055596
 30
0.0
 10
451.4416742427267
 20
119.2935016426073
 30
0.0
 10
451.4884608807261
 20
119.2515582969493
 30
0.0
 10
451.5299475030524
 20
119.2165653867592
 30
0.0
 10
451.563589904712
 20
119.189523971771
 30
0.0
 10
451.58752665654
 20
119.1708766199668
 30
0.0
 10
451.6123900393923
 20
119.1520609463794
 30
0.0
 10
451.6423168100503
 20
119.130131780598
 30
0.0
 10
451.6814806754096
 20
119.1026842864974
 30
0.0
 10
451.7317813634513
 20
119.0692258542807
 30
0.0
 10
451.7695914077412
 20
119.0463470280738
 30
0.0
 10
451.7904821508757
 20
119.0337060568587
 30
0.0
  0
SPLINE
  5
175
330
1F
100
AcDbEntity
  8
0
  6
Continuous
 62
     7
370
    30
100
AcDbSpline
210
0.0
220
0.0
230
1.0
 70
     8
 71
     3
 72
    36
 73
    32
 74
     0
 42
0.000000001
 43
0.00000001
 40
0.0
 40
0.0
 40
0.0
 40
0.0
 40
0.0345976691360456
 40
0.0692204152429994
 40
0.1038172195988525
 40
0.1393918248839849
 40
0.1749949232144979
 40
0.2105686044205276
 40
0.2451780425202318
 40
0.2798147974512336
 40
0.3144235711460528
 40
0.3500891066619942
 40
0.3857854529016504
 40
0.421450558017355
 40
0.4552135314881274
 40
0.4890030570983204
 40
0.5227660051353665
 40
0.5575306868314791
 40
0.5923243427206168
 40
0.6270893571969526
 40
0.6605340915554198
 40
0.6940041894323311
 40
0.7274494633028954
 40
0.76182855528674
 40
0.7962344048311956
 40
0.8306142780656887
 40
0.8644423223458185
 40
0.8983414695574603
 40
0.932266414668981
 40
0.9661690358882231
 40
0.9999999999999999
 40
0.9999999999999999
 40
0.9999999999999999
 40
0.9999999999999999
 10
467.0620925550903
 20
117.9328960272806
 30
0.0
 10
467.0718010881802
 20
117.8809747165776
 30
0.0
 10
467.0912251912678
 20
117.7770944617348
 30
0.0
 10
467.1077487976596
 20
117.6259611721478
 30
0.0
 10
467.1149595444523
 20
117.4774378572884
 30
0.0
 10
467.1114187839568
 20
117.3324845353961
 30
0.0
 10
467.0970495001493
 20
117.191637142298
 30
0.0
 10
467.0720108765634
 20
117.0579568123332
 30
0.0
 10
467.0365659187042
 20
116.9317755728851
 30
0.0
 10
466.9911956408563
 20
116.8132555518853
 30
0.0
 10
466.9350969427674
 20
116.7005012142773
 30
0.0
 10
466.8679264126724
 20
116.5942318645018
 30
0.0
 10
466.7896192083985
 20
116.4950377200857
 30
0.0
 10
466.7026518843303
 20
116.405949779284
 30
0.0
 10
466.6078286776647
 20
116.3268511014283
 30
0.0
 10
466.5061195312142
 20
116.2573716964744
 30
0.0
 10
466.395003330428
 20
116.1956682140063
 30
0.0
 10
466.2744649480375
 20
116.1423131551266
 30
0.0
 10
466.1447311069182
 20
116.0976899614515
 30
0.0
 10
466.0091519438782
 20
116.0628880190519
 30
0.0
 10
465.8684594364902
 20
116.0376715885115
 30
0.0
 10
465.7234688232625
 20
116.0215871323008
 30
0.0
 10
465.5714126191734
 20
116.0142537977038
 30
0.0
 10
465.4125479315225
 20
116.016023582881
 30
0.0
 10
465.2472886456367
 20
116.0270590836158
 30
0.0
 10
465.0785357608531
 20
116.0471326200697
 30
0.0
 10
464.906774863898
 20
116.0761267453817
 30
0.0
 10
464.7325579785139
 20
116.1136307512261
 30
0.0
 10
464.555507411069
 20
116.1597709030556
 30
0.0
 10
464.3764906215417
 20
116.2135756773882
 30
0.0
 10
464.2558914680234
 20
116.2562779135424
 30
0.0
 10
464.1956556837422
 20
116.2776064437208
 30
0.0
  0
ARC
  5
176
330
1F
100
AcDbEntity
  8
0
  6
Continuous
 62
     7
370
    30
100
AcDbCircle
 10
494.2631978392
 20
121.7831906434
 30
0.0
 40
27.47225686599466
100
AcDbArc
 50
153.2644181974
 51
188.0566479737
  0
SPLINE
  5
177
330
1F
100
AcDbEntity
  8
0
  6
Continuous
 62
     7
370
    30
100
AcDbSpline
210
0.0
220
0.0
230
1.0
 70
     8
 71
     3
 72
    43
 73
    39
 74
     0
 42
0.000000001
 43
0.00000001
 40
0.0
 40
0.0
 40
0.0
 40
0.0
 40
0.021537584922297
 40
0.0431219197703158
 40
0.0648471598879358
 40
0.0866190702038676
 40
0.1089179209676009
 40
0.1312644452204371
 40
0.1537511507868753
 40
0.1762828332825291
 40
0.1978191463186449
 40
0.2193911494683378
 40
0.241213955688019
 40
0.263037081360016
 40
0.2849868720430702
 40
0.3069369615583801
 40
0.329121162807485
 40
0.3513327784818941
 40
0.3817605430907407
 40
0.4122500465362268
 40
0.4429152211813576
 40
0.4736346053590545
 40
0.5049556212760822
 40
0.5363269565341431
 40
0.5678431114009935
 40
0.5994047534022275
 40
0.6261123790265452
 40
0.6528452088134977
 40
0.679651891165929
 40
0.7064823791850661
 40
0.7425976036725329
 40
0.7787677014654795
 40
0.8151004973542125
 40
0.8514864813322904
 40
0.8884776902897955
 40
0.92552351041165
 40
0.9627341735701209
 40
1.0
 40
1.0
 40
1.0
 40
1.0
 10
469.0772174928552
 20
143.3062365538116
 30
0.0
 10
469.1273944631563
 20
143.2651018372103
 30
0.0
 10
469.2278573189247
 20
143.1827431161441
 30
0.0
 10
469.3710411485069
 20
143.0486740765353
 30
0.0
 10
469.5085599056496
 20
142.9069876820827
 30
0.0
 10
469.6405285853954
 20
142.7561136515844
 30
0.0
 10
469.7664947927695
 20
142.5966353552049
 30
0.0
 10
469.8862184533493
 20
142.428494470353
 30
0.0
 10
469.9986321657439
 20
142.2532650452545
 30
0.0
 10
470.1019986393762
 20
142.0741684210936
 30
0.0
 10
470.1965316871596
 20
141.8922330334367
 30
0.0
 10
470.2829249323927
 20
141.7075525102814
 30
0.0
 10
470.3625789015189
 20
141.5177046341526
 30
0.0
 10
470.435610123086
 20
141.3227669630631
 30
0.0
 10
470.5017822468144
 20
141.1238220017636
 30
0.0
 10
470.5614173041315
 20
140.9205030091897
 30
0.0
 10
470.6144768146802
 20
140.7134137337737
 30
0.0
 10
470.6667844186314
 20
140.4768845101313
 30
0.0
 10
470.7152398559451
 20
140.2106195041516
 30
0.0
 10
470.7567606395641
 20
139.9136168513522
 30
0.0
 10
470.7869246873973
 20
139.6126515833691
 30
0.0
 10
470.8061733684322
 20
139.3065350371375
 30
0.0
 10
470.8146112895157
 20
138.9961896675629
 30
0.0
 10
470.8123814738485
 20
138.6818102052881
 30
0.0
 10
470.7997473593153
 20
138.3657331529823
 30
0.0
 10
470.7781788493689
 20
138.0648475630062
 30
0.0
 10
470.7496892466051
 20
137.7799937166704
 30
0.0
 10
470.7160004061858
 20
137.5113118028513
 30
0.0
 10
470.6756263120599
 20
137.2426910679917
 30
0.0
 10
470.6233073923779
 20
136.9434932237264
 30
0.0
 10
470.5563827553071
 20
136.614385109342
 30
0.0
 10
470.4718860936711
 20
136.2558994771501
 30
0.0
 10
470.3762834700964
 20
135.8991883144497
 30
0.0
 10
470.2692251721671
 20
135.5429836247707
 30
0.0
 10
470.1509007290028
 20
135.188158748192
 30
0.0
 10
470.0209557679404
 20
134.8350860804335
 30
0.0
 10
469.8810345277891
 20
134.4855387702407
 30
0.0
 10
469.7789967421813
 20
134.2567273131761
 30
0.0
 10
469.7279400606868
 20
134.1422368465702
 30
0.0
  0
ARC
  5
178
330
1F
100
AcDbEntity
  8
0
  6
Continuous
 62
     7
370
    30
100
AcDbCircle
 10
457.2070076373
 20
128.7926525865
 30
0.0
 40
18.74956003732438
100
AcDbArc
 50
50.7213322363
 51
69.2840442964
  0
SPLINE
  5
179
330
1F
100
AcDbEntity
  8
0
  6
Continuous
 62
     7
370
    30
100
AcDbSpline
210
0.0
220
0.0
230
1.0
 70
     8
 71
     3
 72
    44
 73
    40
 74
     0
 42
0.000000001
 43
0.00000001
 40
0.0
 40
0.0
 40
0.0
 40
0.0
 40
0.0215375890016525
 40
0.0431219279378813
 40
0.0648471721703998
 40
0.0866190866100697
 40
0.108917941597347
 40
0.1312644700827568
 40
0.1537511799083198
 40
0.1762828666716174
 40
0.1978191837868477
 40
0.2193911910224151
 40
0.2412140013754742
 40
0.2630371311809098
 40
0.2849869260213938
 40
0.3069370196941901
 40
0.3291212251451237
 40
0.3513328450265538
 40
0.3817606153986123
 40
0.4122501246190041
 40
0.4429153050723136
 40
0.473634695068457
 40
0.504955716917884
 40
0.5363270581178751
 40
0.5678432189540854
 40
0.5994048669332949
 40
0.6183873444022301
 40
0.6373698628780998
 40
0.6754041888919778
 40
0.7136476177729063
 40
0.7519579945783035
 40
0.7910294937624175
 40
0.8301681110982312
 40
0.8695071004488821
 40
0.9089121472101578
 40
0.9316525831199038
 40
0.9544055940577292
 40
0.977196466693559
 40
1.0
 40
1.0
 40
1.0
 40
1.0
 10
463.8393894840674
 20
146.3299703013023
 30
0.0
 10
463.7882529747418
 20
146.3473226115581
 30
0.0
 10
463.6858689581296
 20
146.3820648973521
 30
0.0
 10
463.5271322859669
 20
146.4222908534275
 30
0.0
 10
463.3647649342169
 20
146.4537250246638
 30
0.0
 10
463.1975340500051
 20
146.4755752258995
 30
0.0
 10
463.026089488889
 20
146.4877885116114
 30
0.0
 10
462.8505138260448
 20
146.4901202975593
 30
0.0
 10
462.6724693653121
 20
146.4825688066819
 30
0.0
 10
462.4951427608418
 20
146.4655128473772
 30
0.0
 10
462.3192750840309
 20
146.4396764753676
 30
0.0
 10
462.1447022949864
 20
146.4056484370726
 30
0.0
 10
461.9690760270522
 20
146.3631707049369
 30
0.0
 10
461.7924604835829
 20
146.3123510436647
 30
0.0
 10
461.615821794235
 20
146.2535777811165
 30
0.0
 10
461.4388063821742
 20
146.1868741965705
 30
0.0
 10
461.261939421241
 20
146.1125186478362
 30
0.0
 10
461.0637024484
 20
146.0206257296554
 30
0.0
 10
460.8453780636332
 20
145.9083694370517
 30
0.0
 10
460.6078123580987
 20
145.7724799840327
 30
0.0
 10
460.372895857582
 20
145.6245424631351
 30
0.0
 10
460.1396908037206
 20
145.4641643415778
 30
0.0
 10
459.9089616158813
 20
145.2918872597423
 30
0.0
 10
459.6809166544259
 20
145.1078679010296
 30
0.0
 10
459.4572530453353
 20
144.9136163529419
 30
0.0
 10
459.2674721578957
 20
144.7367947529316
 30
0.0
 10
459.1099125301493
 20
144.5818170490816
 30
0.0
 10
458.9403956725413
 20
144.408301415965
 30
0.0
 10
458.73311527288
 20
144.1832967305397
 30
0.0
 10
458.4925291613773
 20
143.9013377267214
 30
0.0
 10
458.2589411893374
 20
143.6060732073325
 30
0.0
 10
458.0332064335817
 20
143.2982423639226
 30
0.0
 10
457.8156434056922
 20
142.9778698734869
 30
0.0
 10
457.6079932998834
 20
142.6473388305032
 30
0.0
 10
457.4385919364091
 20
142.3553062660524
 30
0.0
 10
457.3032094129496
 20
142.1064448284721
 30
0.0
 10
457.1981881200811
 20
141.9036486179501
 30
0.0
 10
457.0966446351769
 20
141.6983454180303
 30
0.0
 10
457.0322328399081
 20
141.5594012353496
 30
0.0
 10
457.0000179993289
 20
141.4899098529746
 30
0.0
  0
ARC
  5
17A
330
1F
100
AcDbEntity
  8
0
  6
Continuous
 62
     7
370
    30
100
AcDbCircle
 10
481.5352695405
 20
129.1308646756
 30
0.0
 40
27.47225083398451
100
AcDbArc
 50
153.264414256
 51
188.0566519152
  0
SPLINE
  5
17B
330
1F
100
AcDbEntity
  8
0
  6
Continuous
 62
     7
370
    30
100
AcDbSpline
210
0.0
220
0.0
230
1.0
 70
     8
 71
     3
 72
    36
 73
    32
 74
     0
 42
0.000000001
 43
0.00000001
 40
0.0
 40
0.0
 40
0.0
 40
0.0
 40
0.0345976691360887
 40
0.0692204152431067
 40
0.1038172195990446
 40
0.1393918248841991
 40
0.1749949232147344
 40
0.2105686044207865
 40
0.2451780425205145
 40
0.2798147974515403
 40
0.3144235711463836
 40
0.3500891066623519
 40
0.3857854529020349
 40
0.421450558017766
 40
0.4552135314885338
 40
0.4890030570987225
 40
0.522766005135764
 40
0.5575306868318716
 40
0.592324342721004
 40
0.6270893571973345
 40
0.6605340915557978
 40
0.6940041894327049
 40
0.7274494633032654
 40
0.7618285552871062
 40
0.7962344048315579
 40
0.8306142780660468
 40
0.8644423223461054
 40
0.8983414695576755
 40
0.9322664146691242
 40
0.9661690358882948
 40
1.0
 40
1.0
 40
1.0
 40
1.0
 10
454.3341704937187
 20
125.2805690336852
 30
0.0
 10
454.3454547685663
 20
125.2277380666286
 30
0.0
 10
454.3680314972931
 20
125.1220378397442
 30
0.0
 10
454.4100038571775
 20
124.9562132974828
 30
0.0
 10
454.4582439429303
 20
124.7840042494087
 30
0.0
 10
454.5135000201586
 20
124.6051082355882
 30
0.0
 10
454.5756140562019
 20
124.4201079617607
 30
0.0
 10
454.6433340072234
 20
124.2328792464843
 30
0.0
 10
454.716316153065
 20
124.0441043724126
 30
0.0
 10
454.7941171593775
 20
123.8544790825851
 30
0.0
 10
454.8780257370218
 20
123.6609002650936
 30
0.0
 10
454.9680268595031
 20
123.4638976515976
 30
0.0
 10
455.0639454352362
 20
123.2641251052548
 30
0.0
 10
455.1627777249932
 20
123.0677773304815
 30
0.0
 10
455.263944530911
 20
122.8755360266699
 30
0.0
 10
455.3668414550084
 20
122.6879400513707
 30
0.0
 10
455.4740627584753
 20
122.5001930106098
 30
0.0
 10
455.5854100872271
 20
122.3129731800796
 30
0.0
 10
455.7005777497458
 20
122.126971357683
 30
0.0
 10
455.8166217763705
 20
121.9469104398143
 30
0.0
 10
455.93307741456
 20
121.7732455446464
 30
0.0
 10
456.0495007896047
 20
121.6062500052389
 30
0.0
 10
456.1681532653483
 20
121.4426398762196
 30
0.0
 10
456.28872492034
 20
121.2830944944792
 30
0.0
 10
456.4108598835046
 20
121.1282208267131
 30
0.0
 10
456.5324438923423
 20
120.9806864421145
 30
0.0
 10
456.6531674029036
 20
120.8408329129908
 30
0.0
 10
456.7727738292879
 20
120.7087163314271
 30
0.0
 10
456.8915276732795
 20
120.5840922313539
 30
0.0
 10
457.0091211916406
 20
120.4666675196647
 30
0.0
 10
457.0861261336303
 20
120.3952953396244
 30
0.0
 10
457.1245878718676
 20
120.3596470028396
 30
0.0
  0
ARC
  5
17C
330
1F
100
AcDbEntity
  8
0
  6
Continuous
 62
     7
370
    30
100
AcDbCircle
 10
467.3669709855
 20
131.6154197955
 30
0.0
 40
15.21837156221205
100
AcDbArc
 50
227.698836271
 51
228.3908433347
  0
ARC
  5
17D
330
1F
100
AcDbEntity
  8
0
  6
Continuous
 62
     7
370
    30
100
AcDbCircle
 10
471.3146896599
 20
136.7987212311
 30
0.0
 40
21.72088388784064
100
AcDbArc
 50
229.6842011345
 51
250.8676937055
  0
LWPOLYLINE
  5
17E
330
1F
100
AcDbEntity
  8
0
  6
Continuous
 62
     7
370
    30
100
AcDbPolyline
 90
        3
 70
   128
 43
0.0
 10
456.4500965587
 20
148.676754758
 10
456.6566269673
 20
148.9577642053
 10
456.6807221862
 20
148.9891157098
  0
LWPOLYLINE
  5
17F
330
1F
100
AcDbEntity
  8
0
  6
Continuous
 62
     7
370
    30
100
AcDbPolyline
 90
        3
 70
   128
 43
0.0
 10
479.1008918432
 20
110.1943267467
 10
479.0413097519
 20
110.1863564249
 10
478.6924237271
 20
110.1477393248
  0
SPLINE
  5
180
330
1F
100
AcDbEntity
  8
0
  6
Continuous
 62
     7
370
    30
100
AcDbSpline
210
0.0
220
0.0
230
1.0
 70
     8
 71
     3
 72
    14
 73
    10
 74
     0
 42
0.000000001
 43
0.00000001
 40
0.0
 40
0.0
 40
0.0
 40
0.0
 40
0.1549051254010648
 40
0.3090920677597641
 40
0.4499441028908593
 40
0.5905266985980583
 40
0.7309868883011448
 40
0.8734798004846551
 40
1.0
 40
1.0
 40
1.0
 40
1.0
 10
465.4012202423037
 20
116.9735353570755
 30
0.0
 10
465.4845109122224
 20
116.9401710030433
 30
0.0
 10
465.6507060934575
 20
116.8735969813603
 30
0.0
 10
465.890061111901
 20
116.7997753706396
 30
0.0
 10
466.1183765570945
 20
116.7445194436565
 30
0.0
 10
466.33527102477
 20
116.7075622581482
 30
0.0
 10
466.5474838094409
 20
116.6873646487769
 30
0.0
 10
466.7472249627396
 20
116.6825635108604
 30
0.0
 10
466.8722030667802
 20
116.6931511333522
 30
0.0
 10
466.9309818175944
 20
116.6981306233912
 30
0.0
  0
ARC
  5
181
330
1F
100
AcDbEntity
  8
0
  6
Continuous
 62
     7
370
    30
100
AcDbCircle
 10
476.880196121
 20
145.0233010074
 30
0.0
 40
30.30767003666128
100
AcDbArc
 50
232.2615490487
 51
247.7438257717
  0
SPLINE
  5
182
330
1F
100
AcDbEntity
  8
0
  6
Continuous
 62
     7
370
    30
100
AcDbSpline
210
0.0
220
0.0
230
1.0
 70
     8
 71
     3
 72
    37
 73
    33
 74
     0
 42
0.000000001
 43
0.00000001
 40
0.0
 40
0.0
 40
0.0
 40
0.0
 40
0.0328495934570948
 40
0.065618544630118
 40
0.098318248047039
 40
0.131869663517071
 40
0.1653717742122981
 40
0.1988364464367447
 40
0.2322754306644825
 40
0.2657003906554685
 40
0.2991229328838714
 40
0.3325546361805226
 40
0.3660070814913651
 40
0.3994918816539929
 40
0.4330207110942855
 40
0.4666053353447864
 40
0.5002576402860643
 40
0.5335324278789927
 40
0.5668570043526349
 40
0.600244087316225
 40
0.6337067899338439
 40
0.667258638544515
 40
0.7009135884544995
 40
0.7346860378147678
 40
0.7685908395052207
 40
0.8019420489872358
 40
0.8353086995283399
 40
0.8687099747069024
 40
0.9021659084655129
 40
0.9346797905750905
 40
0.9672843720621128
 40
0.9999999999999999
 40
0.9999999999999999
 40
0.9999999999999999
 40
0.9999999999999999
 10
455.7359220455348
 20
126.0897941118654
 30
0.0
 10
455.7401787753419
 20
126.035173480235
 30
0.0
 10
455.748681785134
 20
125.9260663048588
 30
0.0
 10
455.7694341017237
 20
125.7565302523658
 30
0.0
 10
455.7961749414395
 20
125.5818988545825
 30
0.0
 10
455.8295937292374
 20
125.4020105046736
 30
0.0
 10
455.8696290140024
 20
125.2173447809998
 30
0.0
 10
455.9158986518351
 20
125.0299853525815
 30
0.0
 10
455.968261326189
 20
124.8404181712739
 30
0.0
 10
456.0265798328848
 20
124.6491207214777
 30
0.0
 10
456.0907027875438
 20
124.4565766193209
 30
0.0
 10
456.1604697363538
 20
124.2632709954521
 30
0.0
 10
456.2357100155838
 20
124.0696910184289
 30
0.0
 10
456.3162432879388
 20
123.8763250503039
 30
0.0
 10
456.4018796684213
 20
123.683662133815
 30
0.0
 10
456.4924198659443
 20
123.4921915166386
 30
0.0
 10
456.5872244542065
 20
123.3032611422836
 30
0.0
 10
456.6859668738172
 20
123.1173965351306
 30
0.0
 10
456.7883235405108
 20
122.9350970668472
 30
0.0
 10
456.8944720991677
 20
122.7560491648375
 30
0.0
 10
457.0041749068045
 20
122.5807040697342
 30
0.0
 10
457.1171878044605
 20
122.409508586282
 30
0.0
 10
457.2332605789039
 20
122.2429048357658
 30
0.0
 10
457.3521369472379
 20
122.0813282185489
 30
0.0
 10
457.4727190979865
 20
121.9262890928296
 30
0.0
 10
457.5945166473909
 20
121.7782585392261
 30
0.0
 10
457.7170569240694
 20
121.6376584005409
 30
0.0
 10
457.8407467310816
 20
121.5040198714719
 30
0.0
 10
457.964069492324
 20
121.3788779969163
 30
0.0
 10
458.0867310598397
 20
121.2624692046023
 30
0.0
 10
458.2085375018807
 20
121.1540417895778
 30
0.0
 10
458.2895688043573
 20
121.0884348234554
 30
0.0
 10
458.3301533335022
 20
121.055575573421
 30
0.0
  0
ARC
  5
183
330
1F
100
AcDbEntity
  8
0
  6
Continuous
 62
     7
370
    30
100
AcDbCircle
 10
494.953924491
 20
127.6658293256
 30
0.0
 40
39.24965088690985
100
AcDbArc
 50
157.9532039844
 51
182.3012908874
  0
SPLINE
  5
184
330
1F
100
AcDbEntity
  8
0
  6
Continuous
 62
     7
370
    30
100
AcDbSpline
210
0.0
220
0.0
230
1.0
 70
     8
 71
     3
 72
    20
 73
    16
 74
     0
 42
0.000000001
 43
0.00000001
 40
0.0
 40
0.0
 40
0.0
 40
0.0
 40
0.0443102166476421
 40
0.1205185654155452
 40
0.197412597619045
 40
0.2751013162093134
 40
0.3525172152872617
 40
0.429175691520632
 40
0.5061622430853118
 40
0.583583940601097
 40
0.6669078127266223
 40
0.7499275950210603
 40
0.8327882960863247
 40
0.9166842309311592
 40
1.0
 40
1.0
 40
1.0
 40
1.0
 10
461.246106887356
 20
146.10390418689
 30
0.0
 10
461.1952647821238
 20
146.0664996015708
 30
0.0
 10
461.0569802498223
 20
145.9647635392428
 30
0.0
 10
460.8370395943699
 20
145.7821236885665
 30
0.0
 10
460.5872648493857
 20
145.5536910214972
 30
0.0
 10
460.3450288763062
 20
145.3077651422577
 30
0.0
 10
460.1121567850494
 20
145.0473848368363
 30
0.0
 10
459.8895186550182
 20
144.774004905354
 30
0.0
 10
459.676808271914
 20
144.4877009305247
 30
0.0
 10
459.468608118878
 20
144.1806857899742
 30
0.0
 10
459.2668255540979
 20
143.8535610786102
 30
0.0
 10
459.073314298672
 20
143.5070643633699
 30
0.0
 10
458.8928797538544
 20
143.14845500849
 30
0.0
 10
458.7247971270506
 20
142.7798375315389
 30
0.0
 10
458.6243862480886
 20
142.5256154541212
 30
0.0
 10
458.5743550038169
 20
142.3989454459903
 30
0.0
  0
LINE
  5
185
330
1F
100
AcDbEntity
  8
0
  6
Continuous
 62
     7
370
    30
100
AcDbLine
 10
451.5148707131
 20
241.324394155
 30
0.0
 11
451.5127169145
 21
241.3229467423
 31
0.0
  0
LINE
  5
186
330
1F
100
AcDbEntity
  8
0
  6
Continuous
 62
     7
370
    30
100
AcDbLine
 10
564.4780312594
 20
63.8568667255
 30
0.0
 11
564.4756874716
 21
63.8557668318
 31
0.0
  0
LINE
  5
187
330
1F
100
AcDbEntity
  8
0
  6
Continuous
 62
     7
370
    30
100
AcDbLine
 10
459.2524529739
 20
246.1081288705
 30
0.0
 11
459.2545932709
 21
246.1096203495
 31
0.0
  0
LWPOLYLINE
  5
188
330
1F
100
AcDbEntity
  8
0
  6
Continuous
 62
   252
370
     0
100
AcDbPolyline
 90
      139
 70
   128
 43
0.0
 10
456.6807221862
 20
148.9891157098
 10
456.8840258309
 20
149.2426724729
 10
457.1207810837
 20
149.5151629441
 10
457.3667304655
 20
149.7750488676
 10
457.621705415
 20
150.0221521305
 10
457.8855311849
 20
150.2563033807
 10
458.1580269624
 20
150.4773421425
 10
458.4390059923
 20
150.685116927
 10
458.7282757058
 20
150.8794853358
 10
459.0256378518
 20
151.0603141585
 10
459.3308886331
 20
151.227479464
 10
459.6438188461
 20
151.3808666856
 10
459.9642140241
 20
151.5203706993
 10
460.2918545842
 20
151.645895896
 10
460.6265159779
 20
151.7573562471
 10
460.9679688451
 20
151.8546753632
 10
461.315979171
 20
151.9377865466
 10
461.6703084467
 20
152.0066328372
 10
462.0307138326
 20
152.0611670509
 10
462.3969483249
 20
152.101351813
 10
462.7687609248
 20
152.1271595826
 10
463.1458968104
 20
152.1385726725
 10
463.5280975116
 20
152.1355832607
 10
463.9151010873
 20
152.118193396
 10
464.3066423044
 20
152.0864149965
 10
464.7024528203
 20
152.0402698416
 10
465.102261366
 20
151.9797895569
 10
465.5057939329
 20
151.9050155925
 10
465.9127739598
 20
151.8159991947
 10
466.322922523
 20
151.7128013709
 10
466.7359585271
 20
151.5954928479
 10
467.1515988979
 20
151.4641540229
 10
467.5695587763
 20
151.3188749091
 10
467.9895517134
 20
151.1597550735
 10
468.411289867
 20
150.9869035688
 10
468.8344841989
 20
150.800438859
 10
469.2588446728
 20
150.6004887375
 10
469.6840804533
 20
150.3871902402
 10
470.1099001049
 20
150.1606895513
 10
470.5360117923
 20
149.9211419029
 10
470.9621234796
 20
149.6687114691
 10
471.3879431312
 20
149.4035712532
 10
471.8131789117
 20
149.1259029688
 10
472.2375393856
 20
148.8358969161
 10
472.6607337175
 20
148.5337518507
 10
473.0824718711
 20
148.2196748478
 10
473.5024648082
 20
147.8938811599
 10
473.9204246866
 20
147.5565940699
 10
474.3360650574
 20
147.2080447374
 10
474.7491010615
 20
146.8484720408
 10
475.1592496247
 20
146.4781224132
 10
475.5662296517
 20
146.0972496738
 10
475.9697622185
 20
145.7061148537
 10
476.3695707643
 20
145.3049860171
 10
476.7653812801
 20
144.8941380778
 10
477.1569224972
 20
144.4738526104
 10
477.5439260729
 20
144.0444176576
 10
477.9261267741
 20
143.6061275326
 10
478.3032626597
 20
143.1592826176
 10
478.6750752596
 20
142.7041891578
 10
479.0413097519
 20
142.2411590515
 10
479.4017151378
 20
141.7705096364
 10
479.7560444135
 20
141.2925634721
 10
480.1040547394
 20
140.807648119
 10
480.4455076066
 20
140.316095914
 10
480.7801690003
 20
139.8182437422
 10
481.1078095604
 20
139.3144328068
 10
481.4282047384
 20
138.8050083946
 10
481.7411349514
 20
138.2903196396
 10
482.0463857328
 20
137.7707192838
 10
482.3437478787
 20
137.2465634353
 10
482.6330175922
 20
136.7182113243
 10
482.9139966222
 20
136.1860250571
 10
483.1864923996
 20
135.6503693675
 10
483.4503181695
 20
135.1116113671
 10
483.705293119
 20
134.5701202937
 10
483.9512425008
 20
134.0262672584
 10
484.1879977536
 20
133.4804249907
 10
484.4153966172
 20
132.9329675838
 10
484.6332832437
 20
132.3842702376
 10
484.8415083045
 20
131.8347090018
 10
485.0399290926
 20
131.2846605182
 10
485.2284096202
 20
130.7345017627
 10
485.4068207123
 20
130.1846097865
 10
485.5750400948
 20
129.6353614582
 10
485.7329524785
 20
129.087133205
 10
485.8804496381
 20
128.5403007554
 10
486.0174304865
 20
127.9952388808
 10
486.1438011439
 20
127.4523211395
 10
486.259475002
 20
126.9119196202
 10
486.3643727839
 20
126.3744046871
 10
486.4584225978
 20
125.8401447262
 10
486.5415599867
 20
125.3095058923
 10
486.6137279723
 20
124.782851859
 10
486.6748770944
 20
124.2605435687
 10
486.7249654443
 20
123.7429389852
 10
486.7639586941
 20
123.2303928489
 10
486.7918301197
 20
122.7232564334
 10
486.8085606194
 20
122.2218773046
 10
486.8141387269
 20
121.7265990828
 10
486.8085606194
 20
121.2377612068
 10
486.7918301197
 20
120.7556987018
 10
486.7639586941
 20
120.2807419493
 10
486.7249654443
 20
119.813216461
 10
486.6748770944
 20
119.3534426554
 10
486.6137279723
 20
118.9017356385
 10
486.5415599867
 20
118.4584049879
 10
486.4584225978
 20
118.0237545401
 10
486.3643727839
 20
117.5980821829
 10
486.259475002
 20
117.1816796508
 10
486.1438011439
 20
116.7748323253
 10
486.0174304865
 20
116.3778190394
 10
485.8804496381
 20
115.990911886
 10
485.7329524785
 20
115.614376032
 10
485.5750400948
 20
115.2484695362
 10
485.4068207123
 20
114.8934431727
 10
485.2284096202
 20
114.5495402588
 10
485.0399290926
 20
114.2169964885
 10
484.8415083045
 20
113.8960397705
 10
484.6332832437
 20
113.5868900726
 10
484.4153966172
 20
113.2897592706
 10
484.1879977536
 20
113.004851003
 10
483.9512425008
 20
112.7323605318
 10
483.705293119
 20
112.4724746083
 10
483.4503181695
 20
112.2253713454
 10
483.1864923996
 20
111.9912200952
 10
482.9139966222
 20
111.7701813334
 10
482.6330175922
 20
111.5624065489
 10
482.3437478787
 20
111.3680381401
 10
482.0463857328
 20
111.1872093174
 10
481.7411349514
 20
111.0200440119
 10
481.4282047384
 20
110.8666567903
 10
481.1078095604
 20
110.7271527766
 10
480.7801690003
 20
110.6016275799
 10
480.4455076066
 20
110.4901672288
 10
480.1040547394
 20
110.3928481127
 10
479.7560444135
 20
110.3097369292
 10
479.4017151378
 20
110.2408906387
 10
479.1008918432
 20
110.1943267467
  0
LINE
  5
189
330
1F
100
AcDbEntity
  8
0
  6
Continuous
 62
   252
370
     0
100
AcDbLine
 10
458.5743011998
 20
142.3987241999
 30
0.0
 11
457.0000179993
 21
141.489909853
 31
0.0
  0
LINE
  5
18A
330
1F
100
AcDbEntity
  8
0
  6
Continuous
 62
   252
370
     0
100
AcDbLine
 10
465.4012161689
 20
116.973561698
 30
0.0
 11
464.1956556837
 21
116.2776064437
 31
0.0
  0
LINE
  5
18B
330
1F
100
AcDbEntity
  8
0
  6
Continuous
 62
   252
370
     0
100
AcDbLine
 10
455.7359288118
 20
126.089786886
 30
0.0
 11
454.3341704937
 21
125.2805690337
 31
0.0
  0
LINE
  5
18C
330
1F
100
AcDbEntity
  8
0
  6
Continuous
 62
   252
370
     0
100
AcDbLine
 10
458.3301371384
 20
121.0555957807
 30
0.0
 11
457.1245878719
 21
120.3596470028
 31
0.0
  0
LWPOLYLINE
  5
18D
330
1F
100
AcDbEntity
  8
0
  6
Continuous
 62
   252
370
     0
100
AcDbPolyline
 90
       41
 70
   128
 43
0.0
 10
502.3776610757
 20
168.9408320298
 10
501.9370891005
 20
169.1885088331
 10
501.4968190713
 20
169.4226959228
 10
501.0571527272
 20
169.6432327985
 10
500.6183913936
 20
169.8499683155
 10
500.1808357756
 20
170.0427607875
 10
499.7447857519
 20
170.2214780841
 10
499.3105401694
 20
170.3859977214
 10
498.8783966384
 20
170.536206946
 10
498.4486513284
 20
170.6720028119
 10
498.0215987655
 20
170.7932922513
 10
497.59753163
 20
170.8999921387
 10
497.1767405566
 20
170.9920293472
 10
496.7595139342
 20
171.069340799
 10
496.3461377093
 20
171.1318735089
 10
495.9368951892
 20
171.17958462
 10
495.5320668483
 20
171.2124414334
 10
495.1319301358
 20
171.2304214309
 10
494.7367592853
 20
171.2335122897
 10
494.3468251273
 20
171.2217118915
 10
493.962394903
 20
171.1950283239
 10
493.5837320818
 20
171.1534798742
 10
493.2110961803
 20
171.0970950179
 10
492.8447425845
 20
171.0259123981
 10
492.4849223749
 20
170.9399808001
 10
492.1318821542
 20
170.8393591169
 10
491.7858638786
 20
170.7241163097
 10
491.4471046917
 20
170.5943313601
 10
491.1158367621
 20
170.4500932162
 10
490.7922871245
 20
170.2915007317
 10
490.4766775234
 20
170.1186625979
 10
490.1692242619
 20
169.9316972694
 10
489.8701380533
 20
169.730732883
 10
489.5796238761
 20
169.5159071696
 10
489.2978808344
 20
169.28736736
 10
489.0251020207
 20
169.045270084
 10
488.761474384
 20
168.7897812629
 10
488.5071786016
 20
168.5210759961
 10
488.2623889549
 20
168.2393384407
 10
488.0272732107
 20
167.9447616855
 10
487.8151117298
 20
167.6561668131
  0
LWPOLYLINE
  5
18E
330
1F
100
AcDbEntity
  8
0
  6
Continuous
 62
   252
370
     0
100
AcDbPolyline
 90
      101
 70
   128
 43
0.0
 10
510.8132422038
 20
127.8179189261
 10
511.1715900707
 20
127.8576290977
 10
511.5442259722
 20
127.9140139541
 10
511.910579568
 20
127.9851965738
 10
512.2703997777
 20
128.0711281718
 10
512.6234399984
 20
128.171749855
 10
512.969458274
 20
128.2869926623
 10
513.3082174609
 20
128.4167776119
 10
513.6394853904
 20
128.5610157557
 10
513.9630350281
 20
128.7196082403
 10
514.2786446292
 20
128.8924463741
 10
514.5860978906
 20
129.0794117025
 10
514.8851840992
 20
129.2803760889
 10
515.1756982764
 20
129.4952018023
 10
515.4574413181
 20
129.7237416119
 10
515.7302201318
 20
129.9658388879
 10
515.9938477685
 20
130.221327709
 10
516.248143551
 20
130.4900329758
 10
516.4929331976
 20
130.7717705312
 10
516.7280489418
 20
131.0663472864
 10
516.953329647
 20
131.3735613531
 10
517.168620917
 20
131.6932021822
 10
517.3737752019
 20
132.0250507078
 10
517.5686518993
 20
132.3688794976
 10
517.7531174504
 20
132.7244529084
 10
517.9270454317
 20
133.0915272479
 10
518.0903166417
 20
133.4698509419
 10
518.2428191825
 20
133.859164706
 10
518.3844485363
 20
134.2592017242
 10
518.5151076376
 20
134.6696878309
 10
518.6347069391
 20
135.0903416996
 10
518.7431644734
 20
135.5208750351
 10
518.8404059092
 20
135.9609927713
 10
518.926364602
 20
136.4103932736
 10
519.00098164
 20
136.8687685452
 10
519.0642058844
 20
137.3358044387
 10
519.1159940046
 20
137.811180871
 10
519.1563105075
 20
138.2945720428
 10
519.1851277621
 20
138.785646662
 10
519.2024260187
 20
139.2840681706
 10
519.2081934217
 20
139.7894949752
 10
519.2024260186
 20
140.3015806818
 10
519.1851277621
 20
140.8199743322
 10
519.1563105074
 20
141.3443206455
 10
519.1159940045
 20
141.8742602607
 10
519.0642058843
 20
142.4094299838
 10
519.0009816398
 20
142.9494630362
 10
518.9263646017
 20
143.4939893061
 10
518.8404059089
 20
144.0426356026
 10
518.7431644731
 20
144.5950259108
 10
518.6347069388
 20
145.15078165
 10
518.5151076373
 20
145.709521933
 10
518.3844485359
 20
146.270863827
 10
518.2428191821
 20
146.8344226165
 10
518.0903166413
 20
147.3998120663
 10
517.9270454313
 20
147.9666446868
 10
517.7531174499
 20
148.5345319992
 10
517.5686518988
 20
149.1030848019
 10
517.3737752014
 20
149.6719134372
 10
517.1686209164
 20
150.2406280584
 10
516.9533296463
 20
150.8088388969
 10
516.7280489412
 20
151.3761565294
 10
516.4929331969
 20
151.9421921446
 10
516.2481435503
 20
152.5065578101
 10
515.9938477678
 20
153.0688667379
 10
515.730220131
 20
153.6287335494
 10
515.4574413173
 20
154.18577454
 10
515.1756982756
 20
154.7396079415
 10
514.8851840984
 20
155.2898541842
 10
514.5860978897
 20
155.8361361568
 10
514.2786446283
 20
156.378079465
 10
513.9630350272
 20
156.9153126878
 10
513.6394853895
 20
157.4474676325
 10
513.3082174599
 20
157.9741795867
 10
512.969458273
 20
158.4950875682
 10
512.6234399974
 20
159.0098345727
 10
512.2703997767
 20
159.5180678185
 10
511.910579567
 20
160.0194389877
 10
511.5442259712
 20
160.5136044657
 10
511.1715900697
 20
161.0002255761
 10
510.7929272485
 20
161.4789688131
 10
510.4084970242
 20
161.94950607
 10
510.0185628661
 20
162.4115148641
 10
509.6233920156
 20
162.8646785576
 10
509.2232553031
 20
163.3086865748
 10
508.8184269622
 20
163.7432346147
 10
508.4091844421
 20
164.1680248599
 10
507.9958082172
 20
164.5827661802
 10
507.5785815948
 20
164.9871743328
 10
507.1577905213
 20
165.3809721565
 10
506.7337233859
 20
165.7638897619
 10
506.3066708229
 20
166.1356647164
 10
505.876925513
 20
166.4960422241
 10
505.444781982
 20
166.8447753001
 10
505.0105363995
 20
167.1816249403
 10
504.5744863757
 20
167.5063602848
 10
504.1369307577
 20
167.8187587762
 10
503.6981694241
 20
168.118606312
 10
503.25850308
 20
168.4056973919
 10
502.8182330509
 20
168.679835258
 10
502.3776610757
 20
168.9408320298
  0
SPLINE
  5
18F
330
1F
100
AcDbEntity
  8
0
  6
Continuous
 62
   252
370
     0
100
AcDbSpline
210
0.0
220
0.0
230
1.0
 70
     8
 71
     3
 72
    14
 73
    10
 74
     0
 42
0.000000001
 43
0.00000001
 40
0.0
 40
0.0
 40
0.0
 40
0.0
 40
0.25
 40
0.25
 40
0.5
 40
0.5
 40
0.75
 40
0.75
 40
1.0
 40
1.0
 40
1.0
 40
1.0
 10
554.4566146037828
 20
60.25842965555172
 30
0.0
 10
554.516065221267
 20
60.22491187570617
 30
0.0
 10
554.5620891423737
 20
60.21357675679911
 30
0.0
 10
554.6441313386678
 20
60.20916798728154
 30
0.0
 10
554.678816969896
 20
60.21754759720044
 30
0.0
 10
554.7379473330333
 20
60.25166286880876
 30
0.0
 10
554.7623452596193
 20
60.2774201564622
 30
0.0
 10
554.79842132624
 20
60.34984475812396
 30
0.0
 10
554.8109191273965
 20
60.39533522264101
 30
0.0
 10
554.8102017030756
 20
60.46261623384216
 30
0.0
  0
LWPOLYLINE
  5
190
330
1F
100
AcDbEntity
  8
0
  6
Continuous
 62
   252
370
     0
100
AcDbPolyline
 90
       29
 70
   128
 43
0.0
 10
451.4804974693
 20
119.7052767327
 10
455.115360313
 20
117.5584801418
 10
458.7534210492
 20
115.4134250754
 10
462.3946769865
 20
113.2701131204
 10
466.0391254314
 20
111.1285458623
 10
469.686763688
 20
108.9887248852
 10
473.337589058
 20
106.850651772
 10
476.9915988407
 20
104.7143281045
 10
480.6487903331
 20
102.5797554628
 10
484.30916083
 20
100.446935426
 10
487.9727076235
 20
98.3158695719
 10
491.6394280036
 20
96.1865594768
 10
495.3093192579
 20
94.0590067159
 10
498.9823786717
 20
91.9332128629
 10
502.6586035278
 20
89.8091794906
 10
506.3379911068
 20
87.68690817
 10
510.0205386871
 20
85.566400471
 10
513.7062435443
 20
83.4476579624
 10
517.3951029521
 20
81.3306822114
 10
521.0871141817
 20
79.2154747839
 10
524.7822745021
 20
77.1020372448
 10
528.4805811796
 20
74.9903711574
 10
532.1820314786
 20
72.8804780838
 10
535.8866226611
 20
70.7723595846
 10
539.5943519864
 20
68.6660172195
 10
543.305216712
 20
66.5614525465
 10
547.0192140928
 20
64.4586671224
 10
550.7363413813
 20
62.3576625028
 10
554.4565958279
 20
60.2584402418
  0
SPLINE
  5
191
330
1F
100
AcDbEntity
  8
0
  6
Continuous
 62
   252
370
     0
100
AcDbSpline
210
0.0
220
0.0
230
1.0
 70
     8
 71
     3
 72
    14
 73
    10
 74
     0
 42
0.000000001
 43
0.00000001
 40
0.0
 40
0.0
 40
0.0
 40
0.0
 40
0.25
 40
0.25
 40
0.5
 40
0.5
 40
0.75
 40
0.75
 40
1.0
 40
1.0
 40
1.0
 40
1.0
 10
451.1269114622796
 20
120.3177070306574
 30
0.0
 10
451.1276063786992
 20
120.2502877920799
 30
0.0
 10
451.1407986945566
 20
120.1904379681425
 30
0.0
 10
451.1779953142704
 20
120.0754721481762
 30
0.0
 10
451.2025918930934
 20
120.0214996177545
 30
0.0
 10
451.2616953614054
 20
119.9190990985496
 30
0.0
 10
451.2961975795994
 20
119.8707266842805
 30
0.0
 10
451.3769507413645
 20
119.7812076179033
 30
0.0
 10
451.4225923252988
 20
119.7395059513441
 30
0.0
 10
451.4804974655568
 20
119.7052768748312
 30
0.0
  0
SPLINE
  5
192
330
1F
100
AcDbEntity
  8
0
  6
Continuous
 62
   252
370
     0
100
AcDbSpline
210
0.0
220
0.0
230
1.0
 70
     8
 71
     3
 72
    12
 73
     8
 74
     0
 42
0.000000001
 43
0.00000001
 40
0.0
 40
0.0
 40
0.0
 40
0.0
 40
0.2203610343919604
 40
0.4471957420769151
 40
0.706739862228267
 40
0.8515617915122241
 40
1.0
 40
1.0
 40
1.0
 40
1.0
 10
450.9145019462173
 20
146.9453189844379
 30
0.0
 10
450.926141465197
 20
144.9870284467907
 30
0.0
 10
450.9497624440232
 20
141.0129175401061
 30
0.0
 10
450.9953593124873
 20
134.7372222863279
 30
0.0
 10
451.0420322842949
 20
129.1359532508235
 30
0.0
 10
451.0873025271259
 20
124.2331311363935
 30
0.0
 10
451.113600344183
 20
121.633536168347
 30
0.0
 10
451.1269113958683
 20
120.3177104895396
 30
0.0
  0
LWPOLYLINE
  5
193
330
1F
100
AcDbEntity
  8
0
  6
Continuous
 62
   252
370
     0
100
AcDbPolyline
 90
       23
 70
   128
 43
0.0
 10
451.126911477
 20
239.230726317
 10
451.0855119494
 20
235.0171648605
 10
451.0471355971
 20
230.8053708787
 10
451.0117824478
 20
226.5953474026
 10
450.9794525268
 20
222.3870974624
 10
450.9501458575
 20
218.1806240866
 10
450.923862461
 20
213.9759303028
 10
450.9006023561
 20
209.773019137
 10
450.8803655596
 20
205.5718936141
 10
450.8631520861
 20
201.3725567576
 10
450.848961948
 20
197.1750115899
 10
450.8377951554
 20
192.979261132
 10
450.8296517164
 20
188.7853084034
 10
450.8245316369
 20
184.5931564227
 10
450.8224349206
 20
180.402808207
 10
450.8233615689
 20
176.214266772
 10
450.8273115812
 20
172.0275351322
 10
450.8342849547
 20
167.8426163009
 10
450.8442816843
 20
163.65951329
 10
450.8573017628
 20
159.4782291101
 10
450.873345181
 20
155.2987667704
 10
450.8924119271
 20
151.1211292789
 10
450.9145019875
 20
146.9453196423
  0
SPLINE
  5
194
330
1F
100
AcDbEntity
  8
0
  6
Continuous
 62
   252
370
     0
100
AcDbSpline
210
0.0
220
0.0
230
1.0
 70
     8
 71
     3
 72
    14
 73
    10
 74
     0
 42
0.000000001
 43
0.00000001
 40
0.0
 40
0.0
 40
0.0
 40
0.0
 40
0.25
 40
0.25
 40
0.5
 40
0.5
 40
0.75
 40
0.75
 40
1.0
 40
1.0
 40
1.0
 40
1.0
 10
451.4804986711739
 20
239.4349128096056
 30
0.0
 10
451.4224625772632
 20
239.4692471764766
 30
0.0
 10
451.3772290671865
 20
239.481038590017
 30
0.0
 10
451.2962665147763
 20
239.4860706247664
 30
0.0
 10
451.261823774806
 20
239.4778312329083
 30
0.0
 10
451.2026940592194
 20
239.443716335086
 30
0.0
 10
451.1780528745795
 20
239.4178186175309
 30
0.0
 10
451.1409012201059
 20
239.3447730923075
 30
0.0
 10
451.1276054921737
 20
239.2988219945485
 30
0.0
 10
451.1269115983269
 20
239.230726246582
 30
0.0
  0
SPLINE
  5
195
330
1F
100
AcDbEntity
  8
0
  6
Continuous
 62
   252
370
     0
100
AcDbSpline
210
0.0
220
0.0
230
1.0
 70
     8
 71
     3
 72
    23
 73
    19
 74
     0
 42
0.000000001
 43
0.00000001
 40
0.0
 40
0.0
 40
0.0
 40
0.0
 40
0.0454178038784158
 40
0.0893641544926446
 40
0.1654766715424839
 40
0.2924909682286607
 40
0.3480064426897714
 40
0.4003365567951266
 40
0.4506486193484483
 40
0.4999948591957189
 40
0.5493618564748859
 40
0.5996998232468514
 40
0.6520094699618997
 40
0.7075111533011934
 40
0.8345179144263114
 40
0.9106286987474804
 40
0.9545782065280793
 40
1.0
 40
1.0
 40
1.0
 40
1.0
 10
554.456614605977
 20
179.9880664446806
 30
0.0
 10
552.8794253665812
 20
180.8771406239978
 30
0.0
 10
549.7761449166763
 20
182.6264846153678
 30
0.0
 10
544.0374150865491
 20
185.8700233793879
 30
0.0
 10
535.4804264780096
 20
190.7204136982645
 30
0.0
 10
526.5445258520705
 20
195.8109715035382
 30
0.0
 10
518.4478528413687
 20
200.4440872940127
 30
0.0
 10
513.0024797754293
 20
203.5683125091906
 30
0.0
 10
507.7759434849826
 20
206.574532448136
 30
0.0
 10
502.6574328625881
 20
209.5258148685558
 30
0.0
 10
497.5441127181488
 20
212.4812429926535
 30
0.0
 10
492.3354022197105
 20
215.4991683700659
 30
0.0
 10
486.9232121580744
 20
218.6428840760902
 30
0.0
 10
478.8977731324773
 20
223.3168598576737
 30
0.0
 10
470.0783949272165
 20
228.4761994782438
 30
0.0
 10
461.6741077401633
 20
233.4173435399465
 30
0.0
 10
456.0528923439675
 20
236.7317573120382
 30
0.0
 10
453.0212894612073
 20
238.5240122714259
 30
0.0
 10
451.4805169973428
 20
239.4349023835024
 30
0.0
  0
SPLINE
  5
196
330
1F
100
AcDbEntity
  8
0
  6
Continuous
 62
   252
370
     0
100
AcDbSpline
210
0.0
220
0.0
230
1.0
 70
     8
 71
     3
 72
    14
 73
    10
 74
     0
 42
0.000000001
 43
0.00000001
 40
0.0
 40
0.0
 40
0.0
 40
0.0
 40
0.25
 40
0.25
 40
0.5
 40
0.5
 40
0.75
 40
0.75
 40
1.0
 40
1.0
 40
1.0
 40
1.0
 10
554.8102018126772
 20
179.3756354345
 30
0.0
 10
554.8109214196965
 20
179.44387126012
 30
0.0
 10
554.7985195150885
 20
179.5041773787238
 30
0.0
 10
554.7624025392231
 20
179.6197664638691
 30
0.0
 10
554.7380488516005
 20
179.6738792123778
 30
0.0
 10
554.6789460308213
 20
179.7762801052945
 30
0.0
 10
554.6442005545911
 20
179.8245120896676
 30
0.0
 10
554.5623718050003
 20
179.9134102325072
 30
0.0
 10
554.5159322940993
 20
179.9546512657272
 30
0.0
 10
554.4566158358457
 20
179.988065605593
 30
0.0
  0
SPLINE
  5
197
330
1F
100
AcDbEntity
  8
0
  6
Continuous
 62
   252
370
     0
100
AcDbSpline
210
0.0
220
0.0
230
1.0
 70
     8
 71
     3
 72
    12
 73
     8
 74
     0
 42
0.000000001
 43
0.00000001
 40
0.0
 40
0.0
 40
0.0
 40
0.0
 40
0.2202822495592941
 40
0.4470332726086834
 40
0.7065844475155301
 40
0.8514821770727459
 40
1.0
 40
1.0
 40
1.0
 40
1.0
 10
554.5902453684029
 20
152.4984239603884
 30
0.0
 10
554.6023191553091
 20
154.4697015405181
 30
0.0
 10
554.6268212860269
 20
158.4701449245334
 30
0.0
 10
554.673934349345
 20
164.7979752392163
 30
0.0
 10
554.7222392221901
 20
170.4540680992439
 30
0.0
 10
554.7692418610168
 20
175.4116073837988
 30
0.0
 10
554.7964366595857
 20
178.0434689814738
 30
0.0
 10
554.8102018204444
 20
179.3756354308075
 30
0.0
  0
LWPOLYLINE
  5
198
330
1F
100
AcDbEntity
  8
0
  6
Continuous
 62
   252
370
     0
100
AcDbPolyline
 90
       23
 70
   128
 43
0.0
 10
554.8102018285
 20
60.4626161658
 10
554.7673313623
 20
64.6275296208
 10
554.727591486
 20
68.7942280942
 10
554.6909822279
 20
72.9627085872
 10
554.6575036146
 20
77.1329680996
 10
554.62715567
 20
81.3050036303
 10
554.5999384161
 20
85.4788121764
 10
554.5758518723
 20
89.6543907342
 10
554.5548960561
 20
93.8317362984
 10
554.5370709826
 20
98.0108458626
 10
554.5223766645
 20
102.1917164191
 10
554.5108131124
 20
106.3743449588
 10
554.5023803347
 20
110.5587284716
 10
554.4970783374
 20
114.7448639458
 10
554.4949071244
 20
118.9327483688
 10
554.4958666971
 20
123.1223787265
 10
554.499957055
 20
127.3137520036
 10
554.5071781951
 20
131.5068651836
 10
554.5175301121
 20
135.7017152485
 10
554.5310127986
 20
139.8982991795
 10
554.547626245
 20
144.0966139562
 10
554.5673704392
 20
148.2966565571
 10
554.5902453671
 20
152.4984239593
  0
SPLINE
  5
199
330
1F
100
AcDbEntity
  8
0
  6
Continuous
 62
   252
370
     0
100
AcDbSpline
210
0.0
220
0.0
230
1.0
 70
     8
 71
     3
 72
    11
 73
     7
 74
     0
 42
0.000000001
 43
0.00000001
 40
0.0
 40
0.0
 40
0.0
 40
0.0
 40
0.25
 40
0.5
 40
0.75
 40
1.0
 40
1.0
 40
1.0
 40
1.0
 10
554.4566146037828
 20
179.988066443414
 30
0.0
 10
554.457890487012
 20
180.1456892569807
 30
0.0
 10
554.5141214632497
 20
180.4935785570903
 30
0.0
 10
554.7427161453544
 20
181.0279666819164
 30
0.0
 10
555.0828869964768
 20
181.4986065672839
 30
0.0
 10
555.3516818859897
 20
181.7250490085747
 30
0.0
 10
555.4858433574356
 20
181.8067485996771
 30
0.0
  0
SPLINE
  5
19A
330
1F
100
AcDbEntity
  8
0
  6
Continuous
 62
   252
370
     0
100
AcDbSpline
210
0.0
220
0.0
230
1.0
 70
     8
 71
     3
 72
    18
 73
    14
 74
     0
 42
0.000000001
 43
0.00000001
 40
0.0
 40
0.0
 40
0.0
 40
0.0
 40
0.1250000000000012
 40
0.1250000000000012
 40
0.2500000000000024
 40
0.2500000000000024
 40
0.4999999999999993
 40
0.4999999999999993
 40
0.7499999999999962
 40
0.7499999999999962
 40
0.8749999999999981
 40
0.8749999999999981
 40
1.0
 40
1.0
 40
1.0
 40
1.0
 10
556.8998415282948
 20
179.3576319331272
 30
0.0
 10
556.8986380114026
 20
179.4925443301151
 30
0.0
 10
556.8837994924531
 20
179.6193767337218
 30
0.0
 10
556.8386091159539
 20
179.8637857637372
 30
0.0
 10
556.8077687670253
 20
179.9818953337069
 30
0.0
 10
556.696422585429
 20
180.326828873998
 30
0.0
 10
556.5983812493575
 20
180.5425936466843
 30
0.0
 10
556.3617428581424
 20
180.9522142198993
 30
0.0
 10
556.2236935832894
 20
181.145626052242
 30
0.0
 10
555.9808485227164
 20
181.4141767866176
 30
0.0
 10
555.8939843270921
 20
181.5001291748399
 30
0.0
 10
555.7043926648117
 20
181.6622214449262
 30
0.0
 10
555.6018153204004
 20
181.7384110717786
 30
0.0
 10
555.4858481936217
 20
181.8067451712393
 30
0.0
  0
SPLINE
  5
19B
330
1F
100
AcDbEntity
  8
0
  6
Continuous
 62
   252
370
     0
100
AcDbSpline
210
0.0
220
0.0
230
1.0
 70
     8
 71
     3
 72
    11
 73
     7
 74
     0
 42
0.000000001
 43
0.00000001
 40
0.0
 40
0.0
 40
0.0
 40
0.0
 40
0.25
 40
0.5
 40
0.75
 40
1.0
 40
1.0
 40
1.0
 40
1.0
 10
554.810201812702
 20
179.3756354368385
 30
0.0
 10
554.9473378316545
 20
179.2979415941968
 30
0.0
 10
555.2767226613189
 20
179.1727145450518
 30
0.0
 10
555.8538076646722
 20
179.1034997315077
 30
0.0
 10
556.4314854317416
 20
179.1627655739777
 30
0.0
 10
556.7619995363582
 20
179.282307199582
 30
0.0
 10
556.8998415282124
 20
179.3576319423744
 30
0.0
  0
SPLINE
  5
19C
330
1F
100
AcDbEntity
  8
0
  6
Continuous
 62
   252
370
     0
100
AcDbSpline
210
0.0
220
0.0
230
1.0
 70
     8
 71
     3
 72
    14
 73
    10
 74
     0
 42
0.000000001
 43
0.00000001
 40
0.0
 40
0.0
 40
0.0
 40
0.0
 40
0.25
 40
0.25
 40
0.5
 40
0.5
 40
0.75
 40
0.75
 40
1.0
 40
1.0
 40
1.0
 40
1.0
 10
563.4971623333824
 20
186.431610394682
 30
0.0
 10
563.6814480700688
 20
186.324276174992
 30
0.0
 10
563.8657825941698
 20
186.1745540366241
 30
0.0
 10
564.2067402764673
 20
185.8129119218319
 30
0.0
 10
564.3632641949914
 20
185.6011638320098
 30
0.0
 10
564.6250041213478
 20
185.1478128019885
 30
0.0
 10
564.7301208895077
 20
184.9063817483915
 30
0.0
 10
564.8728380358144
 20
184.4302723956073
 30
0.0
 10
564.9103391742511
 20
184.195765983065
 30
0.0
 10
564.9111605059176
 20
183.9824937595565
 30
0.0
  0
LINE
  5
19D
330
1F
100
AcDbEntity
  8
0
  6
Continuous
 62
   252
370
     0
100
AcDbLine
 10
564.9111605042
 20
183.9824937283
 30
0.0
 11
556.8998415283
 21
179.3576319331
 31
0.0
  0
LINE
  5
19E
330
1F
100
AcDbEntity
  8
0
  6
Continuous
 62
   252
370
     0
100
AcDbLine
 10
563.4971623334
 20
186.4316103947
 30
0.0
 11
555.4858433903
 21
181.8067486186
 31
0.0
  0
SPLINE
  5
19F
330
1F
100
AcDbEntity
  8
0
  6
Continuous
 62
   252
370
     0
100
AcDbSpline
210
0.0
220
0.0
230
1.0
 70
     8
 71
     3
 72
    11
 73
     7
 74
     0
 42
0.000000001
 43
0.00000001
 40
0.0
 40
0.0
 40
0.0
 40
0.0
 40
0.25
 40
0.5
 40
0.75
 40
1.0
 40
1.0
 40
1.0
 40
1.0
 10
451.4804986691746
 20
239.4349128107885
 30
0.0
 10
451.4818634297259
 20
239.5924843165632
 30
0.0
 10
451.5395808244005
 20
239.9395155255473
 30
0.0
 10
451.7738941242134
 20
240.4706023625846
 30
0.0
 10
452.1224552735926
 20
240.9363986318251
 30
0.0
 10
452.3978264038524
 20
241.1590446901384
 30
0.0
 10
452.5352586851714
 20
241.2388560829019
 30
0.0
  0
SPLINE
  5
1A0
330
1F
100
AcDbEntity
  8
0
  6
Continuous
 62
   252
370
     0
100
AcDbSpline
210
0.0
220
0.0
230
1.0
 70
     8
 71
     3
 72
     8
 73
     4
 74
     0
 42
0.000000001
 43
0.00000001
 40
0.0
 40
0.0
 40
0.0
 40
0.0
 40
1.0
 40
1.0
 40
1.0
 40
1.0
 10
555.4858433574356
 20
181.8067485996771
 30
0.0
 10
520.7574901535629
 20
201.3696594736968
 30
0.0
 10
486.4373115370073
 20
221.1822768656154
 30
0.0
 10
452.5352586933427
 20
241.2388560782804
 30
0.0
  0
SPLINE
  5
1A1
330
1F
100
AcDbEntity
  8
0
  6
Continuous
 62
   252
370
     0
100
AcDbSpline
210
0.0
220
0.0
230
1.0
 70
     8
 71
     3
 72
     8
 73
     4
 74
     0
 42
0.000000001
 43
0.00000001
 40
0.0
 40
0.0
 40
0.0
 40
0.0
 40
1.0
 40
1.0
 40
1.0
 40
1.0
 10
556.6799396163954
 20
152.487084229285
 30
0.0
 10
556.7319601571803
 20
161.4322738378465
 30
0.0
 10
556.8052611531954
 20
170.3891669005963
 30
0.0
 10
556.8998415282948
 20
179.3576319331272
 30
0.0
  0
SPLINE
  5
1A2
330
1F
100
AcDbEntity
  8
0
  6
Continuous
 62
   252
370
     0
100
AcDbSpline
210
0.0
220
0.0
230
1.0
 70
     8
 71
     3
 72
    11
 73
     7
 74
     0
 42
0.000000001
 43
0.00000001
 40
0.0
 40
0.0
 40
0.0
 40
0.0
 40
0.25
 40
0.5
 40
0.75
 40
1.0
 40
1.0
 40
1.0
 40
1.0
 10
554.5902453662279
 20
152.4984239591453
 30
0.0
 10
554.7273815750203
 20
152.4207533131508
 30
0.0
 10
555.0567695796846
 20
152.2959142242364
 30
0.0
 10
555.6338667980225
 20
152.2281919928823
 30
0.0
 10
556.2115624867471
 20
152.2896477383102
 30
0.0
 10
556.5420906381457
 20
152.4109057909396
 30
0.0
 10
556.6799396163955
 20
152.4870842292912
 30
0.0
  0
LINE
  5
1A3
330
1F
100
AcDbEntity
  8
0
  6
Continuous
 62
   252
370
     0
100
AcDbLine
 10
460.2716994997
 20
246.0224016629
 30
0.0
 11
452.5352586933
 21
241.2388560783
 31
0.0
  0
LINE
  5
1A4
330
1F
100
AcDbEntity
  8
0
  6
Continuous
 62
   252
370
     0
100
AcDbLine
 10
460.2716994997
 20
246.0224016629
 30
0.0
 11
563.4971623334
 21
186.4316103947
 31
0.0
  0
LINE
  5
1A5
330
1F
100
AcDbEntity
  8
0
  6
Continuous
 62
   252
370
     0
100
AcDbLine
 10
564.9111605042
 20
64.7815392585
 30
0.0
 11
556.8998415611
 21
60.4740966456
 31
0.0
  0
LWPOLYLINE
  5
1A6
330
1F
100
AcDbEntity
  8
0
  6
Continuous
 62
   252
370
     0
100
AcDbPolyline
 90
       23
 70
   128
 43
0.0
 10
556.8998415224
 20
60.4740966239
 10
556.856981687
 20
64.6379773929
 10
556.8172516651
 20
68.8036427376
 10
556.7806514852
 20
72.9710896601
 10
556.7471811737
 20
77.1403151609
 10
556.7168407547
 20
81.3113162394
 10
556.6896302501
 20
85.4840898939
 10
556.6655496793
 20
89.6586331211
 10
556.6445990598
 20
93.8349429165
 10
556.6267784066
 20
98.0130162745
 10
556.6120877325
 20
102.1928501881
 10
556.6005270482
 20
106.3744416491
 10
556.5920963619
 20
110.557787648
 10
556.5867956797
 20
114.7428851739
 10
556.5846250054
 20
118.9297312148
 10
556.5855843406
 20
123.1183227576
 10
556.5896736846
 20
127.3086567875
 10
556.5968930344
 20
131.5007302889
 10
556.6072423849
 20
135.6945402446
 10
556.6207217286
 20
139.8900836364
 10
556.6373310557
 20
144.0873574447
 10
556.6570703545
 20
148.2863586487
 10
556.6799396105
 20
152.4870842264
  0
LINE
  5
1A7
330
1F
100
AcDbEntity
  8
0
  6
Continuous
 62
   252
370
     0
100
AcDbLine
 10
564.9111605042
 20
183.9824937283
 30
0.0
 11
564.9111605042
 21
64.7815392585
 31
0.0
  0
SPLINE
  5
1A8
330
1F
100
AcDbEntity
  8
0
  6
Continuous
 62
   252
370
     0
100
AcDbSpline
210
0.0
220
0.0
230
1.0
 70
     8
 71
     3
 72
    14
 73
    10
 74
     0
 42
0.000000001
 43
0.00000001
 40
0.0
 40
0.0
 40
0.0
 40
0.0
 40
0.0109264524865823
 40
0.1757720437388151
 40
0.3406176349910449
 40
0.5054632262432879
 40
0.6703088174955288
 40
0.8351544087477627
 40
1.0
 40
1.0
 40
1.0
 40
1.0
 10
565.0635606016726
 20
184.1901343241306
 30
0.0
 10
565.0636499180395
 20
184.1892923186023
 30
0.0
 10
565.0650867357401
 20
184.1757471141799
 30
0.0
 10
565.0597117393559
 20
184.1494072981679
 30
0.0
 10
565.0468191638842
 20
184.1119602231328
 30
0.0
 10
565.0245465625127
 20
184.0758408366323
 30
0.0
 10
564.9943561402143
 20
184.0417960156891
 30
0.0
 10
564.9570023756041
 20
184.0100835561597
 30
0.0
 10
564.9264411304388
 20
183.9916905003404
 30
0.0
 10
564.9111605078562
 20
183.9824939724308
 30
0.0
  0
SPLINE
  5
1A9
330
1F
100
AcDbEntity
  8
0
  6
Continuous
 62
   252
370
     0
100
AcDbSpline
210
0.0
220
0.0
230
1.0
 70
     8
 71
     3
 72
    14
 73
    10
 74
     0
 42
0.000000001
 43
0.00000001
 40
0.0
 40
0.0
 40
0.0
 40
0.0
 40
0.0108260800916314
 40
0.1756884000763684
 40
0.3405507200610982
 40
0.5054130400458221
 40
0.670275360030547
 40
0.8351376800152733
 40
0.9999999999999999
 40
0.9999999999999999
 40
0.9999999999999999
 40
0.9999999999999999
 10
563.753184537214
 20
186.4597525822273
 30
0.0
 10
563.752506252419
 20
186.4602464028444
 30
0.0
 10
563.7414988730694
 20
186.4682602502767
 30
0.0
 10
563.71600446095
 20
186.4767751800479
 30
0.0
 10
563.6771249640107
 20
186.4843402212207
 30
0.0
 10
563.6347048535226
 20
186.4831169546895
 30
0.0
 10
563.5901227976617
 20
186.4739992769784
 30
0.0
 10
563.5439791354273
 20
186.4575113382287
 30
0.0
 10
563.5127679340642
 20
186.4402440425192
 30
0.0
 10
563.4971623333828
 20
186.4316103946644
 30
0.0
  0
SPLINE
  5
1AA
330
1F
100
AcDbEntity
  8
0
  6
Continuous
 62
   252
370
     0
100
AcDbSpline
210
0.0
220
0.0
230
1.0
 70
     8
 71
     3
 72
    12
 73
     8
 74
     0
 42
0.000000001
 43
0.00000001
 40
0.0
 40
0.0
 40
0.0
 40
0.0
 40
0.0108387481312049
 40
0.258129061098408
 40
0.5054193740656078
 40
0.7527096870328025
 40
0.9999999999999999
 40
0.9999999999999999
 40
0.9999999999999999
 40
0.9999999999999999
 10
565.0634195457304
 20
64.98915069111413
 30
0.0
 10
565.0635559092309
 20
64.98831837764213
 30
0.0
 10
565.066803459768
 20
64.96849650407587
 30
0.0
 10
565.0549986104596
 20
64.92930829144173
 30
0.0
 10
565.0264639173298
 20
64.87459248229483
 30
0.0
 10
564.9785072642263
 20
64.82371307989874
 30
0.0
 10
564.9336094241794
 20
64.79559719896696
 30
0.0
 10
564.9111605041559
 20
64.78153925850111
 30
0.0
  0
SPLINE
  5
1AB
330
1F
100
AcDbEntity
  8
0
  6
Continuous
 62
   252
370
     0
100
AcDbSpline
210
0.0
220
0.0
230
1.0
 70
     8
 71
     3
 72
    12
 73
     8
 74
     0
 42
0.000000001
 43
0.00000001
 40
0.0
 40
0.0
 40
0.0
 40
0.0
 40
0.0107388508682108
 40
0.2580541381511495
 40
0.5053694254341026
 40
0.7526847127170508
 40
1.0
 40
1.0
 40
1.0
 40
1.0
 10
460.5276267487367
 20
246.0504373245716
 30
0.0
 10
460.5269801039935
 20
246.0509666911193
 30
0.0
 10
460.5114412578023
 20
246.0636873471676
 30
0.0
 10
460.4716034190761
 20
246.0730598260553
 30
0.0
 10
460.40994632927
 20
246.0757159656103
 30
0.0
 10
460.3419001965902
 20
246.0596319659083
 30
0.0
 10
460.2950995946659
 20
246.0348118460253
 30
0.0
 10
460.2716992937038
 20
246.0224017860838
 30
0.0
  0
SPLINE
  5
1AC
330
1F
100
AcDbEntity
  8
0
  6
Continuous
 62
   252
370
     0
100
AcDbSpline
210
0.0
220
0.0
230
1.0
 70
     8
 71
     3
 72
    14
 73
    10
 74
     0
 42
0.000000001
 43
0.00000001
 40
0.0
 40
0.0
 40
0.0
 40
0.0
 40
0.25
 40
0.25
 40
0.5
 40
0.5
 40
0.75
 40
0.75
 40
1.0
 40
1.0
 40
1.0
 40
1.0
 10
554.810201697969
 20
60.46261623074989
 30
0.0
 10
554.9480684385936
 20
60.38498855133198
 30
0.0
 10
555.1121234544385
 20
60.32327725235071
 30
0.0
 10
555.4687847614155
 20
60.2406495330366
 30
0.0
 10
555.6612609582585
 20
60.2197632513907
 30
0.0
 10
556.0465516306128
 20
60.22187905268719
 30
0.0
 10
556.2392255691077
 20
60.24488036362377
 30
0.0
 10
556.596649125195
 20
60.33142933573177
 30
0.0
 10
556.761268370464
 20
60.39494542740567
 30
0.0
 10
556.8998414746084
 20
60.47409096234296
 30
0.0
  0
SPLINE
  5
1AD
330
1F
100
AcDbEntity
  8
0
  6
Continuous
 62
   252
370
     0
100
AcDbSpline
210
0.0
220
0.0
230
1.0
 70
     8
 71
     3
 72
    18
 73
    14
 74
     0
 42
0.000000001
 43
0.00000001
 40
0.0
 40
0.0
 40
0.0
 40
0.0
 40
0.0208136185928034
 40
0.1187332838454801
 40
0.2166525787344308
 40
0.314571556552651
 40
0.4124902705936894
 40
0.5104087741514993
 40
0.6083271205203791
 40
0.7062453629949171
 40
0.8041635548698124
 40
0.902081749439911
 40
0.9999999999999999
 40
0.9999999999999999
 40
0.9999999999999999
 40
0.9999999999999999
 10
556.4621887941594
 20
59.54672107338768
 30
0.0
 10
556.4679929016314
 20
59.54949042271316
 30
0.0
 10
556.5011029894752
 20
59.56528844159511
 30
0.0
 10
556.5557030537556
 20
59.60472190036967
 30
0.0
 10
556.6251017821927
 20
59.66516576629613
 30
0.0
 10
556.6870729127601
 20
59.73661096696043
 30
0.0
 10
556.741866229577
 20
59.81743845298757
 30
0.0
 10
556.7889765368936
 20
59.90746242910133
 30
0.0
 10
556.8281416751657
 20
60.00605101354378
 30
0.0
 10
556.8591618691903
 20
60.112584530855
 30
0.0
 10
556.881635122332
 20
60.2265222237498
 30
0.0
 10
556.8962052986186
 20
60.34669962607381
 30
0.0
 10
556.8986294733545
 20
60.4316309643248
 30
0.0
 10
556.8998415610691
 20
60.47409664559131
 30
0.0
  0
SPLINE
  5
1AE
330
1F
100
AcDbEntity
  8
0
  6
Continuous
 62
   252
370
     0
100
AcDbSpline
210
0.0
220
0.0
230
1.0
 70
     8
 71
     3
 72
    16
 73
    12
 74
     0
 42
0.000000001
 43
0.00000001
 40
0.0
 40
0.0
 40
0.0
 40
0.0
 40
0.1235175142836356
 40
0.2470350285671089
 40
0.3705525428507931
 40
0.4940700571342047
 40
0.6175875714182811
 40
0.7411050857016972
 40
0.8646225999859526
 40
0.9881401142690488
 40
1.0
 40
1.0
 40
1.0
 40
1.0
 10
554.4566146230014
 20
60.25842796331551
 30
0.0
 10
554.4579513846968
 20
60.21991579325037
 30
0.0
 10
554.4606249080877
 20
60.14289145312016
 30
0.0
 10
554.47691429776
 20
60.03588284939559
 30
0.0
 10
554.5020358466616
 20
59.9364040342216
 30
0.0
 10
554.5366240155668
 20
59.84588169013607
 30
0.0
 10
554.5801845184594
 20
59.76512796003048
 30
0.0
 10
554.6321404898756
 20
59.69449579637154
 30
0.0
 10
554.6928757657529
 20
59.63625028471939
 30
0.0
 10
554.7387521781806
 20
59.6003637309242
 30
0.0
 10
554.7660665507327
 20
59.58759032467933
 30
0.0
 10
554.768459456323
 20
59.58647129640399
 30
0.0
  0
SPLINE
  5
1AF
330
1F
100
AcDbEntity
  8
0
  6
Continuous
 62
   252
370
     0
100
AcDbSpline
210
0.0
220
0.0
230
1.0
 70
     8
 71
     3
 72
    16
 73
    12
 74
     0
 42
0.000000001
 43
0.00000001
 40
0.0
 40
0.0
 40
0.0
 40
0.0
 40
0.1235304515971739
 40
0.2470609031942947
 40
0.3705913547911771
 40
0.4941218063885345
 40
0.6176522579856643
 40
0.7411827095832116
 40
0.8647131611799321
 40
0.9882436127770433
 40
0.9999999999999999
 40
0.9999999999999999
 40
0.9999999999999999
 40
0.9999999999999999
 10
451.1269116002497
 20
239.2307262476392
 30
0.0
 10
451.0942293014087
 20
239.2511367580325
 30
0.0
 10
451.0288647037267
 20
239.291957778819
 30
0.0
 10
450.9443433706685
 20
239.3595583187885
 30
0.0
 10
450.8707595091645
 20
239.4310421925126
 30
0.0
 10
450.8096658295874
 20
239.5062455436376
 30
0.0
 10
450.7615186464784
 20
239.5843343685111
 30
0.0
 10
450.7263343936778
 20
239.664632733336
 30
0.0
 10
450.7062692902743
 20
239.7463405881202
 30
0.0
 10
450.6981330744777
 20
239.8039814540202
 30
0.0
 10
450.7007274029763
 20
239.8339950360693
 30
0.0
 10
450.7009528493736
 20
239.8366032076815
 30
0.0
  0
SPLINE
  5
1B0
330
1F
100
AcDbEntity
  8
0
  6
Continuous
 62
   252
370
     0
100
AcDbSpline
210
0.0
220
0.0
230
1.0
 70
     8
 71
     3
 72
    18
 73
    14
 74
     0
 42
0.000000001
 43
0.00000001
 40
0.0
 40
0.0
 40
0.0
 40
0.0
 40
0.0981166669964004
 40
0.1962324290105945
 40
0.2943473394291981
 40
0.3924614516402475
 40
0.4905748190330706
 40
0.5886874949981977
 40
0.6867995329273167
 40
0.7849109862131413
 40
0.8830219082493239
 40
0.9811323524304086
 40
1.0
 40
1.0
 40
1.0
 40
1.0
 10
452.5352586933145
 20
241.2388560782583
 30
0.0
 10
452.4978752278181
 20
241.2590372702241
 30
0.0
 10
452.423108641633
 20
241.2993994680139
 30
0.0
 10
452.3117454177429
 20
241.3468606685373
 30
0.0
 10
452.2018360543396
 20
241.3843553337156
 30
0.0
 10
452.0940671277002
 20
241.4107437973072
 30
0.0
 10
451.9891080568013
 20
241.4261040171916
 30
0.0
 10
451.887594871801
 20
241.4303003052711
 30
0.0
 10
451.7902075528035
 20
241.4232412615613
 30
0.0
 10
451.6973529160989
 20
241.4052827020497
 30
0.0
 10
451.6103325346652
 20
241.3753589167931
 30
0.0
 10
451.5494106144142
 20
241.3480968159303
 30
0.0
 10
451.5196679683834
 20
241.3276862233283
 30
0.0
 10
451.5148707131479
 20
241.3243941550262
 30
0.0
  0
SPLINE
  5
1B1
330
1F
100
AcDbEntity
  8
0
  6
Continuous
 62
   252
370
     0
100
AcDbSpline
210
0.0
220
0.0
230
1.0
 70
     8
 71
     3
 72
    16
 73
    12
 74
     0
 42
0.000000001
 43
0.00000001
 40
0.0
 40
0.0
 40
0.0
 40
0.0
 40
0.1226192005798627
 40
0.2452361038692897
 40
0.3678510383064439
 40
0.4904643323452864
 40
0.6130763144529838
 40
0.7356873131072472
 40
0.8582976567936791
 40
0.9809076740031425
 40
1.0
 40
1.0
 40
1.0
 40
1.0
 10
564.9111605041631
 20
64.7815392584968
 30
0.0
 10
564.9096438466436
 20
64.72874759403605
 30
0.0
 10
564.9066105600191
 20
64.62316525417494
 30
0.0
 10
564.8848713398646
 20
64.47630121772727
 30
0.0
 10
564.85078330017
 20
64.3397071149516
 30
0.0
 10
564.8034693991151
 20
64.21538179081024
 30
0.0
 10
564.7436482876495
 20
64.10448099801123
 30
0.0
 10
564.6721083983076
 20
64.00758522519601
 30
0.0
 10
564.5884718038963
 20
63.92764201643908
 30
0.0
 10
564.5231961079043
 20
63.87750370701678
 30
0.0
 10
564.4833940118938
 20
63.85931710514667
 30
0.0
 10
564.4780312594143
 20
63.85686672554236
 30
0.0
  0
SPLINE
  5
1B2
330
1F
100
AcDbEntity
  8
0
  6
Continuous
 62
   252
370
     0
100
AcDbSpline
210
0.0
220
0.0
230
1.0
 70
     8
 71
     3
 72
    16
 73
    12
 74
     0
 42
0.000000001
 43
0.00000001
 40
0.0
 40
0.0
 40
0.0
 40
0.0
 40
0.0188723403765574
 40
0.1415098408988431
 40
0.2641476720052204
 40
0.3867861622601463
 40
0.5094256402227744
 40
0.6320664344443053
 40
0.7547088734653898
 40
0.8773532858134441
 40
1.0
 40
1.0
 40
1.0
 40
1.0
 10
459.2545932708825
 20
246.1096203495215
 30
0.0
 10
459.2593400879492
 20
246.1129997237978
 30
0.0
 10
459.2949329881664
 20
246.1383391733109
 30
0.0
 10
459.3709259846592
 20
246.1697765890578
 30
0.0
 10
459.4819642701061
 20
246.202258523667
 30
0.0
 10
459.6016387301624
 20
246.2157828434262
 30
0.0
 10
459.7275820268661
 20
246.2121566719341
 30
0.0
 10
459.8588983233349
 20
246.1909856212728
 30
0.0
 10
459.994227223243
 20
246.1522254529849
 30
0.0
 10
460.1322762884573
 20
246.0976349752022
 30
0.0
 10
460.225224807615
 20
246.0474795920125
 30
0.0
 10
460.2716995033134
 20
246.0224016650858
 30
0.0
  0
SPLINE
  5
1B3
330
1F
100
AcDbEntity
  8
0
  6
Continuous
 62
   252
370
     0
100
AcDbSpline
210
0.0
220
0.0
230
1.0
 70
     8
 71
     3
 72
    15
 73
    11
 74
     0
 42
0.000000001
 43
0.00000001
 40
0.0
 40
0.0
 40
0.0
 40
0.0
 40
0.1255270877365087
 40
0.2510541754731078
 40
0.3765812632091038
 40
0.502108350945799
 40
0.6276354386822629
 40
0.7531625264195493
 40
0.878689614154668
 40
1.0
 40
1.0
 40
1.0
 40
1.0
 10
451.4804974674796
 20
119.7052768759413
 30
0.0
 10
451.4818810776886
 20
119.6667373577241
 30
0.0
 10
451.4846482981067
 20
119.5896583212899
 30
0.0
 10
451.5013786976614
 20
119.482397993639
 30
0.0
 10
451.5271491895818
 20
119.3825323685215
 30
0.0
 10
451.5626402055402
 20
119.2915331350139
 30
0.0
 10
451.6072295652073
 20
119.2100189347912
 30
0.0
 10
451.6607569539265
 20
119.139100058563
 30
0.0
 10
451.7213209503909
 20
119.0789224969052
 30
0.0
 10
451.7677702811136
 20
119.0487249958848
 30
0.0
 10
451.7905982016497
 20
119.0338841759428
 30
0.0
  0
SPLINE
  5
1B4
330
1F
100
AcDbEntity
  8
0
  6
Continuous
 62
   252
370
     0
100
AcDbSpline
210
0.0
220
0.0
230
1.0
 70
     8
 71
     3
 72
    15
 73
    11
 74
     0
 42
0.000000001
 43
0.00000001
 40
0.0
 40
0.0
 40
0.0
 40
0.0
 40
0.1250983810172868
 40
0.2501967620346536
 40
0.3752951430517638
 40
0.5003935240692837
 40
0.6254919050863008
 40
0.7505902861039175
 40
0.8756886671212827
 40
1.0
 40
1.0
 40
1.0
 40
1.0
 10
450.914501945932
 20
146.9453189842726
 30
0.0
 10
450.8818195738083
 20
146.9657715867437
 30
0.0
 10
450.8164548295609
 20
147.006676791686
 30
0.0
 10
450.731937067279
 20
147.0746713789547
 30
0.0
 10
450.6583445253366
 20
147.1467415349059
 30
0.0
 10
450.5972902404313
 20
147.2227365417733
 30
0.0
 10
450.5490051867674
 20
147.301812626655
 30
0.0
 10
450.5143467305625
 20
147.3832758306341
 30
0.0
 10
450.4923787411571
 20
147.4661789797806
 30
0.0
 10
450.4894437282597
 20
147.5219695413231
 30
0.0
 10
450.4879808527381
 20
147.5497767945333
 30
0.0
  0
SPLINE
  5
1B5
330
1F
100
AcDbEntity
  8
0
  6
Continuous
 62
   252
370
     0
100
AcDbSpline
210
0.0
220
0.0
230
1.0
 70
     8
 71
     3
 72
    15
 73
    11
 74
     0
 42
0.000000001
 43
0.00000001
 40
0.0
 40
0.0
 40
0.0
 40
0.0
 40
0.1253354539052971
 40
0.2509099885985496
 40
0.3765865468548658
 40
0.5022653841312217
 40
0.6278862399975902
 40
0.753426037997644
 40
0.8788929292265002
 40
1.0
 40
1.0
 40
1.0
 40
1.0
 10
451.1269114623034
 20
120.3177070283482
 30
0.0
 10
451.0942259030982
 20
120.3381094470274
 30
0.0
 10
451.0287924360945
 20
120.3789532025543
 30
0.0
 10
450.9443270026131
 20
120.4470830830467
 30
0.0
 10
450.870741634315
 20
120.5194068979284
 30
0.0
 10
450.8096939189206
 20
120.5957224415031
 30
0.0
 10
450.7614070241965
 20
120.6751366670513
 30
0.0
 10
450.7267667227867
 20
120.7569431743876
 30
0.0
 10
450.7049494730779
 20
120.8394057042118
 30
0.0
 10
450.7020284773648
 20
120.8946583466325
 30
0.0
 10
450.700593803437
 20
120.9217961904735
 30
0.0
  0
ENDSEC
  0
SECTION
  2
OBJECTS
  0
DICTIONARY
  5
C
330
0
100
AcDbDictionary
281
     1
  3
ACAD_GROUP
350
D
  3
ACAD_LAYOUT
350
1A
  3
ACAD_MLINESTYLE
350
17
  3
ACAD_PLOTSETTINGS
350
19
  3
ACAD_PLOTSTYLENAME
350
E
  3
ACAD_SCALELIST
350
47
  0
DICTIONARY
  5
D
102
{ACAD_REACTORS
330
C
102
}
330
C
100
AcDbDictionary
281
     1
  0
DICTIONARY
  5
1A
102
{ACAD_REACTORS
330
C
102
}
330
C
100
AcDbDictionary
281
     1
  3
Layout1
350
1E
  3
Layout2
350
26
  3
Model
350
22
  0
DICTIONARY
  5
17
102
{ACAD_REACTORS
330
C
102
}
330
C
100
AcDbDictionary
281
     1
  3
Standard
350
18
  0
DICTIONARY
  5
19
102
{ACAD_REACTORS
330
C
102
}
330
C
100
AcDbDictionary
281
     1
  0
ACDBDICTIONARYWDFLT
  5
E
102
{ACAD_REACTORS
330
C
102
}
330
C
100
AcDbDictionary
281
     1
  3
Normal
350
F
100
AcDbDictionaryWithDefault
340
F
  0
DICTIONARY
  5
47
102
{ACAD_REACTORS
330
C
102
}
330
C
100
AcDbDictionary
281
     1
  3
A0
350
48
  3
A1
350
49
  3
A2
350
4A
  3
A3
350
4B
  3
A4
350
4C
  3
A5
350
4D
  3
A6
350
4E
  3
A7
350
4F
  3
A8
350
50
  3
A9
350
51
  3
B0
350
52
  3
B1
350
53
  3
B2
350
54
  3
B3
350
55
  3
B4
350
56
  3
B5
350
57
  3
B6
350
58
  3
B7
350
59
  3
B8
350
5A
  3
B9
350
5B
  3
C0
350
5C
  3
C1
350
5D
  3
C2
350
5E
  3
C3
350
5F
  3
C4
350
60
  3
C5
350
61
  3
C6
350
62
  3
C7
350
63
  3
C8
350
64
  3
C9
350
65
  3
D0
350
66
  3
D1
350
67
  3
D2
350
68
  0
LAYOUT
  5
1E
102
{ACAD_REACTORS
330
1A
102
}
330
1A
100
AcDbPlotSettings
  1

  2
none_device
  4

  6

 40
0.0
 41
0.0
 42
0.0
 43
0.0
 44
0.0
 45
0.0
 46
0.0
 47
0.0
 48
0.0
 49
0.0
140
0.0
141
0.0
142
1.0
143
1.0
 70
   688
 72
     1
 73
     0
 74
     5
  7

 75
    16
147
1.0
148
0.0
149
0.0
100
AcDbLayout
  1
Layout1
 70
     1
 71
     1
 10
0.0
 20
0.0
 11
420.0
 21
297.0
 12
0.0
 22
0.0
 32
0.0
 14
1.0000000000E+20
 24
1.0000000000E+20
 34
1.0000000000E+20
 15
-1.0000000000E+20
 25
-1.0000000000E+20
 35
-1.0000000000E+20
146
0.0
 13
0.0
 23
0.0
 33
0.0
 16
1.0
 26
0.0
 36
0.0
 17
0.0
 27
1.0
 37
0.0
 76
     0
330
1B
  0
LAYOUT
  5
26
102
{ACAD_REACTORS
330
1A
102
}
330
1A
100
AcDbPlotSettings
  1

  2
none_device
  4

  6

 40
0.0
 41
0.0
 42
0.0
 43
0.0
 44
0.0
 45
0.0
 46
0.0
 47
0.0
 48
0.0
 49
0.0
140
0.0
141
0.0
142
1.0
143
1.0
 70
   688
 72
     1
 73
     0
 74
     5
  7

 75
    16
147
1.0
148
0.0
149
0.0
100
AcDbLayout
  1
Layout2
 70
     1
 71
     2
 10
0.0
 20
0.0
 11
0.0
 21
0.0
 12
0.0
 22
0.0
 32
0.0
 14
0.0
 24
0.0
 34
0.0
 15
0.0
 25
0.0
 35
0.0
146
0.0
 13
0.0
 23
0.0
 33
0.0
 16
1.0
 26
0.0
 36
0.0
 17
0.0
 27
1.0
 37
0.0
 76
     0
330
23
  0
LAYOUT
  5
22
102
{ACAD_REACTORS
330
1A
102
}
330
1A
100
AcDbPlotSettings
  1

  2
none_device
  4
Letter_(8.50_x_11.00_Inches)
  6

 40
6.35
 41
6.35
 42
6.35000508
 43
6.35000508
 44
215.9
 45
279.4
 46
0.0
 47
0.0
 48
0.0
 49
0.0
140
0.0
141
0.0
142
1.0
143
1.0
 70
  1712
 72
     1
 73
     0
 74
     0
  7

 75
     0
147
1.0
148
0.0
149
0.0
100
AcDbLayout
  1
Model
 70
     1
 71
     0
 10
0.0
 20
0.0
 11
633.0
 21
601.0
 12
0.0
 22
0.0
 32
0.0
 14
0.0
 24
0.0
 34
0.0
 15
633.0
 25
601.0
 35
0.0
146
0.0
 13
0.0
 23
0.0
 33
0.0
 16
1.0
 26
0.0
 36
0.0
 17
0.0
 27
1.0
 37
0.0
 76
     0
330
1F
331
29
  0
MLINESTYLE
  5
18
102
{ACAD_REACTORS
330
17
102
}
330
17
100
AcDbMlineStyle
  2
Standard
 70
     0
  3

 62
   256
 51
90.0
 52
90.0
 71
     2
 49
0.5
 62
   256
  6
BYLAYER
 49
-0.5
 62
   256
  6
BYLAYER
  0
ACDBPLACEHOLDER
  5
F
102
{ACAD_REACTORS
330
E
102
}
330
E
  0
SCALE
  5
48
102
{ACAD_REACTORS
330
47
102
}
330
47
100
AcDbScale
 70
     0
300
1:1
140
1.0
141
1.0
290
     1
  0
SCALE
  5
49
102
{ACAD_REACTORS
330
47
102
}
330
47
100
AcDbScale
 70
     0
300
1:2
140
1.0
141
2.0
290
     0
  0
SCALE
  5
4A
102
{ACAD_REACTORS
330
47
102
}
330
47
100
AcDbScale
 70
     0
300
1:4
140
1.0
141
4.0
290
     0
  0
SCALE
  5
4B
102
{ACAD_REACTORS
330
47
102
}
330
47
100
AcDbScale
 70
     0
300
1:5
140
1.0
141
5.0
290
     0
  0
SCALE
  5
4C
102
{ACAD_REACTORS
330
47
102
}
330
47
100
AcDbScale
 70
     0
300
1:8
140
1.0
141
8.0
290
     0
  0
SCALE
  5
4D
102
{ACAD_REACTORS
330
47
102
}
330
47
100
AcDbScale
 70
     0
300
1:10
140
1.0
141
10.0
290
     0
  0
SCALE
  5
4E
102
{ACAD_REACTORS
330
47
102
}
330
47
100
AcDbScale
 70
     0
300
1:16
140
1.0
141
16.0
290
     0
  0
SCALE
  5
4F
102
{ACAD_REACTORS
330
47
102
}
330
47
100
AcDbScale
 70
     0
300
1:20
140
1.0
141
20.0
290
     0
  0
SCALE
  5
50
102
{ACAD_REACTORS
330
47
102
}
330
47
100
AcDbScale
 70
     0
300
1:30
140
1.0
141
30.0
290
     0
  0
SCALE
  5
51
102
{ACAD_REACTORS
330
47
102
}
330
47
100
AcDbScale
 70
     0
300
1:40
140
1.0
141
40.0
290
     0
  0
SCALE
  5
52
102
{ACAD_REACTORS
330
47
102
}
330
47
100
AcDbScale
 70
     0
300
1:50
140
1.0
141
50.0
290
     0
  0
SCALE
  5
53
102
{ACAD_REACTORS
330
47
102
}
330
47
100
AcDbScale
 70
     0
300
1:100
140
1.0
141
100.0
290
     0
  0
SCALE
  5
54
102
{ACAD_REACTORS
330
47
102
}
330
47
100
AcDbScale
 70
     0
300
2:1
140
2.0
141
1.0
290
     0
  0
SCALE
  5
55
102
{ACAD_REACTORS
330
47
102
}
330
47
100
AcDbScale
 70
     0
300
4:1
140
4.0
141
1.0
290
     0
  0
SCALE
  5
56
102
{ACAD_REACTORS
330
47
102
}
330
47
100
AcDbScale
 70
     0
300
8:1
140
8.0
141
1.0
290
     0
  0
SCALE
  5
57
102
{ACAD_REACTORS
330
47
102
}
330
47
100
AcDbScale
 70
     0
300
10:1
140
10.0
141
1.0
290
     0
  0
SCALE
  5
58
102
{ACAD_REACTORS
330
47
102
}
330
47
100
AcDbScale
 70
     0
300
100:1
140
100.0
141
1.0
290
     0
  0
SCALE
  5
59
102
{ACAD_REACTORS
330
47
102
}
330
47
100
AcDbScale
 70
     0
300
1/128" = 1'-0"
140
0.0078125
141
12.0
290
     0
  0
SCALE
  5
5A
102
{ACAD_REACTORS
330
47
102
}
330
47
100
AcDbScale
 70
     0
300
1/64" = 1'-0"
140
0.015625
141
12.0
290
     0
  0
SCALE
  5
5B
102
{ACAD_REACTORS
330
47
102
}
330
47
100
AcDbScale
 70
     0
300
1/32" = 1'-0"
140
0.03125
141
12.0
290
     0
  0
SCALE
  5
5C
102
{ACAD_REACTORS
330
47
102
}
330
47
100
AcDbScale
 70
     0
300
1/16" = 1'-0"
140
0.0625
141
12.0
290
     0
  0
SCALE
  5
5D
102
{ACAD_REACTORS
330
47
102
}
330
47
100
AcDbScale
 70
     0
300
3/32" = 1'-0"
140
0.09375
141
12.0
290
     0
  0
SCALE
  5
5E
102
{ACAD_REACTORS
330
47
102
}
330
47
100
AcDbScale
 70
     0
300
1/8" = 1'-0"
140
0.125
141
12.0
290
     0
  0
SCALE
  5
5F
102
{ACAD_REACTORS
330
47
102
}
330
47
100
AcDbScale
 70
     0
300
3/16" = 1'-0"
140
0.1875
141
12.0
290
     0
  0
SCALE
  5
60
102
{ACAD_REACTORS
330
47
102
}
330
47
100
AcDbScale
 70
     0
300
1/4" = 1'-0"
140
0.25
141
12.0
290
     0
  0
SCALE
  5
61
102
{ACAD_REACTORS
330
47
102
}
330
47
100
AcDbScale
 70
     0
300
3/8" = 1'-0"
140
0.375
141
12.0
290
     0
  0
SCALE
  5
62
102
{ACAD_REACTORS
330
47
102
}
330
47
100
AcDbScale
 70
     0
300
1/2" = 1'-0"
140
0.5
141
12.0
290
     0
  0
SCALE
  5
63
102
{ACAD_REACTORS
330
47
102
}
330
47
100
AcDbScale
 70
     0
300
3/4" = 1'-0"
140
0.75
141
12.0
290
     0
  0
SCALE
  5
64
102
{ACAD_REACTORS
330
47
102
}
330
47
100
AcDbScale
 70
     0
300
1" = 1'-0"
140
1.0
141
12.0
290
     0
  0
SCALE
  5
65
102
{ACAD_REACTORS
330
47
102
}
330
47
100
AcDbScale
 70
     0
300
1-1/2" = 1'-0"
140
1.5
141
12.0
290
     0
  0
SCALE
  5
66
102
{ACAD_REACTORS
330
47
102
}
330
47
100
AcDbScale
 70
     0
300
3" = 1'-0"
140
3.0
141
12.0
290
     0
  0
SCALE
  5
67
102
{ACAD_REACTORS
330
47
102
}
330
47
100
AcDbScale
 70
     0
300
6" = 1'-0"
140
6.0
141
12.0
290
     0
  0
SCALE
  5
68
102
{ACAD_REACTORS
330
47
102
}
330
47
100
AcDbScale
 70
     0
300
1'-0" = 1'-0"
140
12.0
141
12.0
290
     0
  0
ENDSEC
  0
EOF
